  0
SECTION
  2
HEADER
  9
$ACADVER
  1
AC1014
  9
$DWGCODEPAGE
  3
ANSI_1252
  9
$INSBASE
 10
0.0
 20
0.0
 30
0.0
  9
$EXTMIN
 10
1604.1442253
 20
-635.56861917
  9
$EXTMAX
 10
1801.46102669
 20
-364.56861917
  9
$LIMMIN
 10
1604.1442253
 20
-635.56861917
  9
$LIMMAX
 10
1801.46102669
 20
-364.56861917
  9
$ORTHOMODE
 70
     0
  9
$REGENMODE
 70
     1
  9
$FILLMODE
 70
     1
  9
$QTEXTMODE
 70
     0
  9
$MIRRTEXT
 70
     1
  9
$DRAGMODE
 70
     2
  9
$LTSCALE
 40
1.0
  9
$OSMODE
 70
     0
  9
$ATTMODE
 70
     1
  9
$TEXTSIZE
 40
3.5
  9
$TRACEWID
 40
1.0
  9
$TEXTSTYLE
  7
STANDARD
  9
$CLAYER
  8
0
  9
$CELTYPE
  6
BYLAYER
  9
$CECOLOR
 62
   256
  9
$DIMSCALE
 40
1.0
  9
$DIMASZ
 40
2.0
  9
$DIMEXO
 40
5.0
  9
$DIMDLI
 40
10.0
  9
$DIMRND
 40
0.0
  9
$DIMDLE
 40
2.0
  9
$DIMEXE
 40
2.0
  9
$DIMTP
 40
0.0
  9
$DIMTM
 40
0.0
  9
$DIMTXT
 40
2.1
  9
$DIMCEN
 40
1.5
  9
$DIMTSZ
 40
0.0
  9
$DIMTOL
 70
     0
  9
$DIMLIM
 70
     0
  9
$DIMTIH
 70
     1
  9
$DIMTOH
 70
     0
  9
$DIMSE1
 70
     0
  9
$DIMSE2
 70
     0
  9
$DIMTAD
 70
     1
  9
$DIMZIN
 70
     8
  9
$DIMBLK
  1

  9
$DIMASO
 70
     1
  9
$DIMSHO
 70
     1
  9
$DIMPOST
  1

  9
$DIMAPOST
  1

  9
$DIMALT
 70
     0
  9
$DIMALTD
 70
     2
  9
$DIMALTF
 40
25.4
  9
$DIMLFAC
 40
1.0
  9
$DIMTOFL
 70
     0
  9
$DIMTVP
 40
0.0
  9
$DIMTIX
 70
     0
  9
$DIMSOXD
 70
     0
  9
$DIMSAH
 70
     0
  9
$DIMBLK1
  1

  9
$DIMBLK2
  1

  9
$DIMSTYLE
  2
*UNNAMED
  9
$DIMCLRD
 70
     5
  9
$DIMCLRE
 70
     5
  9
$DIMCLRT
 70
     5
  9
$DIMTFAC
 40
1.0
  9
$DIMGAP
 40
0.09
  9
$DIMUNIT
 70
     2
  9
$LUNITS
 70
     2
  9
$LUPREC
 70
     6
  9
$AXISMODE
 70
     0
  9
$AXISUNIT
 10
0.0
 20
0.0
  9
$SKETCHINC
 40
0.1
  9
$FILLETRAD
 40
0.0
  9
$AUNITS
 70
     0
  9
$AUPREC
 70
     0
  9
$MENU
  1
ACAD
  9
$ELEVATION
 40
0.0
  9
$PELEVATION
 40
0.0
  9
$THICKNESS
 40
0.0
  9
$LIMCHECK
 70
     0
  9
$BLIPMODE
 70
     1
  9
$CHAMFERA
 40
0.0
  9
$CHAMFERB
 40
0.0
  9
$SKPOLY
 70
     1
  9
$TDCREATE
 40
2458675.0000000000
  9
$TDUPDATE
 40
2458675.0000000000
  9
$TDINDWG
 40
0.0
  9
$TDUSRTIMER
 40
0.0
  9
$USRTIMER
 70
     1
  9
$ANGBASE
 50
0.0
  9
$ANGDIR
 70
     0
  9
$PDMODE
 70
     0
  9
$PDSIZE
 40
0.0
  9
$PLINEWID
 40
0.0
  9
$COORDS
 70
     2
  9
$SPLFRAME
 70
     0
  9
$SPLINETYPE
 70
     6
  9
$SPLINESEGS
 70
     8
  9
$ATTDIA
 70
     1
  9
$ATTREQ
 70
     1
  9
$HANDLING
 70
     1
  9
$HANDSEED
  5
     6AF
  9
$SURFTAB1
 70
     6
  9
$SURFTAB2
 70
     6
  9
$SURFTYPE
 70
     6
  9
$SURFU
 70
     6
  9
$SURFV
 70
     6
  9
$UCSNAME
  2

  9
$UCSORG
 10
0.0
 20
0.0
 30
0.0
  9
$UCSXDIR
 10
1.0
 20
0.0
 30
0.0
  9
$UCSYDIR
 10
0.0
 20
1.0
 30
0.0
  9
$PUCSNAME
  2

  9
$PUCSORG
 10
0.0
 20
0.0
 30
0.0
  9
$PUCSXDIR
 10
1.0
 20
0.0
 30
0.0
  9
$PUCSYDIR
 10
0.0
 20
1.0
 30
0.0
  9
$USERI1
 70
     0
  9
$USERI2
 70
     0
  9
$USERI3
 70
     0
  9
$USERI4
 70
     0
  9
$USERI5
 70
     0
  9
$USERR1
 40
0.0
  9
$USERR2
 40
0.0
  9
$USERR3
 40
0.0
  9
$USERR4
 40
0.0
  9
$USERR5
 40
0.0
  9
$WORLDVIEW
 70
     1
  9
$SHADEDGE
 70
     3
  9
$SHADEDIF
 70
    70
  9
$TILEMODE
 70
     1
  9
$MAXACTVP
 70
    16
  9
$PINSBASE
 10
0.0
 20
0.0
 30
0.0
  9
$PLIMCHECK
 70
     0
  9
$PEXTMIN
 10
1.0000000000000E+20
 20
1.0000000000000E+20
 30
1.0000000000000E+20
  9
$PEXTMAX
 10
-1.0000000000000E+20
 20
-1.0000000000000E+20
 30
-1.0000000000000E+20
  9
$PLIMMIN
 10
0.0
 20
0.0
  9
$UNITMODE
 70
     0
  9
$VISRETAIN
 70
     0
  9
$MEASUREMENT
 70
     1
  0
ENDSEC
  0
SECTION
  2
TABLES
  0
TABLE
  2
VPORT
  5
1B2
100
AcDbSymbolTable
 70
     1
  0
ENDTAB
  0
TABLE
  2
STYLE
  5
1B3
100
AcDbSymbolTable
 70
     3
  0
STYLE
  5
1B4
100
AcDbSymbolTableRecord
100
AcDbTextStyleTableRecord
  2
STANDARD
 70
     0
 40
0.0
 41
1.0
 50
0.0
 71
     0
 42
3.5
  3
MONOTXT
  4

  0
STYLE
  5
1B5
100
AcDbSymbolTableRecord
100
AcDbTextStyleTableRecord
  2
SYMAP
 70
     0
 40
0.0
 41
1.0
 50
0.0
 71
     0
 42
3.5
  3
SYMAP
  4

  0
STYLE
  5
1B6
100
AcDbSymbolTableRecord
100
AcDbTextStyleTableRecord
  2
CADWORK1
 70
     0
 40
0.0
 41
1.0
 50
0.0
 71
     0
 42
3.5
  3
MONOTXT
  4

  0
STYLE
  5
1B7
100
AcDbSymbolTableRecord
100
AcDbTextStyleTableRecord
  2
MONOTXT
 70
     0
 40
0.0
 41
1.0
 50
0.0
 71
     0
 42
3.5
  3
MONOTXT
  4

  0
STYLE
  5
1B8
100
AcDbSymbolTableRecord
100
AcDbTextStyleTableRecord
  2
TAHOMA
 70
     0
 40
0.0
 41
1.0
 50
0.0
 71
     0
 42
3.5
  3

  4

1001
ACAD
1000
Tahoma
1071
        0
  0
ENDTAB
  0
TABLE
  2
LTYPE
  5
1B9
100
AcDbSymbolTable
 70
    15
  0
LTYPE
  5
1BA
100
AcDbSymbolTableRecord
100
AcDbLinetypeTableRecord
  2
BYBLOCK
 70
    64
  3

 72
    65
 73
     0
 40
0.0
  0
LTYPE
  5
1BB
100
AcDbSymbolTableRecord
100
AcDbLinetypeTableRecord
  2
BYLAYER
 70
    64
  3

 72
    65
 73
     0
 40
0.0
  0
LTYPE
  5
1BC
100
AcDbSymbolTableRecord
100
AcDbLinetypeTableRecord
  2
CONTINUOUS
 70
    64
  3
Solid line
 72
    65
 73
     0
 40
0.0
  0
LTYPE
  5
1BD
100
AcDbSymbolTableRecord
100
AcDbLinetypeTableRecord
  2
DOT2
 70
    64
  3
...............................................
 72
    65
 73
     2
 40
1.25
 49
0.0
 74
     0
 49
-1.25
 74
     0
  0
LTYPE
  5
1BE
100
AcDbSymbolTableRecord
100
AcDbLinetypeTableRecord
  2
CADWORK_13
 70
    64
  3
13 =======================================
 72
    65
 73
     2
 40
4.0
 49
2.0
 74
     0
 49
-2.0
 74
     0
  0
LTYPE
  5
1BF
100
AcDbSymbolTableRecord
100
AcDbLinetypeTableRecord
  2
DASHED
 70
    64
  3
__ __ __ __ __ __ __ __ __ __ __ __ __ __ __ __
 72
    65
 73
     2
 40
7.5
 49
5.0
 74
     0
 49
-2.5
 74
     0
  0
LTYPE
  5
1C0
100
AcDbSymbolTableRecord
100
AcDbLinetypeTableRecord
  2
DASHDOT
 70
    64
  3
 __ . __ . __ . __ . __ . __ . __ . __ . __ . __
 72
    65
 73
     4
 40
10.0
 49
5.0
 74
     0
 49
-2.5
 74
     0
 49
0.0
 74
     0
 49
-2.5
 74
     0
  0
LTYPE
  5
1C1
100
AcDbSymbolTableRecord
100
AcDbLinetypeTableRecord
  2
CADWORK_16
 70
    64
  3
--´\,----´\,----´\,----´\,----´\,----´\,----´\,--
 72
    65
 73
     5
 40
17.0
 49
2.0
 74
     0
 49
0.0
 74
     2
 75
     0
340
1B4
 46
6.0
 50
170.0
 44
3.01999998
 45
5.57999992
  9
|
 49
-2.0999999
 74
     2
 75
     0
340
1B4
 46
12.0
 50
10.0
 44
-2.9000001
 45
-6.5999999
  9
|
 49
-2.0999999
 74
     2
 75
     0
340
1B4
 46
6.0
 50
170.0
 44
1.96000004
 45
-0.36000001
  9
|
 49
10.80000019
 74
     0
  0
LTYPE
  5
1C2
100
AcDbSymbolTableRecord
100
AcDbLinetypeTableRecord
  2
CADWORK_15
 70
    64
  3
15 =======================================
 72
    65
 73
     0
 40
0.0
  0
LTYPE
  5
1C3
100
AcDbSymbolTableRecord
100
AcDbLinetypeTableRecord
  2
DAL
 70
    64
  3
Solid line (for MAPS)
 72
    65
 73
     0
 40
0.0
  0
LTYPE
  5
1C4
100
AcDbSymbolTableRecord
100
AcDbLinetypeTableRecord
  2
MUR
 70
    64
  3
Solid line (for MAPS)
 72
    65
 73
     0
 40
0.0
  0
LTYPE
  5
1C5
100
AcDbSymbolTableRecord
100
AcDbLinetypeTableRecord
  2
SOM
 70
    64
  3
Solid line (for MAPS)
 72
    65
 73
     0
 40
0.0
  0
LTYPE
  5
1C6
100
AcDbSymbolTableRecord
100
AcDbLinetypeTableRecord
  2
COL
 70
    64
  3
Solid line (for MAPS)
 72
    65
 73
     0
 40
0.0
  0
LTYPE
  5
1C7
100
AcDbSymbolTableRecord
100
AcDbLinetypeTableRecord
  2
LGN
 70
    64
  3
Solid line (for MAPS)
 72
    65
 73
     0
 40
0.0
  0
LTYPE
  5
1C8
100
AcDbSymbolTableRecord
100
AcDbLinetypeTableRecord
  2
PNT
 70
    64
  3
Solid line (for MAPS)
 72
    65
 73
     0
 40
0.0
  0
ENDTAB
  0
TABLE
  2
LAYER
  5
1C9
100
AcDbSymbolTable
 70
    16
  0
LAYER
  5
1CA
100
AcDbSymbolTableRecord
100
AcDbLayerTableRecord
  2
0
 70
     0
 62
     1
  6
CONTINUOUS
370
    -3
  0
LAYER
  5
1CB
100
AcDbSymbolTableRecord
100
AcDbLayerTableRecord
  2
Standard
 70
     0
 62
     7
  6
CONTINUOUS
370
    -3
  0
LAYER
  5
1CC
100
AcDbSymbolTableRecord
100
AcDbLayerTableRecord
  2
Sc.1_1
 70
     0
 62
     7
  6
CONTINUOUS
370
    -3
  0
LAYER
  5
1CD
100
AcDbSymbolTableRecord
100
AcDbLayerTableRecord
  2
Sc.1_2
 70
     0
 62
     7
  6
CONTINUOUS
370
    -3
  0
LAYER
  5
1CE
100
AcDbSymbolTableRecord
100
AcDbLayerTableRecord
  2
Sc.1_5
 70
     0
 62
     7
  6
CONTINUOUS
370
    -3
  0
LAYER
  5
1CF
100
AcDbSymbolTableRecord
100
AcDbLayerTableRecord
  2
Sc.1_10
 70
     0
 62
     7
  6
CONTINUOUS
370
    -3
  0
LAYER
  5
1D0
100
AcDbSymbolTableRecord
100
AcDbLayerTableRecord
  2
Sc.1_20
 70
     0
 62
     7
  6
CONTINUOUS
370
    -3
  0
LAYER
  5
1D1
100
AcDbSymbolTableRecord
100
AcDbLayerTableRecord
  2
Sc.1_25
 70
     0
 62
     7
  6
CONTINUOUS
370
    -3
  0
LAYER
  5
1D2
100
AcDbSymbolTableRecord
100
AcDbLayerTableRecord
  2
Sc.1_33
 70
     0
 62
     7
  6
CONTINUOUS
370
    -3
  0
LAYER
  5
1D3
100
AcDbSymbolTableRecord
100
AcDbLayerTableRecord
  2
Sc.1_50
 70
     0
 62
     7
  6
CONTINUOUS
370
    -3
  0
LAYER
  5
1D4
100
AcDbSymbolTableRecord
100
AcDbLayerTableRecord
  2
Sc.1_75
 70
     0
 62
     7
  6
CONTINUOUS
370
    -3
  0
LAYER
  5
1D5
100
AcDbSymbolTableRecord
100
AcDbLayerTableRecord
  2
Sc.1_100
 70
     0
 62
     7
  6
CONTINUOUS
370
    -3
  0
LAYER
  5
1D6
100
AcDbSymbolTableRecord
100
AcDbLayerTableRecord
  2
Sc.1_200
 70
     0
 62
     7
  6
CONTINUOUS
370
    -3
  0
LAYER
  5
1D7
100
AcDbSymbolTableRecord
100
AcDbLayerTableRecord
  2
Sc.1_500
 70
     0
 62
     7
  6
CONTINUOUS
370
    -3
  0
LAYER
  5
1D8
100
AcDbSymbolTableRecord
100
AcDbLayerTableRecord
  2
Sc.1_1000
 70
     0
 62
     7
  6
CONTINUOUS
370
    -3
  0
LAYER
  5
1D9
100
AcDbSymbolTableRecord
100
AcDbLayerTableRecord
  2
Laser frames
 70
     0
 62
     7
  6
CONTINUOUS
370
    18
  0
LAYER
  5
1DA
100
AcDbSymbolTableRecord
100
AcDbLayerTableRecord
  2
LEGEND
 70
     0
 62
     7
  6
CONTINUOUS
370
    -3
  0
ENDTAB
  0
TABLE
  2
VIEW
  5
1DB
100
AcDbSymbolTable
 70
     0
  0
ENDTAB
  0
TABLE
  2
UCS
  5
1DC
100
AcDbSymbolTable
 70
     0
  0
ENDTAB
  0
TABLE
  2
APPID
  5
1DD
100
AcDbSymbolTable
 70
     1
  0
APPID
  5
1DE
100
AcDbSymbolTableRecord
100
AcDbRegAppTableRecord
  2
ACAD
 70
     0
  0
ENDTAB
  0
TABLE
  2
DIMSTYLE
  5
1DF
100
AcDbSymbolTable
 70
     0
  0
ENDTAB
  0
TABLE
  2
BLOCK_RECORD
  5
1E0
100
AcDbSymbolTable
 70
     0
  0
BLOCK_RECORD
  5
1E1
100
AcDbSymbolTableRecord
100
AcDbBlockTableRecord
  2
*MODEL_SPACE
  0
BLOCK_RECORD
  5
1E2
100
AcDbSymbolTableRecord
100
AcDbBlockTableRecord
  2
*PAPER_SPACE
  0
BLOCK_RECORD
  5
1E3
100
AcDbSymbolTableRecord
100
AcDbBlockTableRecord
  2
CDWK_EXTR_0
  0
BLOCK_RECORD
  5
1E4
100
AcDbSymbolTableRecord
100
AcDbBlockTableRecord
  2
CDWK_EXTR_1D
  0
BLOCK_RECORD
  5
1E5
100
AcDbSymbolTableRecord
100
AcDbBlockTableRecord
  2
CDWK_EXTR_1G
  0
BLOCK_RECORD
  5
1E6
100
AcDbSymbolTableRecord
100
AcDbBlockTableRecord
  2
CDWK_EXTR_2
  0
BLOCK_RECORD
  5
1E7
100
AcDbSymbolTableRecord
100
AcDbBlockTableRecord
  2
CDWK_EXTR_3
  0
BLOCK_RECORD
  5
1E8
100
AcDbSymbolTableRecord
100
AcDbBlockTableRecord
  2
CDWK_EXTR_4
  0
BLOCK_RECORD
  5
1E9
100
AcDbSymbolTableRecord
100
AcDbBlockTableRecord
  2
CDWK_PTTYP0
  0
BLOCK_RECORD
  5
1EA
100
AcDbSymbolTableRecord
100
AcDbBlockTableRecord
  2
*X1739
  0
BLOCK_RECORD
  5
1EB
100
AcDbSymbolTableRecord
100
AcDbBlockTableRecord
  2
*X1740
  0
BLOCK_RECORD
  5
1EC
100
AcDbSymbolTableRecord
100
AcDbBlockTableRecord
  2
*X1741
  0
BLOCK_RECORD
  5
1ED
100
AcDbSymbolTableRecord
100
AcDbBlockTableRecord
  2
*X1760
  0
BLOCK_RECORD
  5
1EE
100
AcDbSymbolTableRecord
100
AcDbBlockTableRecord
  2
*X1776
  0
BLOCK_RECORD
  5
1EF
100
AcDbSymbolTableRecord
100
AcDbBlockTableRecord
  2
*X1777
  0
ENDTAB
  0
ENDSEC
  0
SECTION
  2
BLOCKS
  0
BLOCK
  5
1F0
100
AcDbEntity
  8
0
100
AcDbBlockBegin
  2
*MODEL_SPACE
 70
     0
 10
0.0
 20
0.0
 30
0.0
  3
*MODEL_SPACE
  1

  0
ENDBLK
  5
1F1
100
AcDbEntity
100
AcDbBlockEnd
  0
BLOCK
  5
1F2
100
AcDbEntity
  8
0
100
AcDbBlockBegin
  2
*PAPER_SPACE
 70
     0
 10
0.0
 20
0.0
 30
0.0
  3
*PAPER_SPACE
  1

  0
ENDBLK
  5
1F3
100
AcDbEntity
100
AcDbBlockEnd
  0
BLOCK
  5
1F4
100
AcDbEntity
  8
0
100
AcDbBlockBegin
  2
CDWK_EXTR_0
 70
     0
 10
0.0
 20
0.0
 30
0.0
  3
CDWK_EXTR_0
  1

  4
Cadwork line-extremity
  0
LINE
  5
1F5
100
AcDbEntity
  8
0
 62
     0
370
    -2
100
AcDbLine
 10
0.0
 20
0.0
 30
0.0
 11
2.0
 21
0.5
 31
0.0
  0
LINE
  5
1F6
100
AcDbEntity
  8
0
 62
     0
370
    -2
100
AcDbLine
 10
0.0
 20
0.0
 30
0.0
 11
2.0
 21
-0.5
 31
0.0
  0
LINE
  5
1F7
100
AcDbEntity
  8
0
 62
     0
370
    -2
100
AcDbLine
 10
2.0
 20
0.5
 30
0.0
 11
2.0
 21
-0.5
 31
0.0
  0
ENDBLK
  5
1F8
100
AcDbEntity
100
AcDbBlockEnd
  0
BLOCK
  5
1F9
100
AcDbEntity
  8
0
100
AcDbBlockBegin
  2
CDWK_EXTR_1D
 70
     0
 10
0.0
 20
0.0
 30
0.0
  3
CDWK_EXTR_1D
  1

  4
Cadwork line-extremity
  0
LINE
  5
1FA
100
AcDbEntity
  8
0
 62
     0
370
    -2
100
AcDbLine
 10
0.0
 20
0.0
 30
0.0
 11
0.0
 21
1.0
 31
0.0
  0
LINE
  5
1FB
100
AcDbEntity
  8
0
 62
     0
370
    -2
100
AcDbLine
 10
0.0
 20
1.0
 30
0.0
 11
0.5
 21
1.5
 31
0.0
  0
LINE
  5
1FC
100
AcDbEntity
  8
0
 62
     0
370
    -2
100
AcDbLine
 10
0.5
 20
1.5
 30
0.0
 11
1.5
 21
1.5
 31
0.0
  0
ENDBLK
  5
1FD
100
AcDbEntity
100
AcDbBlockEnd
  0
BLOCK
  5
1FE
100
AcDbEntity
  8
0
100
AcDbBlockBegin
  2
CDWK_EXTR_1G
 70
     0
 10
0.0
 20
0.0
 30
0.0
  3
CDWK_EXTR_1G
  1

  4
Cadwork line-extremity
  0
LINE
  5
1FF
100
AcDbEntity
  8
0
 62
     0
370
    -2
100
AcDbLine
 10
0.0
 20
0.0
 30
0.0
 11
0.0
 21
-1.0
 31
0.0
  0
LINE
  5
200
100
AcDbEntity
  8
0
 62
     0
370
    -2
100
AcDbLine
 10
0.0
 20
-1.0
 30
0.0
 11
0.5
 21
-1.5
 31
0.0
  0
LINE
  5
201
100
AcDbEntity
  8
0
 62
     0
370
    -2
100
AcDbLine
 10
0.5
 20
-1.5
 30
0.0
 11
1.5
 21
-1.5
 31
0.0
  0
ENDBLK
  5
202
100
AcDbEntity
100
AcDbBlockEnd
  0
BLOCK
  5
203
100
AcDbEntity
  8
0
100
AcDbBlockBegin
  2
CDWK_EXTR_2
 70
     0
 10
0.0
 20
0.0
 30
0.0
  3
CDWK_EXTR_2
  1

  4
Cadwork line-extremity
  0
SOLID
  5
204
100
AcDbEntity
  8
0
 62
     0
100
AcDbTrace
 10
0.0
 20
0.0
 11
2.0
 21
0.5
 12
2.0
 22
-0.5
 13
2.0
 23
-0.5
  0
ENDBLK
  5
205
100
AcDbEntity
100
AcDbBlockEnd
  0
BLOCK
  5
206
100
AcDbEntity
  8
0
100
AcDbBlockBegin
  2
CDWK_EXTR_3
 70
     0
 10
0.0
 20
0.0
 30
0.0
  3
CDWK_EXTR_3
  1

  4
Cadwork line-extremity
  0
SOLID
  5
207
100
AcDbEntity
  8
0
 62
     0
100
AcDbTrace
 10
0.0
 20
0.0
 11
2.0
 21
0.5
 12
2.0
 22
-0.5
 13
2.0
 23
-0.5
  0
LINE
  5
208
100
AcDbEntity
  8
0
 62
     0
370
    -2
100
AcDbLine
 10
0.0
 20
1.0
 30
0.0
 11
0.0
 21
-1.0
 31
0.0
  0
ENDBLK
  5
209
100
AcDbEntity
100
AcDbBlockEnd
  0
BLOCK
  5
20A
100
AcDbEntity
  8
0
100
AcDbBlockBegin
  2
CDWK_EXTR_4
 70
     0
 10
0.0
 20
0.0
 30
0.0
  3
CDWK_EXTR_4
  1

  4
Cadwork line-extremity
  0
HATCH
  5
20B
100
AcDbEntity
  8
0
 62
     0
370
    -2
100
AcDbHatch
 10
0.0
 20
0.0
 30
0.0
210
0.0
220
0.0
230
1.0
  2
SOLID
 70
     1
 71
     0
 91
        1
 92
        1
 93
        1
 72
     2
 10
0.0
 20
0.0
 40
0.5
 50
0.0
 51
360.0
 73
     1
 97
        0
 75
     0
 76
     1
 98
        1
 10
0.0
 20
0.0
  0
ENDBLK
  5
20C
100
AcDbEntity
100
AcDbBlockEnd
  0
BLOCK
  5
20D
100
AcDbEntity
  8
0
100
AcDbBlockBegin
  2
CDWK_PTTYP0
 70
     0
 10
0.0
 20
0.0
 30
0.0
  3
CDWK_PTTYP0
  1

  4
Cadwork point
  0
POINT
  5
20E
100
AcDbEntity
  8
0
 62
     0
100
AcDbPoint
 10
0.0
 20
0.0
 30
0.0
  0
ENDBLK
  5
20F
100
AcDbEntity
100
AcDbBlockEnd
  0
BLOCK
  5
210
100
AcDbEntity
  8
Sc.1_5
100
AcDbBlockBegin
  2
*X1739
 70
     1
 10
0.0
 20
0.0
 30
0.0
  3
*X1739
  1

  4
Cadwork hatch
  0
LINE
  5
211
100
AcDbEntity
  8
Sc.1_5
 62
     9
  6
CONTINUOUS
370
    -2
100
AcDbLine
 10
1647.48748903
 20
-471.79130924
 30
0.0
 11
1647.48748903
 21
-471.16635989
 31
0.0
  0
LINE
  5
212
100
AcDbEntity
  8
Sc.1_5
 62
     9
  6
CONTINUOUS
370
    -2
100
AcDbLine
 10
1647.48748903
 20
-467.74960772
 30
0.0
 11
1647.48748903
 21
-466.49970902
 31
0.0
  0
LINE
  5
213
100
AcDbEntity
  8
Sc.1_5
 62
     9
  6
CONTINUOUS
370
    -2
100
AcDbLine
 10
1647.48748903
 20
-463.08295684
 30
0.0
 11
1647.48748903
 21
-461.83305815
 31
0.0
  0
LINE
  5
214
100
AcDbEntity
  8
Sc.1_5
 62
     9
  6
CONTINUOUS
370
    -2
100
AcDbLine
 10
1647.48748903
 20
-458.41630597
 30
0.0
 11
1647.48748903
 21
-457.16640727
 31
0.0
  0
LINE
  5
215
100
AcDbEntity
  8
Sc.1_5
 62
     9
  6
CONTINUOUS
370
    -2
100
AcDbLine
 10
1647.48748903
 20
-453.7496551
 30
0.0
 11
1647.48748903
 21
-452.4997564
 31
0.0
  0
LINE
  5
216
100
AcDbEntity
  8
Sc.1_5
 62
     9
  6
CONTINUOUS
370
    -2
100
AcDbLine
 10
1647.48748903
 20
-449.08300423
 30
0.0
 11
1647.48748903
 21
-447.83310553
 31
0.0
  0
LINE
  5
217
100
AcDbEntity
  8
Sc.1_5
 62
     9
  6
CONTINUOUS
370
    -2
100
AcDbLine
 10
1647.48748903
 20
-444.41635336
 30
0.0
 11
1647.48748903
 21
-443.16645466
 31
0.0
  0
LINE
  5
218
100
AcDbEntity
  8
Sc.1_5
 62
     9
  6
CONTINUOUS
370
    -2
100
AcDbLine
 10
1647.48748903
 20
-439.74970249
 30
0.0
 11
1647.48748903
 21
-438.49980379
 31
0.0
  0
LINE
  5
219
100
AcDbEntity
  8
Sc.1_5
 62
     9
  6
CONTINUOUS
370
    -2
100
AcDbLine
 10
1647.48748903
 20
-435.08305162
 30
0.0
 11
1647.48748903
 21
-433.83315292
 31
0.0
  0
LINE
  5
21A
100
AcDbEntity
  8
Sc.1_5
 62
     9
  6
CONTINUOUS
370
    -2
100
AcDbLine
 10
1647.48748903
 20
-430.41640074
 30
0.0
 11
1647.48748903
 21
-429.16650205
 31
0.0
  0
LINE
  5
21B
100
AcDbEntity
  8
Sc.1_5
 62
     9
  6
CONTINUOUS
370
    -2
100
AcDbLine
 10
1647.48748903
 20
-425.74974987
 30
0.0
 11
1647.48748903
 21
-424.49985117
 31
0.0
  0
LINE
  5
21C
100
AcDbEntity
  8
Sc.1_5
 62
     9
  6
CONTINUOUS
370
    -2
100
AcDbLine
 10
1647.48748903
 20
-421.083099
 30
0.0
 11
1647.48748903
 21
-419.8332003
 31
0.0
  0
LINE
  5
21D
100
AcDbEntity
  8
Sc.1_5
 62
     9
  6
CONTINUOUS
370
    -2
100
AcDbLine
 10
1647.48748903
 20
-416.41644813
 30
0.0
 11
1647.48748903
 21
-415.16654943
 31
0.0
  0
LINE
  5
21E
100
AcDbEntity
  8
Sc.1_5
 62
     9
  6
CONTINUOUS
370
    -2
100
AcDbLine
 10
1647.48748903
 20
-411.74979726
 30
0.0
 11
1647.48748903
 21
-410.49989856
 31
0.0
  0
LINE
  5
21F
100
AcDbEntity
  8
Sc.1_5
 62
     9
  6
CONTINUOUS
370
    -2
100
AcDbLine
 10
1647.48748903
 20
-407.08314639
 30
0.0
 11
1647.48748903
 21
-405.83324769
 31
0.0
  0
LINE
  5
220
100
AcDbEntity
  8
Sc.1_5
 62
     9
  6
CONTINUOUS
370
    -2
100
AcDbLine
 10
1647.48748903
 20
-402.41649552
 30
0.0
 11
1647.48748903
 21
-401.16659682
 31
0.0
  0
LINE
  5
221
100
AcDbEntity
  8
Sc.1_5
 62
     9
  6
CONTINUOUS
370
    -2
100
AcDbLine
 10
1647.48748903
 20
-397.74984464
 30
0.0
 11
1647.48748903
 21
-396.49994595
 31
0.0
  0
LINE
  5
222
100
AcDbEntity
  8
Sc.1_5
 62
     9
  6
CONTINUOUS
370
    -2
100
AcDbLine
 10
1671.57803128
 20
-467.12465845
 30
0.0
 11
1670.82073763
 21
-467.12465845
 31
0.0
  0
LINE
  5
223
100
AcDbEntity
  8
Sc.1_5
 62
     9
  6
CONTINUOUS
370
    -2
100
AcDbLine
 10
1671.57803128
 20
-457.79135954
 30
0.0
 11
1670.82073763
 21
-457.79135954
 31
0.0
  0
LINE
  5
224
100
AcDbEntity
  8
Sc.1_5
 62
     9
  6
CONTINUOUS
370
    -2
100
AcDbLine
 10
1671.57803128
 20
-448.45806064
 30
0.0
 11
1670.82073763
 21
-448.45806064
 31
0.0
  0
LINE
  5
225
100
AcDbEntity
  8
Sc.1_5
 62
     9
  6
CONTINUOUS
370
    -2
100
AcDbLine
 10
1671.57803128
 20
-439.12476173
 30
0.0
 11
1670.82073763
 21
-439.12476173
 31
0.0
  0
LINE
  5
226
100
AcDbEntity
  8
Sc.1_5
 62
     9
  6
CONTINUOUS
370
    -2
100
AcDbLine
 10
1671.57803128
 20
-429.79146283
 30
0.0
 11
1670.82073763
 21
-429.79146283
 31
0.0
  0
LINE
  5
227
100
AcDbEntity
  8
Sc.1_5
 62
     9
  6
CONTINUOUS
370
    -2
100
AcDbLine
 10
1671.57803128
 20
-420.45816392
 30
0.0
 11
1670.82073763
 21
-420.45816392
 31
0.0
  0
LINE
  5
228
100
AcDbEntity
  8
Sc.1_5
 62
     9
  6
CONTINUOUS
370
    -2
100
AcDbLine
 10
1671.57803128
 20
-411.12486502
 30
0.0
 11
1670.82073763
 21
-411.12486502
 31
0.0
  0
LINE
  5
229
100
AcDbEntity
  8
Sc.1_5
 62
     9
  6
CONTINUOUS
370
    -2
100
AcDbLine
 10
1671.57803128
 20
-401.79156611
 30
0.0
 11
1670.82073763
 21
-401.79156611
 31
0.0
  0
LINE
  5
22A
100
AcDbEntity
  8
Sc.1_5
 62
     9
  6
CONTINUOUS
370
    -2
100
AcDbLine
 10
1652.15413982
 20
-471.79130824
 30
0.0
 11
1651.39684617
 21
-471.79130824
 31
0.0
  0
LINE
  5
22B
100
AcDbEntity
  8
Sc.1_5
 62
     9
  6
CONTINUOUS
370
    -2
100
AcDbLine
 10
1652.15413982
 20
-462.45800933
 30
0.0
 11
1651.39684617
 21
-462.45800933
 31
0.0
  0
LINE
  5
22C
100
AcDbEntity
  8
Sc.1_5
 62
     9
  6
CONTINUOUS
370
    -2
100
AcDbLine
 10
1652.15413982
 20
-453.12471043
 30
0.0
 11
1651.39684617
 21
-453.12471043
 31
0.0
  0
LINE
  5
22D
100
AcDbEntity
  8
Sc.1_5
 62
     9
  6
CONTINUOUS
370
    -2
100
AcDbLine
 10
1652.15413982
 20
-443.79141152
 30
0.0
 11
1651.39684617
 21
-443.79141152
 31
0.0
  0
LINE
  5
22E
100
AcDbEntity
  8
Sc.1_5
 62
     9
  6
CONTINUOUS
370
    -2
100
AcDbLine
 10
1652.15413982
 20
-434.45811262
 30
0.0
 11
1651.39684617
 21
-434.45811262
 31
0.0
  0
LINE
  5
22F
100
AcDbEntity
  8
Sc.1_5
 62
     9
  6
CONTINUOUS
370
    -2
100
AcDbLine
 10
1652.15413982
 20
-425.12481371
 30
0.0
 11
1651.39684617
 21
-425.12481371
 31
0.0
  0
LINE
  5
230
100
AcDbEntity
  8
Sc.1_5
 62
     9
  6
CONTINUOUS
370
    -2
100
AcDbLine
 10
1652.15413982
 20
-415.7915148
 30
0.0
 11
1651.39684617
 21
-415.7915148
 31
0.0
  0
LINE
  5
231
100
AcDbEntity
  8
Sc.1_5
 62
     9
  6
CONTINUOUS
370
    -2
100
AcDbLine
 10
1652.15413982
 20
-406.4582159
 30
0.0
 11
1651.39684617
 21
-406.4582159
 31
0.0
  0
LINE
  5
232
100
AcDbEntity
  8
Sc.1_5
 62
     9
  6
CONTINUOUS
370
    -2
100
AcDbLine
 10
1652.15413982
 20
-397.12491699
 30
0.0
 11
1651.39684617
 21
-397.12491699
 31
0.0
  0
LINE
  5
233
100
AcDbEntity
  8
Sc.1_5
 62
     9
  6
CONTINUOUS
370
    -2
100
AcDbLine
 10
1669.81969095
 20
-467.2358879
 30
0.0
 11
1653.15518882
 21
-471.68008144
 31
0.0
  0
LINE
  5
234
100
AcDbEntity
  8
Sc.1_5
 62
     9
  6
CONTINUOUS
370
    -2
100
AcDbLine
 10
1669.81970695
 20
-457.90259089
 30
0.0
 11
1653.15520483
 21
-462.34678443
 31
0.0
  0
LINE
  5
235
100
AcDbEntity
  8
Sc.1_5
 62
     9
  6
CONTINUOUS
370
    -2
100
AcDbLine
 10
1669.81972296
 20
-448.56929389
 30
0.0
 11
1653.15522083
 21
-453.01348743
 31
0.0
  0
LINE
  5
236
100
AcDbEntity
  8
Sc.1_5
 62
     9
  6
CONTINUOUS
370
    -2
100
AcDbLine
 10
1669.81973897
 20
-439.23599688
 30
0.0
 11
1653.15523684
 21
-443.68019042
 31
0.0
  0
LINE
  5
237
100
AcDbEntity
  8
Sc.1_5
 62
     9
  6
CONTINUOUS
370
    -2
100
AcDbLine
 10
1669.81975497
 20
-429.90269987
 30
0.0
 11
1653.15525285
 21
-434.34689342
 31
0.0
  0
LINE
  5
238
100
AcDbEntity
  8
Sc.1_5
 62
     9
  6
CONTINUOUS
370
    -2
100
AcDbLine
 10
1669.81977098
 20
-420.56940287
 30
0.0
 11
1653.15526885
 21
-425.01359641
 31
0.0
  0
LINE
  5
239
100
AcDbEntity
  8
Sc.1_5
 62
     9
  6
CONTINUOUS
370
    -2
100
AcDbLine
 10
1669.81978699
 20
-411.23610586
 30
0.0
 11
1653.15528486
 21
-415.6802994
 31
0.0
  0
LINE
  5
23A
100
AcDbEntity
  8
Sc.1_5
 62
     9
  6
CONTINUOUS
370
    -2
100
AcDbLine
 10
1669.81980299
 20
-401.90280886
 30
0.0
 11
1653.15530087
 21
-406.3470024
 31
0.0
  0
LINE
  5
23B
100
AcDbEntity
  8
Sc.1_5
 62
     9
  6
CONTINUOUS
370
    -2
100
AcDbLine
 10
1658.27556455
 20
-395.64820575
 30
0.0
 11
1653.15531688
 21
-397.01370539
 31
0.0
  0
LINE
  5
23C
100
AcDbEntity
  8
Sc.1_5
 62
     9
  6
CONTINUOUS
370
    -2
100
AcDbLine
 10
1669.81969095
 20
-467.01343167
 30
0.0
 11
1653.15518882
 21
-462.56923813
 31
0.0
  0
LINE
  5
23D
100
AcDbEntity
  8
Sc.1_5
 62
     9
  6
CONTINUOUS
370
    -2
100
AcDbLine
 10
1669.81967494
 20
-457.68013467
 30
0.0
 11
1653.15517281
 21
-453.23594112
 31
0.0
  0
LINE
  5
23E
100
AcDbEntity
  8
Sc.1_5
 62
     9
  6
CONTINUOUS
370
    -2
100
AcDbLine
 10
1669.81965893
 20
-448.34683766
 30
0.0
 11
1653.15515681
 21
-443.90264412
 31
0.0
  0
LINE
  5
23F
100
AcDbEntity
  8
Sc.1_5
 62
     9
  6
CONTINUOUS
370
    -2
100
AcDbLine
 10
1669.81964293
 20
-439.01354065
 30
0.0
 11
1653.1551408
 21
-434.56934711
 31
0.0
  0
LINE
  5
240
100
AcDbEntity
  8
Sc.1_5
 62
     9
  6
CONTINUOUS
370
    -2
100
AcDbLine
 10
1669.81962692
 20
-429.68024365
 30
0.0
 11
1653.15512479
 21
-425.23605011
 31
0.0
  0
LINE
  5
241
100
AcDbEntity
  8
Sc.1_5
 62
     9
  6
CONTINUOUS
370
    -2
100
AcDbLine
 10
1669.81961091
 20
-420.34694664
 30
0.0
 11
1653.15510879
 21
-415.9027531
 31
0.0
  0
LINE
  5
242
100
AcDbEntity
  8
Sc.1_5
 62
     9
  6
CONTINUOUS
370
    -2
100
AcDbLine
 10
1669.8195949
 20
-411.01364963
 30
0.0
 11
1653.15509278
 21
-406.56945609
 31
0.0
  0
LINE
  5
243
100
AcDbEntity
  8
Sc.1_5
 62
     9
  6
CONTINUOUS
370
    -2
100
AcDbLine
 10
1669.8195789
 20
-401.68035263
 30
0.0
 11
1653.15507677
 21
-397.23615909
 31
0.0
  0
LINE
  5
244
100
AcDbEntity
  8
Sc.1_5
 62
     9
  6
CONTINUOUS
370
    -2
100
AcDbLine
 10
1675.48738842
 20
-471.16635989
 30
0.0
 11
1675.15362129
 21
-469.94254714
 31
0.0
  0
LINE
  5
245
100
AcDbEntity
  8
Sc.1_5
 62
     9
  6
CONTINUOUS
370
    -2
100
AcDbLine
 10
1675.48738842
 20
-461.83306036
 30
0.0
 11
1675.15362154
 21
-460.60924853
 31
0.0
  0
LINE
  5
246
100
AcDbEntity
  8
Sc.1_5
 62
     9
  6
CONTINUOUS
370
    -2
100
AcDbLine
 10
1675.48738842
 20
-452.49976083
 30
0.0
 11
1675.15362179
 21
-451.27594991
 31
0.0
  0
LINE
  5
247
100
AcDbEntity
  8
Sc.1_5
 62
     9
  6
CONTINUOUS
370
    -2
100
AcDbLine
 10
1675.48738842
 20
-443.1664613
 30
0.0
 11
1675.15362204
 21
-441.9426513
 31
0.0
  0
LINE
  5
248
100
AcDbEntity
  8
Sc.1_5
 62
     9
  6
CONTINUOUS
370
    -2
100
AcDbLine
 10
1675.48738842
 20
-433.83316177
 30
0.0
 11
1675.15362229
 21
-432.60935269
 31
0.0
  0
LINE
  5
249
100
AcDbEntity
  8
Sc.1_5
 62
     9
  6
CONTINUOUS
370
    -2
100
AcDbLine
 10
1675.48738842
 20
-424.49986224
 30
0.0
 11
1675.15362254
 21
-423.27605407
 31
0.0
  0
LINE
  5
24A
100
AcDbEntity
  8
Sc.1_5
 62
     9
  6
CONTINUOUS
370
    -2
100
AcDbLine
 10
1675.48738842
 20
-415.16656271
 30
0.0
 11
1675.15362279
 21
-413.94275546
 31
0.0
  0
LINE
  5
24B
100
AcDbEntity
  8
Sc.1_5
 62
     9
  6
CONTINUOUS
370
    -2
100
AcDbLine
 10
1675.48738842
 20
-405.83326318
 30
0.0
 11
1675.15362304
 21
-404.60945685
 31
0.0
  0
LINE
  5
24C
100
AcDbEntity
  8
Sc.1_5
 62
     9
  6
CONTINUOUS
370
    -2
100
AcDbLine
 10
1675.48738842
 20
-396.49996365
 30
0.0
 11
1675.2550908
 21
-395.64820575
 31
0.0
  0
LINE
  5
24D
100
AcDbEntity
  8
Sc.1_5
 62
     9
  6
CONTINUOUS
370
    -2
100
AcDbLine
 10
1675.48738693
 20
-463.08295997
 30
0.0
 11
1675.15361996
 21
-464.30677277
 31
0.0
  0
LINE
  5
24E
100
AcDbEntity
  8
Sc.1_5
 62
     9
  6
CONTINUOUS
370
    -2
100
AcDbLine
 10
1675.48738543
 20
-453.74966136
 30
0.0
 11
1675.15361847
 21
-454.97347416
 31
0.0
  0
LINE
  5
24F
100
AcDbEntity
  8
Sc.1_5
 62
     9
  6
CONTINUOUS
370
    -2
100
AcDbLine
 10
1675.48738394
 20
-444.41636275
 30
0.0
 11
1675.15361697
 21
-445.64017554
 31
0.0
  0
LINE
  5
250
100
AcDbEntity
  8
Sc.1_5
 62
     9
  6
CONTINUOUS
370
    -2
100
AcDbLine
 10
1675.48738245
 20
-435.08306414
 30
0.0
 11
1675.15361548
 21
-436.30687693
 31
0.0
  0
LINE
  5
251
100
AcDbEntity
  8
Sc.1_5
 62
     9
  6
CONTINUOUS
370
    -2
100
AcDbLine
 10
1675.48738095
 20
-425.74976552
 30
0.0
 11
1675.15361399
 21
-426.97357832
 31
0.0
  0
LINE
  5
252
100
AcDbEntity
  8
Sc.1_5
 62
     9
  6
CONTINUOUS
370
    -2
100
AcDbLine
 10
1675.48737946
 20
-416.41646691
 30
0.0
 11
1675.1536125
 21
-417.64027971
 31
0.0
  0
LINE
  5
253
100
AcDbEntity
  8
Sc.1_5
 62
     9
  6
CONTINUOUS
370
    -2
100
AcDbLine
 10
1675.48737797
 20
-407.0831683
 30
0.0
 11
1675.153611
 21
-408.30698109
 31
0.0
  0
LINE
  5
254
100
AcDbEntity
  8
Sc.1_5
 62
     9
  6
CONTINUOUS
370
    -2
100
AcDbLine
 10
1675.48737647
 20
-397.74986969
 30
0.0
 11
1675.15360951
 21
-398.97368248
 31
0.0
  0
LINE
  5
255
100
AcDbEntity
  8
Sc.1_5
 62
     9
  6
CONTINUOUS
370
    -2
100
AcDbLine
 10
1647.82125515
 20
-468.97342176
 30
0.0
 11
1647.48748811
 21
-467.74960932
 31
0.0
  0
LINE
  5
256
100
AcDbEntity
  8
Sc.1_5
 62
     9
  6
CONTINUOUS
370
    -2
100
AcDbLine
 10
1647.8212554
 20
-459.64012314
 30
0.0
 11
1647.48748827
 21
-458.41631039
 31
0.0
  0
LINE
  5
257
100
AcDbEntity
  8
Sc.1_5
 62
     9
  6
CONTINUOUS
370
    -2
100
AcDbLine
 10
1647.82125565
 20
-450.30682453
 30
0.0
 11
1647.48748852
 21
-449.08301178
 31
0.0
  0
LINE
  5
258
100
AcDbEntity
  8
Sc.1_5
 62
     9
  6
CONTINUOUS
370
    -2
100
AcDbLine
 10
1647.8212559
 20
-440.97352592
 30
0.0
 11
1647.48748877
 21
-439.74971317
 31
0.0
  0
LINE
  5
259
100
AcDbEntity
  8
Sc.1_5
 62
     9
  6
CONTINUOUS
370
    -2
100
AcDbLine
 10
1647.82125615
 20
-431.64022731
 30
0.0
 11
1647.48748902
 21
-430.41641456
 31
0.0
  0
LINE
  5
25A
100
AcDbEntity
  8
Sc.1_5
 62
     9
  6
CONTINUOUS
370
    -2
100
AcDbLine
 10
1647.8212564
 20
-422.30692869
 30
0.0
 11
1647.48748927
 21
-421.08311594
 31
0.0
  0
LINE
  5
25B
100
AcDbEntity
  8
Sc.1_5
 62
     9
  6
CONTINUOUS
370
    -2
100
AcDbLine
 10
1647.82125665
 20
-412.97363008
 30
0.0
 11
1647.48748952
 21
-411.74981733
 31
0.0
  0
LINE
  5
25C
100
AcDbEntity
  8
Sc.1_5
 62
     9
  6
CONTINUOUS
370
    -2
100
AcDbLine
 10
1647.8212569
 20
-403.64033147
 30
0.0
 11
1647.48748977
 21
-402.41651872
 31
0.0
  0
LINE
  5
25D
100
AcDbEntity
  8
Sc.1_5
 62
     9
  6
CONTINUOUS
370
    -2
100
AcDbLine
 10
1647.48748811
 20
-401.16661848
 30
0.0
 11
1647.82125441
 21
-399.94280877
 31
0.0
  0
LINE
  5
25E
100
AcDbEntity
  8
Sc.1_5
 62
     9
  6
CONTINUOUS
370
    -2
100
AcDbLine
 10
1647.48748811
 20
-410.49991801
 30
0.0
 11
1647.82125466
 21
-409.27610739
 31
0.0
  0
LINE
  5
25F
100
AcDbEntity
  8
Sc.1_5
 62
     9
  6
CONTINUOUS
370
    -2
100
AcDbLine
 10
1647.48748811
 20
-419.83321754
 30
0.0
 11
1647.82125491
 21
-418.609406
 31
0.0
  0
LINE
  5
260
100
AcDbEntity
  8
Sc.1_5
 62
     9
  6
CONTINUOUS
370
    -2
100
AcDbLine
 10
1647.48748811
 20
-429.16651707
 30
0.0
 11
1647.82125516
 21
-427.94270461
 31
0.0
  0
LINE
  5
261
100
AcDbEntity
  8
Sc.1_5
 62
     9
  6
CONTINUOUS
370
    -2
100
AcDbLine
 10
1647.48748828
 20
-438.49981597
 30
0.0
 11
1647.82125541
 21
-437.27600322
 31
0.0
  0
LINE
  5
262
100
AcDbEntity
  8
Sc.1_5
 62
     9
  6
CONTINUOUS
370
    -2
100
AcDbLine
 10
1647.48748853
 20
-447.83311459
 30
0.0
 11
1647.82125566
 21
-446.60930184
 31
0.0
  0
LINE
  5
263
100
AcDbEntity
  8
Sc.1_5
 62
     9
  6
CONTINUOUS
370
    -2
100
AcDbLine
 10
1647.48748878
 20
-457.1664132
 30
0.0
 11
1647.82125591
 21
-455.94260045
 31
0.0
  0
LINE
  5
264
100
AcDbEntity
  8
Sc.1_5
 62
     9
  6
CONTINUOUS
370
    -2
100
AcDbLine
 10
1647.48748903
 20
-466.49971181
 30
0.0
 11
1647.82125616
 21
-465.27589906
 31
0.0
  0
LINE
  5
265
100
AcDbEntity
  8
Sc.1_5
 62
     9
  6
CONTINUOUS
370
    -2
100
AcDbLine
 10
1675.15362121
 20
-469.9425486
 30
0.0
 11
1674.52662623
 21
-468.89755696
 31
0.0
  0
LINE
  5
266
100
AcDbEntity
  8
Sc.1_5
 62
     9
  6
CONTINUOUS
370
    -2
100
AcDbLine
 10
1675.15362115
 20
-460.60924808
 30
0.0
 11
1674.52662617
 21
-459.56425644
 31
0.0
  0
LINE
  5
267
100
AcDbEntity
  8
Sc.1_5
 62
     9
  6
CONTINUOUS
370
    -2
100
AcDbLine
 10
1675.15362109
 20
-451.27594756
 30
0.0
 11
1674.52662611
 21
-450.23095593
 31
0.0
  0
LINE
  5
268
100
AcDbEntity
  8
Sc.1_5
 62
     9
  6
CONTINUOUS
370
    -2
100
AcDbLine
 10
1675.15362103
 20
-441.94264705
 30
0.0
 11
1674.52662605
 21
-440.89765541
 31
0.0
  0
LINE
  5
269
100
AcDbEntity
  8
Sc.1_5
 62
     9
  6
CONTINUOUS
370
    -2
100
AcDbLine
 10
1675.15362097
 20
-432.60934653
 30
0.0
 11
1674.52662598
 21
-431.56435489
 31
0.0
  0
LINE
  5
26A
100
AcDbEntity
  8
Sc.1_5
 62
     9
  6
CONTINUOUS
370
    -2
100
AcDbLine
 10
1675.1536209
 20
-423.27604601
 30
0.0
 11
1674.52662592
 21
-422.23105437
 31
0.0
  0
LINE
  5
26B
100
AcDbEntity
  8
Sc.1_5
 62
     9
  6
CONTINUOUS
370
    -2
100
AcDbLine
 10
1675.15362084
 20
-413.94274549
 30
0.0
 11
1674.52662586
 21
-412.89775385
 31
0.0
  0
LINE
  5
26C
100
AcDbEntity
  8
Sc.1_5
 62
     9
  6
CONTINUOUS
370
    -2
100
AcDbLine
 10
1675.15362078
 20
-404.60944497
 30
0.0
 11
1674.5266258
 21
-403.56445333
 31
0.0
  0
LINE
  5
26D
100
AcDbEntity
  8
Sc.1_5
 62
     9
  6
CONTINUOUS
370
    -2
100
AcDbLine
 10
1675.1536219
 20
-464.31367403
 30
0.0
 11
1674.52662684
 21
-465.35866563
 31
0.0
  0
LINE
  5
26E
100
AcDbEntity
  8
Sc.1_5
 62
     9
  6
CONTINUOUS
370
    -2
100
AcDbLine
 10
1675.15362258
 20
-454.98037351
 30
0.0
 11
1674.52662753
 21
-456.02536511
 31
0.0
  0
LINE
  5
26F
100
AcDbEntity
  8
Sc.1_5
 62
     9
  6
CONTINUOUS
370
    -2
100
AcDbLine
 10
1675.15362326
 20
-445.64707299
 30
0.0
 11
1674.52662821
 21
-446.69206459
 31
0.0
  0
LINE
  5
270
100
AcDbEntity
  8
Sc.1_5
 62
     9
  6
CONTINUOUS
370
    -2
100
AcDbLine
 10
1675.15362395
 20
-436.31377247
 30
0.0
 11
1674.5266289
 21
-437.35876407
 31
0.0
  0
LINE
  5
271
100
AcDbEntity
  8
Sc.1_5
 62
     9
  6
CONTINUOUS
370
    -2
100
AcDbLine
 10
1675.15362463
 20
-426.98047196
 30
0.0
 11
1674.52662958
 21
-428.02546355
 31
0.0
  0
LINE
  5
272
100
AcDbEntity
  8
Sc.1_5
 62
     9
  6
CONTINUOUS
370
    -2
100
AcDbLine
 10
1675.15362531
 20
-417.64717144
 30
0.0
 11
1674.52663026
 21
-418.69216303
 31
0.0
  0
LINE
  5
273
100
AcDbEntity
  8
Sc.1_5
 62
     9
  6
CONTINUOUS
370
    -2
100
AcDbLine
 10
1675.153626
 20
-408.31387092
 30
0.0
 11
1674.52663095
 21
-409.35886251
 31
0.0
  0
LINE
  5
274
100
AcDbEntity
  8
Sc.1_5
 62
     9
  6
CONTINUOUS
370
    -2
100
AcDbLine
 10
1675.15362668
 20
-398.9805704
 30
0.0
 11
1674.52663163
 21
-400.025562
 31
0.0
  0
LINE
  5
275
100
AcDbEntity
  8
Sc.1_5
 62
     9
  6
CONTINUOUS
370
    -2
100
AcDbLine
 10
1648.44825256
 20
-470.01841155
 30
0.0
 11
1647.82125758
 21
-468.97341991
 31
0.0
  0
LINE
  5
276
100
AcDbEntity
  8
Sc.1_5
 62
     9
  6
CONTINUOUS
370
    -2
100
AcDbLine
 10
1648.4482525
 20
-460.68511103
 30
0.0
 11
1647.82125752
 21
-459.64011939
 31
0.0
  0
LINE
  5
277
100
AcDbEntity
  8
Sc.1_5
 62
     9
  6
CONTINUOUS
370
    -2
100
AcDbLine
 10
1648.44825244
 20
-451.35181051
 30
0.0
 11
1647.82125745
 21
-450.30681887
 31
0.0
  0
LINE
  5
278
100
AcDbEntity
  8
Sc.1_5
 62
     9
  6
CONTINUOUS
370
    -2
100
AcDbLine
 10
1648.44825238
 20
-442.01850999
 30
0.0
 11
1647.82125739
 21
-440.97351835
 31
0.0
  0
LINE
  5
279
100
AcDbEntity
  8
Sc.1_5
 62
     9
  6
CONTINUOUS
370
    -2
100
AcDbLine
 10
1648.44825231
 20
-432.68520947
 30
0.0
 11
1647.82125733
 21
-431.64021783
 31
0.0
  0
LINE
  5
27A
100
AcDbEntity
  8
Sc.1_5
 62
     9
  6
CONTINUOUS
370
    -2
100
AcDbLine
 10
1648.44825225
 20
-423.35190895
 30
0.0
 11
1647.82125727
 21
-422.30691732
 31
0.0
  0
LINE
  5
27B
100
AcDbEntity
  8
Sc.1_5
 62
     9
  6
CONTINUOUS
370
    -2
100
AcDbLine
 10
1648.44825219
 20
-414.01860844
 30
0.0
 11
1647.82125721
 21
-412.9736168
 31
0.0
  0
LINE
  5
27C
100
AcDbEntity
  8
Sc.1_5
 62
     9
  6
CONTINUOUS
370
    -2
100
AcDbLine
 10
1648.44825213
 20
-404.68530792
 30
0.0
 11
1647.82125714
 21
-403.64031628
 31
0.0
  0
LINE
  5
27D
100
AcDbEntity
  8
Sc.1_5
 62
     9
  6
CONTINUOUS
370
    -2
100
AcDbLine
 10
1647.82125558
 20
-399.94279418
 30
0.0
 11
1648.44825057
 21
-398.89780255
 31
0.0
  0
LINE
  5
27E
100
AcDbEntity
  8
Sc.1_5
 62
     9
  6
CONTINUOUS
370
    -2
100
AcDbLine
 10
1647.82125552
 20
-409.2760947
 30
0.0
 11
1648.44825051
 21
-408.23110306
 31
0.0
  0
LINE
  5
27F
100
AcDbEntity
  8
Sc.1_5
 62
     9
  6
CONTINUOUS
370
    -2
100
AcDbLine
 10
1647.82125546
 20
-418.60939522
 30
0.0
 11
1648.44825044
 21
-417.56440358
 31
0.0
  0
LINE
  5
280
100
AcDbEntity
  8
Sc.1_5
 62
     9
  6
CONTINUOUS
370
    -2
100
AcDbLine
 10
1647.8212554
 20
-427.94269574
 30
0.0
 11
1648.44825038
 21
-426.8977041
 31
0.0
  0
LINE
  5
281
100
AcDbEntity
  8
Sc.1_5
 62
     9
  6
CONTINUOUS
370
    -2
100
AcDbLine
 10
1647.82125534
 20
-437.27599626
 30
0.0
 11
1648.44825032
 21
-436.23100462
 31
0.0
  0
LINE
  5
282
100
AcDbEntity
  8
Sc.1_5
 62
     9
  6
CONTINUOUS
370
    -2
100
AcDbLine
 10
1647.82125527
 20
-446.60929678
 30
0.0
 11
1648.44825026
 21
-445.56430514
 31
0.0
  0
LINE
  5
283
100
AcDbEntity
  8
Sc.1_5
 62
     9
  6
CONTINUOUS
370
    -2
100
AcDbLine
 10
1647.82125521
 20
-455.94259729
 30
0.0
 11
1648.4482502
 21
-454.89760566
 31
0.0
  0
LINE
  5
284
100
AcDbEntity
  8
Sc.1_5
 62
     9
  6
CONTINUOUS
370
    -2
100
AcDbLine
 10
1647.82125515
 20
-465.27589781
 30
0.0
 11
1648.44825013
 21
-464.23090618
 31
0.0
  0
LINE
  5
285
100
AcDbEntity
  8
Sc.1_5
 62
     9
  6
CONTINUOUS
370
    -2
100
AcDbLine
 10
1674.52662505
 20
-468.89755881
 30
0.0
 11
1673.79380968
 21
-468.16474343
 31
0.0
  0
LINE
  5
286
100
AcDbEntity
  8
Sc.1_5
 62
     9
  6
CONTINUOUS
370
    -2
100
AcDbLine
 10
1674.52662505
 20
-459.56425745
 30
0.0
 11
1673.79380968
 21
-458.83144207
 31
0.0
  0
LINE
  5
287
100
AcDbEntity
  8
Sc.1_5
 62
     9
  6
CONTINUOUS
370
    -2
100
AcDbLine
 10
1674.52662505
 20
-450.23095608
 30
0.0
 11
1673.79380968
 21
-449.4981407
 31
0.0
  0
LINE
  5
288
100
AcDbEntity
  8
Sc.1_5
 62
     9
  6
CONTINUOUS
370
    -2
100
AcDbLine
 10
1674.52662505
 20
-440.89765471
 30
0.0
 11
1673.79380968
 21
-440.16483933
 31
0.0
  0
LINE
  5
289
100
AcDbEntity
  8
Sc.1_5
 62
     9
  6
CONTINUOUS
370
    -2
100
AcDbLine
 10
1674.52662505
 20
-431.56435334
 30
0.0
 11
1673.79380968
 21
-430.83153797
 31
0.0
  0
LINE
  5
28A
100
AcDbEntity
  8
Sc.1_5
 62
     9
  6
CONTINUOUS
370
    -2
100
AcDbLine
 10
1674.52662505
 20
-422.23105198
 30
0.0
 11
1673.79380968
 21
-421.4982366
 31
0.0
  0
LINE
  5
28B
100
AcDbEntity
  8
Sc.1_5
 62
     9
  6
CONTINUOUS
370
    -2
100
AcDbLine
 10
1674.52662505
 20
-412.89775061
 30
0.0
 11
1673.79380968
 21
-412.16493523
 31
0.0
  0
LINE
  5
28C
100
AcDbEntity
  8
Sc.1_5
 62
     9
  6
CONTINUOUS
370
    -2
100
AcDbLine
 10
1674.52662505
 20
-403.56444924
 30
0.0
 11
1673.79380968
 21
-402.83163387
 31
0.0
  0
LINE
  5
28D
100
AcDbEntity
  8
Sc.1_5
 62
     9
  6
CONTINUOUS
370
    -2
100
AcDbLine
 10
1674.52662505
 20
-465.3517583
 30
0.0
 11
1673.79380968
 21
-466.08457367
 31
0.0
  0
LINE
  5
28E
100
AcDbEntity
  8
Sc.1_5
 62
     9
  6
CONTINUOUS
370
    -2
100
AcDbLine
 10
1674.52662505
 20
-456.01845693
 30
0.0
 11
1673.79380968
 21
-456.75127231
 31
0.0
  0
LINE
  5
28F
100
AcDbEntity
  8
Sc.1_5
 62
     9
  6
CONTINUOUS
370
    -2
100
AcDbLine
 10
1674.52662505
 20
-446.68515556
 30
0.0
 11
1673.79380968
 21
-447.41797094
 31
0.0
  0
LINE
  5
290
100
AcDbEntity
  8
Sc.1_5
 62
     9
  6
CONTINUOUS
370
    -2
100
AcDbLine
 10
1674.52662505
 20
-437.3518542
 30
0.0
 11
1673.79380968
 21
-438.08466957
 31
0.0
  0
LINE
  5
291
100
AcDbEntity
  8
Sc.1_5
 62
     9
  6
CONTINUOUS
370
    -2
100
AcDbLine
 10
1674.52662505
 20
-428.01855283
 30
0.0
 11
1673.79380968
 21
-428.75136821
 31
0.0
  0
LINE
  5
292
100
AcDbEntity
  8
Sc.1_5
 62
     9
  6
CONTINUOUS
370
    -2
100
AcDbLine
 10
1674.52662505
 20
-418.68525146
 30
0.0
 11
1673.79380968
 21
-419.41806684
 31
0.0
  0
LINE
  5
293
100
AcDbEntity
  8
Sc.1_5
 62
     9
  6
CONTINUOUS
370
    -2
100
AcDbLine
 10
1674.52662505
 20
-409.3519501
 30
0.0
 11
1673.79380968
 21
-410.08476547
 31
0.0
  0
LINE
  5
294
100
AcDbEntity
  8
Sc.1_5
 62
     9
  6
CONTINUOUS
370
    -2
100
AcDbLine
 10
1674.52662505
 20
-400.01864873
 30
0.0
 11
1673.79380968
 21
-400.75146411
 31
0.0
  0
LINE
  5
295
100
AcDbEntity
  8
Sc.1_5
 62
     9
  6
CONTINUOUS
370
    -2
100
AcDbLine
 10
1649.1810651
 20
-470.751225
 30
0.0
 11
1648.44824972
 21
-470.01840962
 31
0.0
  0
LINE
  5
296
100
AcDbEntity
  8
Sc.1_5
 62
     9
  6
CONTINUOUS
370
    -2
100
AcDbLine
 10
1649.1810651
 20
-461.41792363
 30
0.0
 11
1648.44824972
 21
-460.68510826
 31
0.0
  0
LINE
  5
297
100
AcDbEntity
  8
Sc.1_5
 62
     9
  6
CONTINUOUS
370
    -2
100
AcDbLine
 10
1649.1810651
 20
-452.08462227
 30
0.0
 11
1648.44824972
 21
-451.35180689
 31
0.0
  0
LINE
  5
298
100
AcDbEntity
  8
Sc.1_5
 62
     9
  6
CONTINUOUS
370
    -2
100
AcDbLine
 10
1649.1810651
 20
-442.7513209
 30
0.0
 11
1648.44824972
 21
-442.01850552
 31
0.0
  0
LINE
  5
299
100
AcDbEntity
  8
Sc.1_5
 62
     9
  6
CONTINUOUS
370
    -2
100
AcDbLine
 10
1649.1810651
 20
-433.41801953
 30
0.0
 11
1648.44824972
 21
-432.68520416
 31
0.0
  0
LINE
  5
29A
100
AcDbEntity
  8
Sc.1_5
 62
     9
  6
CONTINUOUS
370
    -2
100
AcDbLine
 10
1649.1810651
 20
-424.08471817
 30
0.0
 11
1648.44824972
 21
-423.35190279
 31
0.0
  0
LINE
  5
29B
100
AcDbEntity
  8
Sc.1_5
 62
     9
  6
CONTINUOUS
370
    -2
100
AcDbLine
 10
1649.1810651
 20
-414.7514168
 30
0.0
 11
1648.44824972
 21
-414.01860142
 31
0.0
  0
LINE
  5
29C
100
AcDbEntity
  8
Sc.1_5
 62
     9
  6
CONTINUOUS
370
    -2
100
AcDbLine
 10
1649.1810651
 20
-405.41811543
 30
0.0
 11
1648.44824972
 21
-404.68530006
 31
0.0
  0
LINE
  5
29D
100
AcDbEntity
  8
Sc.1_5
 62
     9
  6
CONTINUOUS
370
    -2
100
AcDbLine
 10
1649.1810651
 20
-396.08481407
 30
0.0
 11
1648.74445679
 21
-395.64820575
 31
0.0
  0
LINE
  5
29E
100
AcDbEntity
  8
Sc.1_5
 62
     9
  6
CONTINUOUS
370
    -2
100
AcDbLine
 10
1648.44825256
 20
-398.89779812
 30
0.0
 11
1649.18106794
 21
-398.16498274
 31
0.0
  0
LINE
  5
29F
100
AcDbEntity
  8
Sc.1_5
 62
     9
  6
CONTINUOUS
370
    -2
100
AcDbLine
 10
1648.44825256
 20
-408.23109949
 30
0.0
 11
1649.18106794
 21
-407.49828411
 31
0.0
  0
LINE
  5
2A0
100
AcDbEntity
  8
Sc.1_5
 62
     9
  6
CONTINUOUS
370
    -2
100
AcDbLine
 10
1648.44825256
 20
-417.56440086
 30
0.0
 11
1649.18106794
 21
-416.83158548
 31
0.0
  0
LINE
  5
2A1
100
AcDbEntity
  8
Sc.1_5
 62
     9
  6
CONTINUOUS
370
    -2
100
AcDbLine
 10
1648.44825256
 20
-426.89770222
 30
0.0
 11
1649.18106794
 21
-426.16488685
 31
0.0
  0
LINE
  5
2A2
100
AcDbEntity
  8
Sc.1_5
 62
     9
  6
CONTINUOUS
370
    -2
100
AcDbLine
 10
1648.44825256
 20
-436.23100359
 30
0.0
 11
1649.18106794
 21
-435.49818821
 31
0.0
  0
LINE
  5
2A3
100
AcDbEntity
  8
Sc.1_5
 62
     9
  6
CONTINUOUS
370
    -2
100
AcDbLine
 10
1648.44825256
 20
-445.56430496
 30
0.0
 11
1649.18106794
 21
-444.83148958
 31
0.0
  0
LINE
  5
2A4
100
AcDbEntity
  8
Sc.1_5
 62
     9
  6
CONTINUOUS
370
    -2
100
AcDbLine
 10
1648.44825256
 20
-454.89760632
 30
0.0
 11
1649.18106794
 21
-454.16479095
 31
0.0
  0
LINE
  5
2A5
100
AcDbEntity
  8
Sc.1_5
 62
     9
  6
CONTINUOUS
370
    -2
100
AcDbLine
 10
1648.44825256
 20
-464.23090769
 30
0.0
 11
1649.18106794
 21
-463.49809231
 31
0.0
  0
LINE
  5
2A6
100
AcDbEntity
  8
Sc.1_5
 62
     9
  6
CONTINUOUS
370
    -2
100
AcDbLine
 10
1673.79381168
 20
-468.1647426
 30
0.0
 11
1672.88934195
 21
-467.56176279
 31
0.0
  0
LINE
  5
2A7
100
AcDbEntity
  8
Sc.1_5
 62
     9
  6
CONTINUOUS
370
    -2
100
AcDbLine
 10
1673.79381063
 20
-458.83144234
 30
0.0
 11
1672.88934089
 21
-458.22846252
 31
0.0
  0
LINE
  5
2A8
100
AcDbEntity
  8
Sc.1_5
 62
     9
  6
CONTINUOUS
370
    -2
100
AcDbLine
 10
1673.79380957
 20
-449.49814207
 30
0.0
 11
1672.88933984
 21
-448.89516225
 31
0.0
  0
LINE
  5
2A9
100
AcDbEntity
  8
Sc.1_5
 62
     9
  6
CONTINUOUS
370
    -2
100
AcDbLine
 10
1673.79380851
 20
-440.1648418
 30
0.0
 11
1672.88933878
 21
-439.56186199
 31
0.0
  0
LINE
  5
2AA
100
AcDbEntity
  8
Sc.1_5
 62
     9
  6
CONTINUOUS
370
    -2
100
AcDbLine
 10
1673.79380746
 20
-430.83154154
 30
0.0
 11
1672.88933772
 21
-430.22856172
 31
0.0
  0
LINE
  5
2AB
100
AcDbEntity
  8
Sc.1_5
 62
     9
  6
CONTINUOUS
370
    -2
100
AcDbLine
 10
1673.7938064
 20
-421.49824127
 30
0.0
 11
1672.88933667
 21
-420.89526145
 31
0.0
  0
LINE
  5
2AC
100
AcDbEntity
  8
Sc.1_5
 62
     9
  6
CONTINUOUS
370
    -2
100
AcDbLine
 10
1673.79380534
 20
-412.164941
 30
0.0
 11
1672.88933561
 21
-411.56196119
 31
0.0
  0
LINE
  5
2AD
100
AcDbEntity
  8
Sc.1_5
 62
     9
  6
CONTINUOUS
370
    -2
100
AcDbLine
 10
1673.79380429
 20
-402.83164074
 30
0.0
 11
1672.88933456
 21
-402.22866092
 31
0.0
  0
LINE
  5
2AE
100
AcDbEntity
  8
Sc.1_5
 62
     9
  6
CONTINUOUS
370
    -2
100
AcDbLine
 10
1673.79381336
 20
-466.08457561
 30
0.0
 11
1672.88934359
 21
-466.68755536
 31
0.0
  0
LINE
  5
2AF
100
AcDbEntity
  8
Sc.1_5
 62
     9
  6
CONTINUOUS
370
    -2
100
AcDbLine
 10
1673.79381504
 20
-456.75127534
 30
0.0
 11
1672.88934527
 21
-457.35425509
 31
0.0
  0
LINE
  5
2B0
100
AcDbEntity
  8
Sc.1_5
 62
     9
  6
CONTINUOUS
370
    -2
100
AcDbLine
 10
1673.79381672
 20
-447.41797507
 30
0.0
 11
1672.88934694
 21
-448.02095483
 31
0.0
  0
LINE
  5
2B1
100
AcDbEntity
  8
Sc.1_5
 62
     9
  6
CONTINUOUS
370
    -2
100
AcDbLine
 10
1673.7938184
 20
-438.08467481
 30
0.0
 11
1672.88934862
 21
-438.68765456
 31
0.0
  0
LINE
  5
2B2
100
AcDbEntity
  8
Sc.1_5
 62
     9
  6
CONTINUOUS
370
    -2
100
AcDbLine
 10
1673.79382007
 20
-428.75137454
 30
0.0
 11
1672.8893503
 21
-429.35435429
 31
0.0
  0
LINE
  5
2B3
100
AcDbEntity
  8
Sc.1_5
 62
     9
  6
CONTINUOUS
370
    -2
100
AcDbLine
 10
1673.79382175
 20
-419.41807427
 30
0.0
 11
1672.88935198
 21
-420.02105403
 31
0.0
  0
LINE
  5
2B4
100
AcDbEntity
  8
Sc.1_5
 62
     9
  6
CONTINUOUS
370
    -2
100
AcDbLine
 10
1673.79382343
 20
-410.08477401
 30
0.0
 11
1672.88935366
 21
-410.68775376
 31
0.0
  0
LINE
  5
2B5
100
AcDbEntity
  8
Sc.1_5
 62
     9
  6
CONTINUOUS
370
    -2
100
AcDbLine
 10
1673.79382511
 20
-400.75147374
 30
0.0
 11
1672.88935533
 21
-401.35445349
 31
0.0
  0
LINE
  5
2B6
100
AcDbEntity
  8
Sc.1_5
 62
     9
  6
CONTINUOUS
370
    -2
100
AcDbLine
 10
1650.08553649
 20
-471.35420559
 30
0.0
 11
1649.18106676
 21
-470.75122578
 31
0.0
  0
LINE
  5
2B7
100
AcDbEntity
  8
Sc.1_5
 62
     9
  6
CONTINUOUS
370
    -2
100
AcDbLine
 10
1650.08553543
 20
-462.02090533
 30
0.0
 11
1649.1810657
 21
-461.41792551
 31
0.0
  0
LINE
  5
2B8
100
AcDbEntity
  8
Sc.1_5
 62
     9
  6
CONTINUOUS
370
    -2
100
AcDbLine
 10
1650.08553438
 20
-452.68760506
 30
0.0
 11
1649.18106464
 21
-452.08462524
 31
0.0
  0
LINE
  5
2B9
100
AcDbEntity
  8
Sc.1_5
 62
     9
  6
CONTINUOUS
370
    -2
100
AcDbLine
 10
1650.08553332
 20
-443.35430479
 30
0.0
 11
1649.18106359
 21
-442.75132498
 31
0.0
  0
LINE
  5
2BA
100
AcDbEntity
  8
Sc.1_5
 62
     9
  6
CONTINUOUS
370
    -2
100
AcDbLine
 10
1650.08553226
 20
-434.02100453
 30
0.0
 11
1649.18106253
 21
-433.41802471
 31
0.0
  0
LINE
  5
2BB
100
AcDbEntity
  8
Sc.1_5
 62
     9
  6
CONTINUOUS
370
    -2
100
AcDbLine
 10
1650.08553121
 20
-424.68770426
 30
0.0
 11
1649.18106147
 21
-424.08472444
 31
0.0
  0
LINE
  5
2BC
100
AcDbEntity
  8
Sc.1_5
 62
     9
  6
CONTINUOUS
370
    -2
100
AcDbLine
 10
1650.08553015
 20
-415.35440399
 30
0.0
 11
1649.18106042
 21
-414.75142418
 31
0.0
  0
LINE
  5
2BD
100
AcDbEntity
  8
Sc.1_5
 62
     9
  6
CONTINUOUS
370
    -2
100
AcDbLine
 10
1650.08552909
 20
-406.02110373
 30
0.0
 11
1649.18105936
 21
-405.41812391
 31
0.0
  0
LINE
  5
2BE
100
AcDbEntity
  8
Sc.1_5
 62
     9
  6
CONTINUOUS
370
    -2
100
AcDbLine
 10
1650.08552804
 20
-396.68780346
 30
0.0
 11
1649.1810583
 21
-396.08482364
 31
0.0
  0
LINE
  5
2BF
100
AcDbEntity
  8
Sc.1_5
 62
     9
  6
CONTINUOUS
370
    -2
100
AcDbLine
 10
1649.18107249
 20
-398.16498995
 30
0.0
 11
1650.08554223
 21
-397.56201013
 31
0.0
  0
LINE
  5
2C0
100
AcDbEntity
  8
Sc.1_5
 62
     9
  6
CONTINUOUS
370
    -2
100
AcDbLine
 10
1649.18107144
 20
-407.49829021
 30
0.0
 11
1650.08554117
 21
-406.8953104
 31
0.0
  0
LINE
  5
2C1
100
AcDbEntity
  8
Sc.1_5
 62
     9
  6
CONTINUOUS
370
    -2
100
AcDbLine
 10
1649.18107038
 20
-416.83159048
 30
0.0
 11
1650.08554011
 21
-416.22861067
 31
0.0
  0
LINE
  5
2C2
100
AcDbEntity
  8
Sc.1_5
 62
     9
  6
CONTINUOUS
370
    -2
100
AcDbLine
 10
1649.18106933
 20
-426.16489075
 30
0.0
 11
1650.08553906
 21
-425.56191093
 31
0.0
  0
LINE
  5
2C3
100
AcDbEntity
  8
Sc.1_5
 62
     9
  6
CONTINUOUS
370
    -2
100
AcDbLine
 10
1649.18106827
 20
-435.49819102
 30
0.0
 11
1650.085538
 21
-434.8952112
 31
0.0
  0
LINE
  5
2C4
100
AcDbEntity
  8
Sc.1_5
 62
     9
  6
CONTINUOUS
370
    -2
100
AcDbLine
 10
1649.18106721
 20
-444.83149128
 30
0.0
 11
1650.08553694
 21
-444.22851147
 31
0.0
  0
LINE
  5
2C5
100
AcDbEntity
  8
Sc.1_5
 62
     9
  6
CONTINUOUS
370
    -2
100
AcDbLine
 10
1649.18106616
 20
-454.16479155
 30
0.0
 11
1650.08553589
 21
-453.56181173
 31
0.0
  0
LINE
  5
2C6
100
AcDbEntity
  8
Sc.1_5
 62
     9
  6
CONTINUOUS
370
    -2
100
AcDbLine
 10
1649.1810651
 20
-463.49809182
 30
0.0
 11
1650.08553483
 21
-462.895112
 31
0.0
  0
LINE
  5
2C7
100
AcDbEntity
  8
Sc.1_5
 62
     9
  6
CONTINUOUS
370
    -2
100
AcDbLine
 10
1672.88934213
 20
-467.56176201
 30
0.0
 11
1671.57803126
 21
-467.12465831
 31
0.0
  0
LINE
  5
2C8
100
AcDbEntity
  8
Sc.1_5
 62
     9
  6
CONTINUOUS
370
    -2
100
AcDbLine
 10
1672.88934166
 20
-458.22846108
 30
0.0
 11
1671.5780308
 21
-457.79135738
 31
0.0
  0
LINE
  5
2C9
100
AcDbEntity
  8
Sc.1_5
 62
     9
  6
CONTINUOUS
370
    -2
100
AcDbLine
 10
1672.88934119
 20
-448.89516015
 30
0.0
 11
1671.57803033
 21
-448.45805646
 31
0.0
  0
LINE
  5
2CA
100
AcDbEntity
  8
Sc.1_5
 62
     9
  6
CONTINUOUS
370
    -2
100
AcDbLine
 10
1672.88934073
 20
-439.56185922
 30
0.0
 11
1671.57802986
 21
-439.12475553
 31
0.0
  0
LINE
  5
2CB
100
AcDbEntity
  8
Sc.1_5
 62
     9
  6
CONTINUOUS
370
    -2
100
AcDbLine
 10
1672.88934026
 20
-430.22855829
 30
0.0
 11
1671.57802939
 21
-429.7914546
 31
0.0
  0
LINE
  5
2CC
100
AcDbEntity
  8
Sc.1_5
 62
     9
  6
CONTINUOUS
370
    -2
100
AcDbLine
 10
1672.88933979
 20
-420.89525736
 30
0.0
 11
1671.57802892
 21
-420.45815367
 31
0.0
  0
LINE
  5
2CD
100
AcDbEntity
  8
Sc.1_5
 62
     9
  6
CONTINUOUS
370
    -2
100
AcDbLine
 10
1672.88933932
 20
-411.56195643
 30
0.0
 11
1671.57802846
 21
-411.12485274
 31
0.0
  0
LINE
  5
2CE
100
AcDbEntity
  8
Sc.1_5
 62
     9
  6
CONTINUOUS
370
    -2
100
AcDbLine
 10
1672.88933885
 20
-402.22865551
 30
0.0
 11
1671.57802799
 21
-401.79155181
 31
0.0
  0
LINE
  5
2CF
100
AcDbEntity
  8
Sc.1_5
 62
     9
  6
CONTINUOUS
370
    -2
100
AcDbLine
 10
1672.8893426
 20
-466.68755554
 30
0.0
 11
1671.57803173
 21
-467.12465923
 31
0.0
  0
LINE
  5
2D0
100
AcDbEntity
  8
Sc.1_5
 62
     9
  6
CONTINUOUS
370
    -2
100
AcDbLine
 10
1672.88934306
 20
-457.35425461
 30
0.0
 11
1671.5780322
 21
-457.7913583
 31
0.0
  0
LINE
  5
2D1
100
AcDbEntity
  8
Sc.1_5
 62
     9
  6
CONTINUOUS
370
    -2
100
AcDbLine
 10
1672.88934353
 20
-448.02095368
 30
0.0
 11
1671.57803267
 21
-448.45805737
 31
0.0
  0
LINE
  5
2D2
100
AcDbEntity
  8
Sc.1_5
 62
     9
  6
CONTINUOUS
370
    -2
100
AcDbLine
 10
1672.889344
 20
-438.68765275
 30
0.0
 11
1671.57803314
 21
-439.12475645
 31
0.0
  0
LINE
  5
2D3
100
AcDbEntity
  8
Sc.1_5
 62
     9
  6
CONTINUOUS
370
    -2
100
AcDbLine
 10
1672.88934447
 20
-429.35435182
 30
0.0
 11
1671.5780336
 21
-429.79145552
 31
0.0
  0
LINE
  5
2D4
100
AcDbEntity
  8
Sc.1_5
 62
     9
  6
CONTINUOUS
370
    -2
100
AcDbLine
 10
1672.88934494
 20
-420.02105089
 30
0.0
 11
1671.57803407
 21
-420.45815459
 31
0.0
  0
LINE
  5
2D5
100
AcDbEntity
  8
Sc.1_5
 62
     9
  6
CONTINUOUS
370
    -2
100
AcDbLine
 10
1672.8893454
 20
-410.68774996
 30
0.0
 11
1671.57803454
 21
-411.12485366
 31
0.0
  0
LINE
  5
2D6
100
AcDbEntity
  8
Sc.1_5
 62
     9
  6
CONTINUOUS
370
    -2
100
AcDbLine
 10
1672.88934587
 20
-401.35444903
 30
0.0
 11
1671.57803501
 21
-401.79155273
 31
0.0
  0
LINE
  5
2D7
100
AcDbEntity
  8
Sc.1_5
 62
     9
  6
CONTINUOUS
370
    -2
100
AcDbLine
 10
1651.39684617
 20
-471.79130924
 30
0.0
 11
1650.0855353
 21
-471.35420554
 31
0.0
  0
LINE
  5
2D8
100
AcDbEntity
  8
Sc.1_5
 62
     9
  6
CONTINUOUS
370
    -2
100
AcDbLine
 10
1651.3968457
 20
-462.45800831
 30
0.0
 11
1650.08553484
 21
-462.02090461
 31
0.0
  0
LINE
  5
2D9
100
AcDbEntity
  8
Sc.1_5
 62
     9
  6
CONTINUOUS
370
    -2
100
AcDbLine
 10
1651.39684523
 20
-453.12470738
 30
0.0
 11
1650.08553437
 21
-452.68760368
 31
0.0
  0
LINE
  5
2DA
100
AcDbEntity
  8
Sc.1_5
 62
     9
  6
CONTINUOUS
370
    -2
100
AcDbLine
 10
1651.39684477
 20
-443.79140645
 30
0.0
 11
1650.0855339
 21
-443.35430275
 31
0.0
  0
LINE
  5
2DB
100
AcDbEntity
  8
Sc.1_5
 62
     9
  6
CONTINUOUS
370
    -2
100
AcDbLine
 10
1651.3968443
 20
-434.45810552
 30
0.0
 11
1650.08553343
 21
-434.02100182
 31
0.0
  0
LINE
  5
2DC
100
AcDbEntity
  8
Sc.1_5
 62
     9
  6
CONTINUOUS
370
    -2
100
AcDbLine
 10
1651.39684383
 20
-425.12480459
 30
0.0
 11
1650.08553296
 21
-424.68770089
 31
0.0
  0
LINE
  5
2DD
100
AcDbEntity
  8
Sc.1_5
 62
     9
  6
CONTINUOUS
370
    -2
100
AcDbLine
 10
1651.39684336
 20
-415.79150366
 30
0.0
 11
1650.0855325
 21
-415.35439997
 31
0.0
  0
LINE
  5
2DE
100
AcDbEntity
  8
Sc.1_5
 62
     9
  6
CONTINUOUS
370
    -2
100
AcDbLine
 10
1651.39684289
 20
-406.45820273
 30
0.0
 11
1650.08553203
 21
-406.02109904
 31
0.0
  0
LINE
  5
2DF
100
AcDbEntity
  8
Sc.1_5
 62
     9
  6
CONTINUOUS
370
    -2
100
AcDbLine
 10
1651.39684243
 20
-397.1249018
 30
0.0
 11
1650.08553156
 21
-396.68779811
 31
0.0
  0
LINE
  5
2E0
100
AcDbEntity
  8
Sc.1_5
 62
     9
  6
CONTINUOUS
370
    -2
100
AcDbLine
 10
1650.08553976
 20
-397.56200772
 30
0.0
 11
1651.39685063
 21
-397.12490402
 31
0.0
  0
LINE
  5
2E1
100
AcDbEntity
  8
Sc.1_5
 62
     9
  6
CONTINUOUS
370
    -2
100
AcDbLine
 10
1650.0855393
 20
-406.89530865
 30
0.0
 11
1651.39685016
 21
-406.45820495
 31
0.0
  0
LINE
  5
2E2
100
AcDbEntity
  8
Sc.1_5
 62
     9
  6
CONTINUOUS
370
    -2
100
AcDbLine
 10
1650.08553883
 20
-416.22860958
 30
0.0
 11
1651.39684969
 21
-415.79150588
 31
0.0
  0
LINE
  5
2E3
100
AcDbEntity
  8
Sc.1_5
 62
     9
  6
CONTINUOUS
370
    -2
100
AcDbLine
 10
1650.08553836
 20
-425.56191051
 30
0.0
 11
1651.39684923
 21
-425.12480681
 31
0.0
  0
LINE
  5
2E4
100
AcDbEntity
  8
Sc.1_5
 62
     9
  6
CONTINUOUS
370
    -2
100
AcDbLine
 10
1650.08553789
 20
-434.89521144
 30
0.0
 11
1651.39684876
 21
-434.45810774
 31
0.0
  0
LINE
  5
2E5
100
AcDbEntity
  8
Sc.1_5
 62
     9
  6
CONTINUOUS
370
    -2
100
AcDbLine
 10
1650.08553742
 20
-444.22851237
 30
0.0
 11
1651.39684829
 21
-443.79140867
 31
0.0
  0
LINE
  5
2E6
100
AcDbEntity
  8
Sc.1_5
 62
     9
  6
CONTINUOUS
370
    -2
100
AcDbLine
 10
1650.08553696
 20
-453.5618133
 30
0.0
 11
1651.39684782
 21
-453.1247096
 31
0.0
  0
LINE
  5
2E7
100
AcDbEntity
  8
Sc.1_5
 62
     9
  6
CONTINUOUS
370
    -2
100
AcDbLine
 10
1650.08553649
 20
-462.89511423
 30
0.0
 11
1651.39684735
 21
-462.45801053
 31
0.0
  0
LINE
  5
2E8
100
AcDbEntity
  8
Sc.1_5
 62
     9
  6
CONTINUOUS
370
    -2
100
AcDbLine
 10
1670.82072889
 20
-467.12465808
 30
0.0
 11
1669.81967966
 21
-467.01343034
 31
0.0
  0
LINE
  5
2E9
100
AcDbEntity
  8
Sc.1_5
 62
     9
  6
CONTINUOUS
370
    -2
100
AcDbLine
 10
1670.82071749
 20
-457.79135881
 30
0.0
 11
1669.81966825
 21
-457.68013107
 31
0.0
  0
LINE
  5
2EA
100
AcDbEntity
  8
Sc.1_5
 62
     9
  6
CONTINUOUS
370
    -2
100
AcDbLine
 10
1670.82070608
 20
-448.45805954
 30
0.0
 11
1669.81965685
 21
-448.34683179
 31
0.0
  0
LINE
  5
2EB
100
AcDbEntity
  8
Sc.1_5
 62
     9
  6
CONTINUOUS
370
    -2
100
AcDbLine
 10
1670.82069468
 20
-439.12476027
 30
0.0
 11
1669.81964544
 21
-439.01353252
 31
0.0
  0
LINE
  5
2EC
100
AcDbEntity
  8
Sc.1_5
 62
     9
  6
CONTINUOUS
370
    -2
100
AcDbLine
 10
1670.82068327
 20
-429.791461
 30
0.0
 11
1669.81963403
 21
-429.68023325
 31
0.0
  0
LINE
  5
2ED
100
AcDbEntity
  8
Sc.1_5
 62
     9
  6
CONTINUOUS
370
    -2
100
AcDbLine
 10
1670.82067187
 20
-420.45816172
 30
0.0
 11
1669.81962263
 21
-420.34693398
 31
0.0
  0
LINE
  5
2EE
100
AcDbEntity
  8
Sc.1_5
 62
     9
  6
CONTINUOUS
370
    -2
100
AcDbLine
 10
1670.82066046
 20
-411.12486245
 30
0.0
 11
1669.81961122
 21
-411.01363471
 31
0.0
  0
LINE
  5
2EF
100
AcDbEntity
  8
Sc.1_5
 62
     9
  6
CONTINUOUS
370
    -2
100
AcDbLine
 10
1670.82064905
 20
-401.79156318
 30
0.0
 11
1669.81959982
 21
-401.68033543
 31
0.0
  0
LINE
  5
2F0
100
AcDbEntity
  8
Sc.1_5
 62
     9
  6
CONTINUOUS
370
    -2
100
AcDbLine
 10
1670.8207403
 20
-467.12466112
 30
0.0
 11
1669.81969106
 21
-467.23588887
 31
0.0
  0
LINE
  5
2F1
100
AcDbEntity
  8
Sc.1_5
 62
     9
  6
CONTINUOUS
370
    -2
100
AcDbLine
 10
1670.82075171
 20
-457.79136185
 30
0.0
 11
1669.81970247
 21
-457.90258959
 31
0.0
  0
LINE
  5
2F2
100
AcDbEntity
  8
Sc.1_5
 62
     9
  6
CONTINUOUS
370
    -2
100
AcDbLine
 10
1670.82076311
 20
-448.45806258
 30
0.0
 11
1669.81971388
 21
-448.56929032
 31
0.0
  0
LINE
  5
2F3
100
AcDbEntity
  8
Sc.1_5
 62
     9
  6
CONTINUOUS
370
    -2
100
AcDbLine
 10
1670.82077452
 20
-439.1247633
 30
0.0
 11
1669.81972528
 21
-439.23599105
 31
0.0
  0
LINE
  5
2F4
100
AcDbEntity
  8
Sc.1_5
 62
     9
  6
CONTINUOUS
370
    -2
100
AcDbLine
 10
1670.82078592
 20
-429.79146403
 30
0.0
 11
1669.81973669
 21
-429.90269178
 31
0.0
  0
LINE
  5
2F5
100
AcDbEntity
  8
Sc.1_5
 62
     9
  6
CONTINUOUS
370
    -2
100
AcDbLine
 10
1670.82079733
 20
-420.45816476
 30
0.0
 11
1669.81974809
 21
-420.56939251
 31
0.0
  0
LINE
  5
2F6
100
AcDbEntity
  8
Sc.1_5
 62
     9
  6
CONTINUOUS
370
    -2
100
AcDbLine
 10
1670.82080874
 20
-411.12486549
 30
0.0
 11
1669.8197595
 21
-411.23609323
 31
0.0
  0
LINE
  5
2F7
100
AcDbEntity
  8
Sc.1_5
 62
     9
  6
CONTINUOUS
370
    -2
100
AcDbLine
 10
1670.82082014
 20
-401.79156622
 30
0.0
 11
1669.81977091
 21
-401.90279396
 31
0.0
  0
LINE
  5
2F8
100
AcDbEntity
  8
Sc.1_5
 62
     9
  6
CONTINUOUS
370
    -2
100
AcDbLine
 10
1652.15402869
 20
-397.12491506
 30
0.0
 11
1653.15507795
 21
-397.23614254
 31
0.0
  0
LINE
  5
2F9
100
AcDbEntity
  8
Sc.1_5
 62
     9
  6
CONTINUOUS
370
    -2
100
AcDbLine
 10
1652.15404258
 20
-406.45821433
 30
0.0
 11
1653.15509184
 21
-406.56944181
 31
0.0
  0
LINE
  5
2FA
100
AcDbEntity
  8
Sc.1_5
 62
     9
  6
CONTINUOUS
370
    -2
100
AcDbLine
 10
1652.15405647
 20
-415.79151361
 30
0.0
 11
1653.15510574
 21
-415.90274108
 31
0.0
  0
LINE
  5
2FB
100
AcDbEntity
  8
Sc.1_5
 62
     9
  6
CONTINUOUS
370
    -2
100
AcDbLine
 10
1652.15407036
 20
-425.12481288
 30
0.0
 11
1653.15511963
 21
-425.23604036
 31
0.0
  0
LINE
  5
2FC
100
AcDbEntity
  8
Sc.1_5
 62
     9
  6
CONTINUOUS
370
    -2
100
AcDbLine
 10
1652.15408425
 20
-434.45811215
 30
0.0
 11
1653.15513352
 21
-434.56933963
 31
0.0
  0
LINE
  5
2FD
100
AcDbEntity
  8
Sc.1_5
 62
     9
  6
CONTINUOUS
370
    -2
100
AcDbLine
 10
1652.15409814
 20
-443.79141142
 30
0.0
 11
1653.15514741
 21
-443.9026389
 31
0.0
  0
LINE
  5
2FE
100
AcDbEntity
  8
Sc.1_5
 62
     9
  6
CONTINUOUS
370
    -2
100
AcDbLine
 10
1652.15411204
 20
-453.12471069
 30
0.0
 11
1653.1551613
 21
-453.23593817
 31
0.0
  0
LINE
  5
2FF
100
AcDbEntity
  8
Sc.1_5
 62
     9
  6
CONTINUOUS
370
    -2
100
AcDbLine
 10
1652.15412593
 20
-462.45800997
 30
0.0
 11
1653.15517519
 21
-462.56923744
 31
0.0
  0
LINE
  5
300
100
AcDbEntity
  8
Sc.1_5
 62
     9
  6
CONTINUOUS
370
    -2
100
AcDbLine
 10
1652.15423107
 20
-397.12491506
 30
0.0
 11
1653.1552803
 21
-397.01368732
 31
0.0
  0
LINE
  5
301
100
AcDbEntity
  8
Sc.1_5
 62
     9
  6
CONTINUOUS
370
    -2
100
AcDbLine
 10
1652.15421966
 20
-406.45821433
 30
0.0
 11
1653.1552689
 21
-406.34698659
 31
0.0
  0
LINE
  5
302
100
AcDbEntity
  8
Sc.1_5
 62
     9
  6
CONTINUOUS
370
    -2
100
AcDbLine
 10
1652.15420825
 20
-415.79151361
 30
0.0
 11
1653.15525749
 21
-415.68028586
 31
0.0
  0
LINE
  5
303
100
AcDbEntity
  8
Sc.1_5
 62
     9
  6
CONTINUOUS
370
    -2
100
AcDbLine
 10
1652.15419685
 20
-425.12481288
 30
0.0
 11
1653.15524609
 21
-425.01358513
 31
0.0
  0
LINE
  5
304
100
AcDbEntity
  8
Sc.1_5
 62
     9
  6
CONTINUOUS
370
    -2
100
AcDbLine
 10
1652.15418544
 20
-434.45811215
 30
0.0
 11
1653.15523468
 21
-434.3468844
 31
0.0
  0
LINE
  5
305
100
AcDbEntity
  8
Sc.1_5
 62
     9
  6
CONTINUOUS
370
    -2
100
AcDbLine
 10
1652.15417404
 20
-443.79141142
 30
0.0
 11
1653.15522327
 21
-443.68018368
 31
0.0
  0
LINE
  5
306
100
AcDbEntity
  8
Sc.1_5
 62
     9
  6
CONTINUOUS
370
    -2
100
AcDbLine
 10
1652.15416263
 20
-453.12471069
 30
0.0
 11
1653.15521187
 21
-453.01348295
 31
0.0
  0
LINE
  5
307
100
AcDbEntity
  8
Sc.1_5
 62
     9
  6
CONTINUOUS
370
    -2
100
AcDbLine
 10
1652.15415123
 20
-462.45800997
 30
0.0
 11
1653.15520046
 21
-462.34678222
 31
0.0
  0
LINE
  5
308
100
AcDbEntity
  8
Sc.1_5
 62
     9
  6
CONTINUOUS
370
    -2
100
AcDbLine
 10
1652.15413982
 20
-471.79130924
 30
0.0
 11
1653.15518906
 21
-471.68008149
 31
0.0
  0
ENDBLK
  5
309
100
AcDbEntity
100
AcDbBlockEnd
  0
BLOCK
  5
30A
100
AcDbEntity
  8
Sc.1_5
100
AcDbBlockBegin
  2
*X1740
 70
     1
 10
0.0
 20
0.0
 30
0.0
  3
*X1740
  1

  4
Cadwork hatch
  0
LINE
  5
30B
100
AcDbEntity
  8
Sc.1_5
 62
     9
  6
CONTINUOUS
370
    -2
100
AcDbLine
 10
1760.26421044
 20
-505.29122173
 30
0.0
 11
1760.71060444
 21
-505.29122187
 31
0.0
  0
LINE
  5
30C
100
AcDbEntity
  8
Sc.1_5
 62
     9
  6
CONTINUOUS
370
    -2
100
AcDbLine
 10
1761.93087745
 20
-505.29122225
 30
0.0
 11
1762.37727145
 21
-505.29122239
 31
0.0
  0
LINE
  5
30D
100
AcDbEntity
  8
Sc.1_5
 62
     9
  6
CONTINUOUS
370
    -2
100
AcDbLine
 10
1677.154054
 20
-513.8949907
 30
0.0
 11
1677.15405408
 21
-513.62452772
 31
0.0
  0
LINE
  5
30E
100
AcDbEntity
  8
Sc.1_5
 62
     9
  6
CONTINUOUS
370
    -2
100
AcDbLine
 10
1680.48738701
 20
-513.89499175
 30
0.0
 11
1680.4873871
 21
-513.62452876
 31
0.0
  0
LINE
  5
30F
100
AcDbEntity
  8
Sc.1_5
 62
     9
  6
CONTINUOUS
370
    -2
100
AcDbLine
 10
1683.82072003
 20
-513.89499279
 30
0.0
 11
1683.82072011
 21
-513.6245298
 31
0.0
  0
LINE
  5
310
100
AcDbEntity
  8
Sc.1_5
 62
     9
  6
CONTINUOUS
370
    -2
100
AcDbLine
 10
1687.15405304
 20
-513.89499384
 30
0.0
 11
1687.15405313
 21
-513.62453085
 31
0.0
  0
LINE
  5
311
100
AcDbEntity
  8
Sc.1_5
 62
     9
  6
CONTINUOUS
370
    -2
100
AcDbLine
 10
1690.48738606
 20
-513.89499488
 30
0.0
 11
1690.48738614
 21
-513.62453189
 31
0.0
  0
LINE
  5
312
100
AcDbEntity
  8
Sc.1_5
 62
     9
  6
CONTINUOUS
370
    -2
100
AcDbLine
 10
1693.82071907
 20
-513.89499593
 30
0.0
 11
1693.82071916
 21
-513.62453294
 31
0.0
  0
LINE
  5
313
100
AcDbEntity
  8
Sc.1_5
 62
     9
  6
CONTINUOUS
370
    -2
100
AcDbLine
 10
1697.15405209
 20
-513.89499697
 30
0.0
 11
1697.15405217
 21
-513.62453398
 31
0.0
  0
LINE
  5
314
100
AcDbEntity
  8
Sc.1_5
 62
     9
  6
CONTINUOUS
370
    -2
100
AcDbLine
 10
1700.4873851
 20
-513.89499801
 30
0.0
 11
1700.48738519
 21
-513.62453502
 31
0.0
  0
LINE
  5
315
100
AcDbEntity
  8
Sc.1_5
 62
     9
  6
CONTINUOUS
370
    -2
100
AcDbLine
 10
1703.82071812
 20
-513.89499906
 30
0.0
 11
1703.8207182
 21
-513.62453607
 31
0.0
  0
LINE
  5
316
100
AcDbEntity
  8
Sc.1_5
 62
     9
  6
CONTINUOUS
370
    -2
100
AcDbLine
 10
1707.15405113
 20
-513.8950001
 30
0.0
 11
1707.15405122
 21
-513.62453711
 31
0.0
  0
LINE
  5
317
100
AcDbEntity
  8
Sc.1_5
 62
     9
  6
CONTINUOUS
370
    -2
100
AcDbLine
 10
1710.48738415
 20
-513.89500115
 30
0.0
 11
1710.48738423
 21
-513.62453816
 31
0.0
  0
LINE
  5
318
100
AcDbEntity
  8
Sc.1_5
 62
     9
  6
CONTINUOUS
370
    -2
100
AcDbLine
 10
1713.82071716
 20
-513.89500219
 30
0.0
 11
1713.82071725
 21
-513.6245392
 31
0.0
  0
LINE
  5
319
100
AcDbEntity
  8
Sc.1_5
 62
     9
  6
CONTINUOUS
370
    -2
100
AcDbLine
 10
1717.15405018
 20
-513.89500323
 30
0.0
 11
1717.15405027
 21
-513.62454024
 31
0.0
  0
LINE
  5
31A
100
AcDbEntity
  8
Sc.1_5
 62
     9
  6
CONTINUOUS
370
    -2
100
AcDbLine
 10
1720.4873832
 20
-513.89500428
 30
0.0
 11
1720.48738328
 21
-513.62454129
 31
0.0
  0
LINE
  5
31B
100
AcDbEntity
  8
Sc.1_5
 62
     9
  6
CONTINUOUS
370
    -2
100
AcDbLine
 10
1723.82071621
 20
-513.89500532
 30
0.0
 11
1723.8207163
 21
-513.62454233
 31
0.0
  0
LINE
  5
31C
100
AcDbEntity
  8
Sc.1_5
 62
     9
  6
CONTINUOUS
370
    -2
100
AcDbLine
 10
1727.15404923
 20
-513.89500637
 30
0.0
 11
1727.15404931
 21
-513.62454338
 31
0.0
  0
LINE
  5
31D
100
AcDbEntity
  8
Sc.1_5
 62
     9
  6
CONTINUOUS
370
    -2
100
AcDbLine
 10
1730.48738224
 20
-513.89500741
 30
0.0
 11
1730.48738233
 21
-513.62454442
 31
0.0
  0
LINE
  5
31E
100
AcDbEntity
  8
Sc.1_5
 62
     9
  6
CONTINUOUS
370
    -2
100
AcDbLine
 10
1733.82071526
 20
-513.89500845
 30
0.0
 11
1733.82071534
 21
-513.62454546
 31
0.0
  0
LINE
  5
31F
100
AcDbEntity
  8
Sc.1_5
 62
     9
  6
CONTINUOUS
370
    -2
100
AcDbLine
 10
1737.15404827
 20
-513.8950095
 30
0.0
 11
1737.15404836
 21
-513.62454651
 31
0.0
  0
LINE
  5
320
100
AcDbEntity
  8
Sc.1_5
 62
     9
  6
CONTINUOUS
370
    -2
100
AcDbLine
 10
1740.48738129
 20
-513.89501054
 30
0.0
 11
1740.48738137
 21
-513.62454755
 31
0.0
  0
LINE
  5
321
100
AcDbEntity
  8
Sc.1_5
 62
     9
  6
CONTINUOUS
370
    -2
100
AcDbLine
 10
1743.8207143
 20
-513.89501159
 30
0.0
 11
1743.82071439
 21
-513.6245486
 31
0.0
  0
LINE
  5
322
100
AcDbEntity
  8
Sc.1_5
 62
     9
  6
CONTINUOUS
370
    -2
100
AcDbLine
 10
1747.15404732
 20
-513.89501263
 30
0.0
 11
1747.1540474
 21
-513.62454964
 31
0.0
  0
LINE
  5
323
100
AcDbEntity
  8
Sc.1_5
 62
     9
  6
CONTINUOUS
370
    -2
100
AcDbLine
 10
1750.48738033
 20
-513.89501368
 30
0.0
 11
1750.48738042
 21
-513.62455069
 31
0.0
  0
LINE
  5
324
100
AcDbEntity
  8
Sc.1_5
 62
     9
  6
CONTINUOUS
370
    -2
100
AcDbLine
 10
1753.82071335
 20
-513.89501472
 30
0.0
 11
1753.82071343
 21
-513.62455173
 31
0.0
  0
LINE
  5
325
100
AcDbEntity
  8
Sc.1_5
 62
     9
  6
CONTINUOUS
370
    -2
100
AcDbLine
 10
1757.15404637
 20
-513.89501576
 30
0.0
 11
1757.15404645
 21
-513.62455277
 31
0.0
  0
LINE
  5
326
100
AcDbEntity
  8
Sc.1_5
 62
     9
  6
CONTINUOUS
370
    -2
100
AcDbLine
 10
1760.48737938
 20
-513.89501681
 30
0.0
 11
1760.48737947
 21
-513.62455382
 31
0.0
  0
LINE
  5
327
100
AcDbEntity
  8
Sc.1_5
 62
     9
  6
CONTINUOUS
370
    -2
100
AcDbLine
 10
1675.48739018
 20
-506.95786116
 30
0.0
 11
1675.48739027
 21
-506.68739817
 31
0.0
  0
LINE
  5
328
100
AcDbEntity
  8
Sc.1_5
 62
     9
  6
CONTINUOUS
370
    -2
100
AcDbLine
 10
1678.8207232
 20
-506.95786221
 30
0.0
 11
1678.82072328
 21
-506.68739922
 31
0.0
  0
LINE
  5
329
100
AcDbEntity
  8
Sc.1_5
 62
     9
  6
CONTINUOUS
370
    -2
100
AcDbLine
 10
1682.15405621
 20
-506.95786325
 30
0.0
 11
1682.1540563
 21
-506.68740026
 31
0.0
  0
LINE
  5
32A
100
AcDbEntity
  8
Sc.1_5
 62
     9
  6
CONTINUOUS
370
    -2
100
AcDbLine
 10
1685.48738923
 20
-506.95786429
 30
0.0
 11
1685.48738931
 21
-506.6874013
 31
0.0
  0
LINE
  5
32B
100
AcDbEntity
  8
Sc.1_5
 62
     9
  6
CONTINUOUS
370
    -2
100
AcDbLine
 10
1688.82072225
 20
-506.95786534
 30
0.0
 11
1688.82072233
 21
-506.68740235
 31
0.0
  0
LINE
  5
32C
100
AcDbEntity
  8
Sc.1_5
 62
     9
  6
CONTINUOUS
370
    -2
100
AcDbLine
 10
1692.15405526
 20
-506.95786638
 30
0.0
 11
1692.15405535
 21
-506.68740339
 31
0.0
  0
LINE
  5
32D
100
AcDbEntity
  8
Sc.1_5
 62
     9
  6
CONTINUOUS
370
    -2
100
AcDbLine
 10
1695.48738828
 20
-506.95786743
 30
0.0
 11
1695.48738836
 21
-506.68740444
 31
0.0
  0
LINE
  5
32E
100
AcDbEntity
  8
Sc.1_5
 62
     9
  6
CONTINUOUS
370
    -2
100
AcDbLine
 10
1698.82072129
 20
-506.95786847
 30
0.0
 11
1698.82072138
 21
-506.68740548
 31
0.0
  0
LINE
  5
32F
100
AcDbEntity
  8
Sc.1_5
 62
     9
  6
CONTINUOUS
370
    -2
100
AcDbLine
 10
1702.15405431
 20
-506.95786952
 30
0.0
 11
1702.15405439
 21
-506.68740653
 31
0.0
  0
LINE
  5
330
100
AcDbEntity
  8
Sc.1_5
 62
     9
  6
CONTINUOUS
370
    -2
100
AcDbLine
 10
1705.48738732
 20
-506.95787056
 30
0.0
 11
1705.48738741
 21
-506.68740757
 31
0.0
  0
LINE
  5
331
100
AcDbEntity
  8
Sc.1_5
 62
     9
  6
CONTINUOUS
370
    -2
100
AcDbLine
 10
1708.82072034
 20
-506.9578716
 30
0.0
 11
1708.82072042
 21
-506.68740861
 31
0.0
  0
LINE
  5
332
100
AcDbEntity
  8
Sc.1_5
 62
     9
  6
CONTINUOUS
370
    -2
100
AcDbLine
 10
1712.15405335
 20
-506.95787265
 30
0.0
 11
1712.15405344
 21
-506.68740966
 31
0.0
  0
LINE
  5
333
100
AcDbEntity
  8
Sc.1_5
 62
     9
  6
CONTINUOUS
370
    -2
100
AcDbLine
 10
1715.48738637
 20
-506.95787369
 30
0.0
 11
1715.48738645
 21
-506.6874107
 31
0.0
  0
LINE
  5
334
100
AcDbEntity
  8
Sc.1_5
 62
     9
  6
CONTINUOUS
370
    -2
100
AcDbLine
 10
1718.82071938
 20
-506.95787474
 30
0.0
 11
1718.82071947
 21
-506.68741175
 31
0.0
  0
LINE
  5
335
100
AcDbEntity
  8
Sc.1_5
 62
     9
  6
CONTINUOUS
370
    -2
100
AcDbLine
 10
1722.1540524
 20
-506.95787578
 30
0.0
 11
1722.15405248
 21
-506.68741279
 31
0.0
  0
LINE
  5
336
100
AcDbEntity
  8
Sc.1_5
 62
     9
  6
CONTINUOUS
370
    -2
100
AcDbLine
 10
1725.48738542
 20
-506.95787682
 30
0.0
 11
1725.4873855
 21
-506.68741383
 31
0.0
  0
LINE
  5
337
100
AcDbEntity
  8
Sc.1_5
 62
     9
  6
CONTINUOUS
370
    -2
100
AcDbLine
 10
1728.82071843
 20
-506.95787787
 30
0.0
 11
1728.82071852
 21
-506.68741488
 31
0.0
  0
LINE
  5
338
100
AcDbEntity
  8
Sc.1_5
 62
     9
  6
CONTINUOUS
370
    -2
100
AcDbLine
 10
1732.15405145
 20
-506.95787891
 30
0.0
 11
1732.15405153
 21
-506.68741592
 31
0.0
  0
LINE
  5
339
100
AcDbEntity
  8
Sc.1_5
 62
     9
  6
CONTINUOUS
370
    -2
100
AcDbLine
 10
1735.48738446
 20
-506.95787996
 30
0.0
 11
1735.48738455
 21
-506.68741697
 31
0.0
  0
LINE
  5
33A
100
AcDbEntity
  8
Sc.1_5
 62
     9
  6
CONTINUOUS
370
    -2
100
AcDbLine
 10
1738.82071748
 20
-506.957881
 30
0.0
 11
1738.82071756
 21
-506.68741801
 31
0.0
  0
LINE
  5
33B
100
AcDbEntity
  8
Sc.1_5
 62
     9
  6
CONTINUOUS
370
    -2
100
AcDbLine
 10
1742.15405049
 20
-506.95788204
 30
0.0
 11
1742.15405058
 21
-506.68741905
 31
0.0
  0
LINE
  5
33C
100
AcDbEntity
  8
Sc.1_5
 62
     9
  6
CONTINUOUS
370
    -2
100
AcDbLine
 10
1745.48738351
 20
-506.95788309
 30
0.0
 11
1745.48738359
 21
-506.6874201
 31
0.0
  0
LINE
  5
33D
100
AcDbEntity
  8
Sc.1_5
 62
     9
  6
CONTINUOUS
370
    -2
100
AcDbLine
 10
1748.82071652
 20
-506.95788413
 30
0.0
 11
1748.82071661
 21
-506.68742114
 31
0.0
  0
LINE
  5
33E
100
AcDbEntity
  8
Sc.1_5
 62
     9
  6
CONTINUOUS
370
    -2
100
AcDbLine
 10
1752.15404954
 20
-506.95788518
 30
0.0
 11
1752.15404962
 21
-506.68742219
 31
0.0
  0
LINE
  5
33F
100
AcDbEntity
  8
Sc.1_5
 62
     9
  6
CONTINUOUS
370
    -2
100
AcDbLine
 10
1755.48738255
 20
-506.95788622
 30
0.0
 11
1755.48738264
 21
-506.68742323
 31
0.0
  0
LINE
  5
340
100
AcDbEntity
  8
Sc.1_5
 62
     9
  6
CONTINUOUS
370
    -2
100
AcDbLine
 10
1758.82071557
 20
-506.95788726
 30
0.0
 11
1758.82071565
 21
-506.68742427
 31
0.0
  0
LINE
  5
341
100
AcDbEntity
  8
Sc.1_5
 62
     9
  6
CONTINUOUS
370
    -2
100
AcDbLine
 10
1762.15404858
 20
-506.95788831
 30
0.0
 11
1762.15404867
 21
-506.68742532
 31
0.0
  0
LINE
  5
342
100
AcDbEntity
  8
Sc.1_5
 62
     9
  6
CONTINUOUS
370
    -2
100
AcDbLine
 10
1677.11432925
 20
-513.26700974
 30
0.0
 11
1675.52711343
 21
-507.31537996
 31
0.0
  0
LINE
  5
343
100
AcDbEntity
  8
Sc.1_5
 62
     9
  6
CONTINUOUS
370
    -2
100
AcDbLine
 10
1680.44766158
 20
-513.26701651
 30
0.0
 11
1678.86044576
 21
-507.31538672
 31
0.0
  0
LINE
  5
344
100
AcDbEntity
  8
Sc.1_5
 62
     9
  6
CONTINUOUS
370
    -2
100
AcDbLine
 10
1683.78099392
 20
-513.26702327
 30
0.0
 11
1682.1937781
 21
-507.31539348
 31
0.0
  0
LINE
  5
345
100
AcDbEntity
  8
Sc.1_5
 62
     9
  6
CONTINUOUS
370
    -2
100
AcDbLine
 10
1687.11432626
 20
-513.26703003
 30
0.0
 11
1685.52711044
 21
-507.31540024
 31
0.0
  0
LINE
  5
346
100
AcDbEntity
  8
Sc.1_5
 62
     9
  6
CONTINUOUS
370
    -2
100
AcDbLine
 10
1690.44765859
 20
-513.26703679
 30
0.0
 11
1688.86044278
 21
-507.315407
 31
0.0
  0
LINE
  5
347
100
AcDbEntity
  8
Sc.1_5
 62
     9
  6
CONTINUOUS
370
    -2
100
AcDbLine
 10
1693.78099093
 20
-513.26704355
 30
0.0
 11
1692.19377511
 21
-507.31541376
 31
0.0
  0
LINE
  5
348
100
AcDbEntity
  8
Sc.1_5
 62
     9
  6
CONTINUOUS
370
    -2
100
AcDbLine
 10
1697.11432327
 20
-513.26705031
 30
0.0
 11
1695.52710745
 21
-507.31542053
 31
0.0
  0
LINE
  5
349
100
AcDbEntity
  8
Sc.1_5
 62
     9
  6
CONTINUOUS
370
    -2
100
AcDbLine
 10
1700.4476556
 20
-513.26705707
 30
0.0
 11
1698.86043979
 21
-507.31542729
 31
0.0
  0
LINE
  5
34A
100
AcDbEntity
  8
Sc.1_5
 62
     9
  6
CONTINUOUS
370
    -2
100
AcDbLine
 10
1703.78098794
 20
-513.26706383
 30
0.0
 11
1702.19377212
 21
-507.31543405
 31
0.0
  0
LINE
  5
34B
100
AcDbEntity
  8
Sc.1_5
 62
     9
  6
CONTINUOUS
370
    -2
100
AcDbLine
 10
1707.11432028
 20
-513.26707059
 30
0.0
 11
1705.52710446
 21
-507.31544081
 31
0.0
  0
LINE
  5
34C
100
AcDbEntity
  8
Sc.1_5
 62
     9
  6
CONTINUOUS
370
    -2
100
AcDbLine
 10
1710.44765262
 20
-513.26707735
 30
0.0
 11
1708.8604368
 21
-507.31544757
 31
0.0
  0
LINE
  5
34D
100
AcDbEntity
  8
Sc.1_5
 62
     9
  6
CONTINUOUS
370
    -2
100
AcDbLine
 10
1713.78098495
 20
-513.26708411
 30
0.0
 11
1712.19376913
 21
-507.31545433
 31
0.0
  0
LINE
  5
34E
100
AcDbEntity
  8
Sc.1_5
 62
     9
  6
CONTINUOUS
370
    -2
100
AcDbLine
 10
1717.11431729
 20
-513.26709088
 30
0.0
 11
1715.52710147
 21
-507.31546109
 31
0.0
  0
LINE
  5
34F
100
AcDbEntity
  8
Sc.1_5
 62
     9
  6
CONTINUOUS
370
    -2
100
AcDbLine
 10
1720.44764963
 20
-513.26709764
 30
0.0
 11
1718.86043381
 21
-507.31546785
 31
0.0
  0
LINE
  5
350
100
AcDbEntity
  8
Sc.1_5
 62
     9
  6
CONTINUOUS
370
    -2
100
AcDbLine
 10
1723.78098196
 20
-513.2671044
 30
0.0
 11
1722.19376615
 21
-507.31547461
 31
0.0
  0
LINE
  5
351
100
AcDbEntity
  8
Sc.1_5
 62
     9
  6
CONTINUOUS
370
    -2
100
AcDbLine
 10
1727.1143143
 20
-513.26711116
 30
0.0
 11
1725.52709848
 21
-507.31548137
 31
0.0
  0
LINE
  5
352
100
AcDbEntity
  8
Sc.1_5
 62
     9
  6
CONTINUOUS
370
    -2
100
AcDbLine
 10
1730.44764664
 20
-513.26711792
 30
0.0
 11
1728.86043082
 21
-507.31548813
 31
0.0
  0
LINE
  5
353
100
AcDbEntity
  8
Sc.1_5
 62
     9
  6
CONTINUOUS
370
    -2
100
AcDbLine
 10
1733.78097897
 20
-513.26712468
 30
0.0
 11
1732.19376316
 21
-507.31549489
 31
0.0
  0
LINE
  5
354
100
AcDbEntity
  8
Sc.1_5
 62
     9
  6
CONTINUOUS
370
    -2
100
AcDbLine
 10
1737.11431131
 20
-513.26713144
 30
0.0
 11
1735.52709549
 21
-507.31550166
 31
0.0
  0
LINE
  5
355
100
AcDbEntity
  8
Sc.1_5
 62
     9
  6
CONTINUOUS
370
    -2
100
AcDbLine
 10
1740.44764365
 20
-513.2671382
 30
0.0
 11
1738.86042783
 21
-507.31550842
 31
0.0
  0
LINE
  5
356
100
AcDbEntity
  8
Sc.1_5
 62
     9
  6
CONTINUOUS
370
    -2
100
AcDbLine
 10
1743.78097599
 20
-513.26714496
 30
0.0
 11
1742.19376017
 21
-507.31551518
 31
0.0
  0
LINE
  5
357
100
AcDbEntity
  8
Sc.1_5
 62
     9
  6
CONTINUOUS
370
    -2
100
AcDbLine
 10
1747.11430832
 20
-513.26715172
 30
0.0
 11
1745.5270925
 21
-507.31552194
 31
0.0
  0
LINE
  5
358
100
AcDbEntity
  8
Sc.1_5
 62
     9
  6
CONTINUOUS
370
    -2
100
AcDbLine
 10
1750.44764066
 20
-513.26715848
 30
0.0
 11
1748.86042484
 21
-507.3155287
 31
0.0
  0
LINE
  5
359
100
AcDbEntity
  8
Sc.1_5
 62
     9
  6
CONTINUOUS
370
    -2
100
AcDbLine
 10
1753.780973
 20
-513.26716524
 30
0.0
 11
1752.19375718
 21
-507.31553546
 31
0.0
  0
LINE
  5
35A
100
AcDbEntity
  8
Sc.1_5
 62
     9
  6
CONTINUOUS
370
    -2
100
AcDbLine
 10
1757.11430533
 20
-513.26717201
 30
0.0
 11
1755.52708952
 21
-507.31554222
 31
0.0
  0
LINE
  5
35B
100
AcDbEntity
  8
Sc.1_5
 62
     9
  6
CONTINUOUS
370
    -2
100
AcDbLine
 10
1760.44763767
 20
-513.26717877
 30
0.0
 11
1758.86042185
 21
-507.31554898
 31
0.0
  0
LINE
  5
35C
100
AcDbEntity
  8
Sc.1_5
 62
     9
  6
CONTINUOUS
370
    -2
100
AcDbLine
 10
1762.48738713
 20
-508.4165998
 30
0.0
 11
1762.19375419
 21
-507.31555574
 31
0.0
  0
LINE
  5
35D
100
AcDbEntity
  8
Sc.1_5
 62
     9
  6
CONTINUOUS
370
    -2
100
AcDbLine
 10
1677.19377818
 20
-513.26700977
 30
0.0
 11
1678.78099773
 21
-507.31538098
 31
0.0
  0
LINE
  5
35E
100
AcDbEntity
  8
Sc.1_5
 62
     9
  6
CONTINUOUS
370
    -2
100
AcDbLine
 10
1680.52711052
 20
-513.2670051
 30
0.0
 11
1682.11433007
 21
-507.31537631
 31
0.0
  0
LINE
  5
35F
100
AcDbEntity
  8
Sc.1_5
 62
     9
  6
CONTINUOUS
370
    -2
100
AcDbLine
 10
1683.86044286
 20
-513.26700042
 30
0.0
 11
1685.4476624
 21
-507.31537163
 31
0.0
  0
LINE
  5
360
100
AcDbEntity
  8
Sc.1_5
 62
     9
  6
CONTINUOUS
370
    -2
100
AcDbLine
 10
1687.1937752
 20
-513.26699575
 30
0.0
 11
1688.78099474
 21
-507.31536696
 31
0.0
  0
LINE
  5
361
100
AcDbEntity
  8
Sc.1_5
 62
     9
  6
CONTINUOUS
370
    -2
100
AcDbLine
 10
1690.52710753
 20
-513.26699108
 30
0.0
 11
1692.11432708
 21
-507.31536229
 31
0.0
  0
LINE
  5
362
100
AcDbEntity
  8
Sc.1_5
 62
     9
  6
CONTINUOUS
370
    -2
100
AcDbLine
 10
1693.86043987
 20
-513.26698641
 30
0.0
 11
1695.44765942
 21
-507.31535762
 31
0.0
  0
LINE
  5
363
100
AcDbEntity
  8
Sc.1_5
 62
     9
  6
CONTINUOUS
370
    -2
100
AcDbLine
 10
1697.19377221
 20
-513.26698173
 30
0.0
 11
1698.78099175
 21
-507.31535294
 31
0.0
  0
LINE
  5
364
100
AcDbEntity
  8
Sc.1_5
 62
     9
  6
CONTINUOUS
370
    -2
100
AcDbLine
 10
1700.52710454
 20
-513.26697706
 30
0.0
 11
1702.11432409
 21
-507.31534827
 31
0.0
  0
LINE
  5
365
100
AcDbEntity
  8
Sc.1_5
 62
     9
  6
CONTINUOUS
370
    -2
100
AcDbLine
 10
1703.86043688
 20
-513.26697239
 30
0.0
 11
1705.44765643
 21
-507.3153436
 31
0.0
  0
LINE
  5
366
100
AcDbEntity
  8
Sc.1_5
 62
     9
  6
CONTINUOUS
370
    -2
100
AcDbLine
 10
1707.19376922
 20
-513.26696772
 30
0.0
 11
1708.78098876
 21
-507.31533893
 31
0.0
  0
LINE
  5
367
100
AcDbEntity
  8
Sc.1_5
 62
     9
  6
CONTINUOUS
370
    -2
100
AcDbLine
 10
1710.52710155
 20
-513.26696304
 30
0.0
 11
1712.1143211
 21
-507.31533425
 31
0.0
  0
LINE
  5
368
100
AcDbEntity
  8
Sc.1_5
 62
     9
  6
CONTINUOUS
370
    -2
100
AcDbLine
 10
1713.86043389
 20
-513.26695837
 30
0.0
 11
1715.44765344
 21
-507.31532958
 31
0.0
  0
LINE
  5
369
100
AcDbEntity
  8
Sc.1_5
 62
     9
  6
CONTINUOUS
370
    -2
100
AcDbLine
 10
1717.19376623
 20
-513.2669537
 30
0.0
 11
1718.78098577
 21
-507.31532491
 31
0.0
  0
LINE
  5
36A
100
AcDbEntity
  8
Sc.1_5
 62
     9
  6
CONTINUOUS
370
    -2
100
AcDbLine
 10
1720.52709857
 20
-513.26694903
 30
0.0
 11
1722.11431811
 21
-507.31532023
 31
0.0
  0
LINE
  5
36B
100
AcDbEntity
  8
Sc.1_5
 62
     9
  6
CONTINUOUS
370
    -2
100
AcDbLine
 10
1723.8604309
 20
-513.26694435
 30
0.0
 11
1725.44765045
 21
-507.31531556
 31
0.0
  0
LINE
  5
36C
100
AcDbEntity
  8
Sc.1_5
 62
     9
  6
CONTINUOUS
370
    -2
100
AcDbLine
 10
1727.19376324
 20
-513.26693968
 30
0.0
 11
1728.78098279
 21
-507.31531089
 31
0.0
  0
LINE
  5
36D
100
AcDbEntity
  8
Sc.1_5
 62
     9
  6
CONTINUOUS
370
    -2
100
AcDbLine
 10
1730.52709558
 20
-513.26693501
 30
0.0
 11
1732.11431512
 21
-507.31530622
 31
0.0
  0
LINE
  5
36E
100
AcDbEntity
  8
Sc.1_5
 62
     9
  6
CONTINUOUS
370
    -2
100
AcDbLine
 10
1733.86042791
 20
-513.26693033
 30
0.0
 11
1735.44764746
 21
-507.31530154
 31
0.0
  0
LINE
  5
36F
100
AcDbEntity
  8
Sc.1_5
 62
     9
  6
CONTINUOUS
370
    -2
100
AcDbLine
 10
1737.19376025
 20
-513.26692566
 30
0.0
 11
1738.7809798
 21
-507.31529687
 31
0.0
  0
LINE
  5
370
100
AcDbEntity
  8
Sc.1_5
 62
     9
  6
CONTINUOUS
370
    -2
100
AcDbLine
 10
1740.52709259
 20
-513.26692099
 30
0.0
 11
1742.11431213
 21
-507.3152922
 31
0.0
  0
LINE
  5
371
100
AcDbEntity
  8
Sc.1_5
 62
     9
  6
CONTINUOUS
370
    -2
100
AcDbLine
 10
1743.86042492
 20
-513.26691632
 30
0.0
 11
1745.44764447
 21
-507.31528753
 31
0.0
  0
LINE
  5
372
100
AcDbEntity
  8
Sc.1_5
 62
     9
  6
CONTINUOUS
370
    -2
100
AcDbLine
 10
1747.19375726
 20
-513.26691164
 30
0.0
 11
1748.78097681
 21
-507.31528285
 31
0.0
  0
LINE
  5
373
100
AcDbEntity
  8
Sc.1_5
 62
     9
  6
CONTINUOUS
370
    -2
100
AcDbLine
 10
1750.5270896
 20
-513.26690697
 30
0.0
 11
1752.11430914
 21
-507.31527818
 31
0.0
  0
LINE
  5
374
100
AcDbEntity
  8
Sc.1_5
 62
     9
  6
CONTINUOUS
370
    -2
100
AcDbLine
 10
1753.86042194
 20
-513.2669023
 30
0.0
 11
1755.44764148
 21
-507.31527351
 31
0.0
  0
LINE
  5
375
100
AcDbEntity
  8
Sc.1_5
 62
     9
  6
CONTINUOUS
370
    -2
100
AcDbLine
 10
1757.19375427
 20
-513.26689763
 30
0.0
 11
1758.78097382
 21
-507.31526884
 31
0.0
  0
LINE
  5
376
100
AcDbEntity
  8
Sc.1_5
 62
     9
  6
CONTINUOUS
370
    -2
100
AcDbLine
 10
1760.52708661
 20
-513.26689295
 30
0.0
 11
1762.11430616
 21
-507.31526416
 31
0.0
  0
LINE
  5
377
100
AcDbEntity
  8
Sc.1_5
 62
     9
  6
CONTINUOUS
370
    -2
100
AcDbLine
 10
1675.71058357
 20
-515.29119425
 30
0.0
 11
1676.14766116
 21
-515.17199141
 31
0.0
  0
LINE
  5
378
100
AcDbEntity
  8
Sc.1_5
 62
     9
  6
CONTINUOUS
370
    -2
100
AcDbLine
 10
1679.04391681
 20
-515.29119529
 30
0.0
 11
1679.48099407
 21
-515.17199254
 31
0.0
  0
LINE
  5
379
100
AcDbEntity
  8
Sc.1_5
 62
     9
  6
CONTINUOUS
370
    -2
100
AcDbLine
 10
1682.37725005
 20
-515.29119634
 30
0.0
 11
1682.81432698
 21
-515.17199368
 31
0.0
  0
LINE
  5
37A
100
AcDbEntity
  8
Sc.1_5
 62
     9
  6
CONTINUOUS
370
    -2
100
AcDbLine
 10
1685.71058329
 20
-515.29119738
 30
0.0
 11
1686.14765989
 21
-515.17199481
 31
0.0
  0
LINE
  5
37B
100
AcDbEntity
  8
Sc.1_5
 62
     9
  6
CONTINUOUS
370
    -2
100
AcDbLine
 10
1689.04391653
 20
-515.29119842
 30
0.0
 11
1689.4809928
 21
-515.17199594
 31
0.0
  0
LINE
  5
37C
100
AcDbEntity
  8
Sc.1_5
 62
     9
  6
CONTINUOUS
370
    -2
100
AcDbLine
 10
1692.37724976
 20
-515.29119947
 30
0.0
 11
1692.81432572
 21
-515.17199708
 31
0.0
  0
LINE
  5
37D
100
AcDbEntity
  8
Sc.1_5
 62
     9
  6
CONTINUOUS
370
    -2
100
AcDbLine
 10
1695.710583
 20
-515.29120051
 30
0.0
 11
1696.14765863
 21
-515.17199821
 31
0.0
  0
LINE
  5
37E
100
AcDbEntity
  8
Sc.1_5
 62
     9
  6
CONTINUOUS
370
    -2
100
AcDbLine
 10
1699.04391624
 20
-515.29120156
 30
0.0
 11
1699.48099154
 21
-515.17199934
 31
0.0
  0
LINE
  5
37F
100
AcDbEntity
  8
Sc.1_5
 62
     9
  6
CONTINUOUS
370
    -2
100
AcDbLine
 10
1702.37724948
 20
-515.2912026
 30
0.0
 11
1702.81432445
 21
-515.17200048
 31
0.0
  0
LINE
  5
380
100
AcDbEntity
  8
Sc.1_5
 62
     9
  6
CONTINUOUS
370
    -2
100
AcDbLine
 10
1705.71058272
 20
-515.29120364
 30
0.0
 11
1706.14765736
 21
-515.17200161
 31
0.0
  0
LINE
  5
381
100
AcDbEntity
  8
Sc.1_5
 62
     9
  6
CONTINUOUS
370
    -2
100
AcDbLine
 10
1709.04391596
 20
-515.29120469
 30
0.0
 11
1709.48099027
 21
-515.17200275
 31
0.0
  0
LINE
  5
382
100
AcDbEntity
  8
Sc.1_5
 62
     9
  6
CONTINUOUS
370
    -2
100
AcDbLine
 10
1712.37724919
 20
-515.29120573
 30
0.0
 11
1712.81432318
 21
-515.17200388
 31
0.0
  0
LINE
  5
383
100
AcDbEntity
  8
Sc.1_5
 62
     9
  6
CONTINUOUS
370
    -2
100
AcDbLine
 10
1715.71058243
 20
-515.29120678
 30
0.0
 11
1716.14765609
 21
-515.17200501
 31
0.0
  0
LINE
  5
384
100
AcDbEntity
  8
Sc.1_5
 62
     9
  6
CONTINUOUS
370
    -2
100
AcDbLine
 10
1719.04391567
 20
-515.29120782
 30
0.0
 11
1719.480989
 21
-515.17200615
 31
0.0
  0
LINE
  5
385
100
AcDbEntity
  8
Sc.1_5
 62
     9
  6
CONTINUOUS
370
    -2
100
AcDbLine
 10
1722.37724891
 20
-515.29120887
 30
0.0
 11
1722.81432191
 21
-515.17200728
 31
0.0
  0
LINE
  5
386
100
AcDbEntity
  8
Sc.1_5
 62
     9
  6
CONTINUOUS
370
    -2
100
AcDbLine
 10
1725.71058215
 20
-515.29120991
 30
0.0
 11
1726.14765482
 21
-515.17200841
 31
0.0
  0
LINE
  5
387
100
AcDbEntity
  8
Sc.1_5
 62
     9
  6
CONTINUOUS
370
    -2
100
AcDbLine
 10
1729.04391539
 20
-515.29121095
 30
0.0
 11
1729.48098773
 21
-515.17200955
 31
0.0
  0
LINE
  5
388
100
AcDbEntity
  8
Sc.1_5
 62
     9
  6
CONTINUOUS
370
    -2
100
AcDbLine
 10
1732.37724862
 20
-515.291212
 30
0.0
 11
1732.81432065
 21
-515.17201068
 31
0.0
  0
LINE
  5
389
100
AcDbEntity
  8
Sc.1_5
 62
     9
  6
CONTINUOUS
370
    -2
100
AcDbLine
 10
1735.71058186
 20
-515.29121304
 30
0.0
 11
1736.14765356
 21
-515.17201181
 31
0.0
  0
LINE
  5
38A
100
AcDbEntity
  8
Sc.1_5
 62
     9
  6
CONTINUOUS
370
    -2
100
AcDbLine
 10
1739.0439151
 20
-515.29121409
 30
0.0
 11
1739.48098647
 21
-515.17201295
 31
0.0
  0
LINE
  5
38B
100
AcDbEntity
  8
Sc.1_5
 62
     9
  6
CONTINUOUS
370
    -2
100
AcDbLine
 10
1742.37724834
 20
-515.29121513
 30
0.0
 11
1742.81431938
 21
-515.17201408
 31
0.0
  0
LINE
  5
38C
100
AcDbEntity
  8
Sc.1_5
 62
     9
  6
CONTINUOUS
370
    -2
100
AcDbLine
 10
1745.71058158
 20
-515.29121617
 30
0.0
 11
1746.14765229
 21
-515.17201521
 31
0.0
  0
LINE
  5
38D
100
AcDbEntity
  8
Sc.1_5
 62
     9
  6
CONTINUOUS
370
    -2
100
AcDbLine
 10
1749.04391482
 20
-515.29121722
 30
0.0
 11
1749.4809852
 21
-515.17201635
 31
0.0
  0
LINE
  5
38E
100
AcDbEntity
  8
Sc.1_5
 62
     9
  6
CONTINUOUS
370
    -2
100
AcDbLine
 10
1752.37724806
 20
-515.29121826
 30
0.0
 11
1752.81431811
 21
-515.17201748
 31
0.0
  0
LINE
  5
38F
100
AcDbEntity
  8
Sc.1_5
 62
     9
  6
CONTINUOUS
370
    -2
100
AcDbLine
 10
1755.71058129
 20
-515.29121931
 30
0.0
 11
1756.14765102
 21
-515.17201861
 31
0.0
  0
LINE
  5
390
100
AcDbEntity
  8
Sc.1_5
 62
     9
  6
CONTINUOUS
370
    -2
100
AcDbLine
 10
1759.04391453
 20
-515.29122035
 30
0.0
 11
1759.48098393
 21
-515.17201975
 31
0.0
  0
LINE
  5
391
100
AcDbEntity
  8
Sc.1_5
 62
     9
  6
CONTINUOUS
370
    -2
100
AcDbLine
 10
1762.37724777
 20
-515.29122139
 30
0.0
 11
1762.48738721
 21
-515.2611834
 31
0.0
  0
LINE
  5
392
100
AcDbEntity
  8
Sc.1_5
 62
     9
  6
CONTINUOUS
370
    -2
100
AcDbLine
 10
1678.59752249
 20
-515.29119462
 30
0.0
 11
1678.16044495
 21
-515.17199157
 31
0.0
  0
LINE
  5
393
100
AcDbEntity
  8
Sc.1_5
 62
     9
  6
CONTINUOUS
370
    -2
100
AcDbLine
 10
1681.9308554
 20
-515.29119513
 30
0.0
 11
1681.49377787
 21
-515.17199208
 31
0.0
  0
LINE
  5
394
100
AcDbEntity
  8
Sc.1_5
 62
     9
  6
CONTINUOUS
370
    -2
100
AcDbLine
 10
1685.26418831
 20
-515.29119564
 30
0.0
 11
1684.82711078
 21
-515.17199259
 31
0.0
  0
LINE
  5
395
100
AcDbEntity
  8
Sc.1_5
 62
     9
  6
CONTINUOUS
370
    -2
100
AcDbLine
 10
1688.59752122
 20
-515.29119615
 30
0.0
 11
1688.16044369
 21
-515.1719931
 31
0.0
  0
LINE
  5
396
100
AcDbEntity
  8
Sc.1_5
 62
     9
  6
CONTINUOUS
370
    -2
100
AcDbLine
 10
1691.93085413
 20
-515.29119666
 30
0.0
 11
1691.4937766
 21
-515.17199361
 31
0.0
  0
LINE
  5
397
100
AcDbEntity
  8
Sc.1_5
 62
     9
  6
CONTINUOUS
370
    -2
100
AcDbLine
 10
1695.26418704
 20
-515.29119717
 30
0.0
 11
1694.82710951
 21
-515.17199412
 31
0.0
  0
LINE
  5
398
100
AcDbEntity
  8
Sc.1_5
 62
     9
  6
CONTINUOUS
370
    -2
100
AcDbLine
 10
1698.59751995
 20
-515.29119768
 30
0.0
 11
1698.16044242
 21
-515.17199463
 31
0.0
  0
LINE
  5
399
100
AcDbEntity
  8
Sc.1_5
 62
     9
  6
CONTINUOUS
370
    -2
100
AcDbLine
 10
1701.93085286
 20
-515.29119819
 30
0.0
 11
1701.49377533
 21
-515.17199514
 31
0.0
  0
LINE
  5
39A
100
AcDbEntity
  8
Sc.1_5
 62
     9
  6
CONTINUOUS
370
    -2
100
AcDbLine
 10
1705.26418577
 20
-515.29119871
 30
0.0
 11
1704.82710824
 21
-515.17199565
 31
0.0
  0
LINE
  5
39B
100
AcDbEntity
  8
Sc.1_5
 62
     9
  6
CONTINUOUS
370
    -2
100
AcDbLine
 10
1708.59751868
 20
-515.29119922
 30
0.0
 11
1708.16044115
 21
-515.17199616
 31
0.0
  0
LINE
  5
39C
100
AcDbEntity
  8
Sc.1_5
 62
     9
  6
CONTINUOUS
370
    -2
100
AcDbLine
 10
1711.93085159
 20
-515.29119973
 30
0.0
 11
1711.49377406
 21
-515.17199667
 31
0.0
  0
LINE
  5
39D
100
AcDbEntity
  8
Sc.1_5
 62
     9
  6
CONTINUOUS
370
    -2
100
AcDbLine
 10
1715.2641845
 20
-515.29120024
 30
0.0
 11
1714.82710697
 21
-515.17199719
 31
0.0
  0
LINE
  5
39E
100
AcDbEntity
  8
Sc.1_5
 62
     9
  6
CONTINUOUS
370
    -2
100
AcDbLine
 10
1718.59751742
 20
-515.29120075
 30
0.0
 11
1718.16043988
 21
-515.1719977
 31
0.0
  0
LINE
  5
39F
100
AcDbEntity
  8
Sc.1_5
 62
     9
  6
CONTINUOUS
370
    -2
100
AcDbLine
 10
1721.93085033
 20
-515.29120126
 30
0.0
 11
1721.49377279
 21
-515.17199821
 31
0.0
  0
LINE
  5
3A0
100
AcDbEntity
  8
Sc.1_5
 62
     9
  6
CONTINUOUS
370
    -2
100
AcDbLine
 10
1725.26418324
 20
-515.29120177
 30
0.0
 11
1724.82710571
 21
-515.17199872
 31
0.0
  0
LINE
  5
3A1
100
AcDbEntity
  8
Sc.1_5
 62
     9
  6
CONTINUOUS
370
    -2
100
AcDbLine
 10
1728.59751615
 20
-515.29120228
 30
0.0
 11
1728.16043862
 21
-515.17199923
 31
0.0
  0
LINE
  5
3A2
100
AcDbEntity
  8
Sc.1_5
 62
     9
  6
CONTINUOUS
370
    -2
100
AcDbLine
 10
1731.93084906
 20
-515.29120279
 30
0.0
 11
1731.49377153
 21
-515.17199974
 31
0.0
  0
LINE
  5
3A3
100
AcDbEntity
  8
Sc.1_5
 62
     9
  6
CONTINUOUS
370
    -2
100
AcDbLine
 10
1735.26418197
 20
-515.2912033
 30
0.0
 11
1734.82710444
 21
-515.17200025
 31
0.0
  0
LINE
  5
3A4
100
AcDbEntity
  8
Sc.1_5
 62
     9
  6
CONTINUOUS
370
    -2
100
AcDbLine
 10
1738.59751488
 20
-515.29120381
 30
0.0
 11
1738.16043735
 21
-515.17200076
 31
0.0
  0
LINE
  5
3A5
100
AcDbEntity
  8
Sc.1_5
 62
     9
  6
CONTINUOUS
370
    -2
100
AcDbLine
 10
1741.93084779
 20
-515.29120433
 30
0.0
 11
1741.49377026
 21
-515.17200127
 31
0.0
  0
LINE
  5
3A6
100
AcDbEntity
  8
Sc.1_5
 62
     9
  6
CONTINUOUS
370
    -2
100
AcDbLine
 10
1745.2641807
 20
-515.29120484
 30
0.0
 11
1744.82710317
 21
-515.17200178
 31
0.0
  0
LINE
  5
3A7
100
AcDbEntity
  8
Sc.1_5
 62
     9
  6
CONTINUOUS
370
    -2
100
AcDbLine
 10
1748.59751361
 20
-515.29120535
 30
0.0
 11
1748.16043608
 21
-515.17200229
 31
0.0
  0
LINE
  5
3A8
100
AcDbEntity
  8
Sc.1_5
 62
     9
  6
CONTINUOUS
370
    -2
100
AcDbLine
 10
1751.93084652
 20
-515.29120586
 30
0.0
 11
1751.49376899
 21
-515.17200281
 31
0.0
  0
LINE
  5
3A9
100
AcDbEntity
  8
Sc.1_5
 62
     9
  6
CONTINUOUS
370
    -2
100
AcDbLine
 10
1755.26417943
 20
-515.29120637
 30
0.0
 11
1754.8271019
 21
-515.17200332
 31
0.0
  0
LINE
  5
3AA
100
AcDbEntity
  8
Sc.1_5
 62
     9
  6
CONTINUOUS
370
    -2
100
AcDbLine
 10
1758.59751234
 20
-515.29120688
 30
0.0
 11
1758.16043481
 21
-515.17200383
 31
0.0
  0
LINE
  5
3AB
100
AcDbEntity
  8
Sc.1_5
 62
     9
  6
CONTINUOUS
370
    -2
100
AcDbLine
 10
1761.93084526
 20
-515.29120739
 30
0.0
 11
1761.49376772
 21
-515.17200434
 31
0.0
  0
LINE
  5
3AC
100
AcDbEntity
  8
Sc.1_5
 62
     9
  6
CONTINUOUS
370
    -2
100
AcDbLine
 10
1676.49378167
 20
-505.41039711
 30
0.0
 11
1676.93075968
 21
-505.29122143
 31
0.0
  0
LINE
  5
3AD
100
AcDbEntity
  8
Sc.1_5
 62
     9
  6
CONTINUOUS
370
    -2
100
AcDbLine
 10
1679.82711458
 20
-505.41039824
 30
0.0
 11
1680.26409674
 21
-505.29122143
 31
0.0
  0
LINE
  5
3AE
100
AcDbEntity
  8
Sc.1_5
 62
     9
  6
CONTINUOUS
370
    -2
100
AcDbLine
 10
1683.16044749
 20
-505.41039937
 30
0.0
 11
1683.59743381
 21
-505.29122143
 31
0.0
  0
LINE
  5
3AF
100
AcDbEntity
  8
Sc.1_5
 62
     9
  6
CONTINUOUS
370
    -2
100
AcDbLine
 10
1686.4937804
 20
-505.41040051
 30
0.0
 11
1686.93077088
 21
-505.29122143
 31
0.0
  0
LINE
  5
3B0
100
AcDbEntity
  8
Sc.1_5
 62
     9
  6
CONTINUOUS
370
    -2
100
AcDbLine
 10
1689.82711331
 20
-505.41040164
 30
0.0
 11
1690.26410794
 21
-505.29122143
 31
0.0
  0
LINE
  5
3B1
100
AcDbEntity
  8
Sc.1_5
 62
     9
  6
CONTINUOUS
370
    -2
100
AcDbLine
 10
1693.16044622
 20
-505.41040277
 30
0.0
 11
1693.59744501
 21
-505.29122143
 31
0.0
  0
LINE
  5
3B2
100
AcDbEntity
  8
Sc.1_5
 62
     9
  6
CONTINUOUS
370
    -2
100
AcDbLine
 10
1696.49377914
 20
-505.41040391
 30
0.0
 11
1696.93078208
 21
-505.29122143
 31
0.0
  0
LINE
  5
3B3
100
AcDbEntity
  8
Sc.1_5
 62
     9
  6
CONTINUOUS
370
    -2
100
AcDbLine
 10
1699.82711205
 20
-505.41040504
 30
0.0
 11
1700.26411914
 21
-505.29122143
 31
0.0
  0
LINE
  5
3B4
100
AcDbEntity
  8
Sc.1_5
 62
     9
  6
CONTINUOUS
370
    -2
100
AcDbLine
 10
1703.16044496
 20
-505.41040617
 30
0.0
 11
1703.59745621
 21
-505.29122143
 31
0.0
  0
LINE
  5
3B5
100
AcDbEntity
  8
Sc.1_5
 62
     9
  6
CONTINUOUS
370
    -2
100
AcDbLine
 10
1706.49377787
 20
-505.41040731
 30
0.0
 11
1706.93079328
 21
-505.29122143
 31
0.0
  0
LINE
  5
3B6
100
AcDbEntity
  8
Sc.1_5
 62
     9
  6
CONTINUOUS
370
    -2
100
AcDbLine
 10
1709.82711078
 20
-505.41040844
 30
0.0
 11
1710.26413034
 21
-505.29122143
 31
0.0
  0
LINE
  5
3B7
100
AcDbEntity
  8
Sc.1_5
 62
     9
  6
CONTINUOUS
370
    -2
100
AcDbLine
 10
1713.16044369
 20
-505.41040957
 30
0.0
 11
1713.59746741
 21
-505.29122143
 31
0.0
  0
LINE
  5
3B8
100
AcDbEntity
  8
Sc.1_5
 62
     9
  6
CONTINUOUS
370
    -2
100
AcDbLine
 10
1716.4937766
 20
-505.41041071
 30
0.0
 11
1716.93080448
 21
-505.29122143
 31
0.0
  0
LINE
  5
3B9
100
AcDbEntity
  8
Sc.1_5
 62
     9
  6
CONTINUOUS
370
    -2
100
AcDbLine
 10
1719.82710951
 20
-505.41041184
 30
0.0
 11
1720.26414155
 21
-505.29122143
 31
0.0
  0
LINE
  5
3BA
100
AcDbEntity
  8
Sc.1_5
 62
     9
  6
CONTINUOUS
370
    -2
100
AcDbLine
 10
1723.16044242
 20
-505.41041298
 30
0.0
 11
1723.59747861
 21
-505.29122143
 31
0.0
  0
LINE
  5
3BB
100
AcDbEntity
  8
Sc.1_5
 62
     9
  6
CONTINUOUS
370
    -2
100
AcDbLine
 10
1726.49377533
 20
-505.41041411
 30
0.0
 11
1726.93081568
 21
-505.29122143
 31
0.0
  0
LINE
  5
3BC
100
AcDbEntity
  8
Sc.1_5
 62
     9
  6
CONTINUOUS
370
    -2
100
AcDbLine
 10
1729.82710824
 20
-505.41041524
 30
0.0
 11
1730.26415275
 21
-505.29122143
 31
0.0
  0
LINE
  5
3BD
100
AcDbEntity
  8
Sc.1_5
 62
     9
  6
CONTINUOUS
370
    -2
100
AcDbLine
 10
1733.16044115
 20
-505.41041638
 30
0.0
 11
1733.59748981
 21
-505.29122143
 31
0.0
  0
LINE
  5
3BE
100
AcDbEntity
  8
Sc.1_5
 62
     9
  6
CONTINUOUS
370
    -2
100
AcDbLine
 10
1736.49377406
 20
-505.41041751
 30
0.0
 11
1736.93082688
 21
-505.29122143
 31
0.0
  0
LINE
  5
3BF
100
AcDbEntity
  8
Sc.1_5
 62
     9
  6
CONTINUOUS
370
    -2
100
AcDbLine
 10
1739.82710698
 20
-505.41041864
 30
0.0
 11
1740.26416395
 21
-505.29122143
 31
0.0
  0
LINE
  5
3C0
100
AcDbEntity
  8
Sc.1_5
 62
     9
  6
CONTINUOUS
370
    -2
100
AcDbLine
 10
1743.16043989
 20
-505.41041978
 30
0.0
 11
1743.59750101
 21
-505.29122143
 31
0.0
  0
LINE
  5
3C1
100
AcDbEntity
  8
Sc.1_5
 62
     9
  6
CONTINUOUS
370
    -2
100
AcDbLine
 10
1746.4937728
 20
-505.41042091
 30
0.0
 11
1746.93083808
 21
-505.29122143
 31
0.0
  0
LINE
  5
3C2
100
AcDbEntity
  8
Sc.1_5
 62
     9
  6
CONTINUOUS
370
    -2
100
AcDbLine
 10
1749.82710571
 20
-505.41042204
 30
0.0
 11
1750.26417515
 21
-505.29122143
 31
0.0
  0
LINE
  5
3C3
100
AcDbEntity
  8
Sc.1_5
 62
     9
  6
CONTINUOUS
370
    -2
100
AcDbLine
 10
1753.16043862
 20
-505.41042318
 30
0.0
 11
1753.59751221
 21
-505.29122143
 31
0.0
  0
LINE
  5
3C4
100
AcDbEntity
  8
Sc.1_5
 62
     9
  6
CONTINUOUS
370
    -2
100
AcDbLine
 10
1756.49377153
 20
-505.41042431
 30
0.0
 11
1756.93084912
 21
-505.29122147
 31
0.0
  0
LINE
  5
3C5
100
AcDbEntity
  8
Sc.1_5
 62
     9
  6
CONTINUOUS
370
    -2
100
AcDbLine
 10
1759.82710444
 20
-505.41042544
 30
0.0
 11
1760.26418203
 21
-505.29122261
 31
0.0
  0
LINE
  5
3C6
100
AcDbEntity
  8
Sc.1_5
 62
     9
  6
CONTINUOUS
370
    -2
100
AcDbLine
 10
1760.71058572
 20
-505.29122143
 30
0.0
 11
1761.14765301
 21
-505.41042175
 31
0.0
  0
LINE
  5
3C7
100
AcDbEntity
  8
Sc.1_5
 62
     9
  6
CONTINUOUS
370
    -2
100
AcDbLine
 10
1757.37725631
 20
-505.29122143
 30
0.0
 11
1757.81432009
 21
-505.41042079
 31
0.0
  0
LINE
  5
3C8
100
AcDbEntity
  8
Sc.1_5
 62
     9
  6
CONTINUOUS
370
    -2
100
AcDbLine
 10
1754.0439269
 20
-505.29122143
 30
0.0
 11
1754.48098718
 21
-505.41041984
 31
0.0
  0
LINE
  5
3C9
100
AcDbEntity
  8
Sc.1_5
 62
     9
  6
CONTINUOUS
370
    -2
100
AcDbLine
 10
1750.71059749
 20
-505.29122143
 30
0.0
 11
1751.14765427
 21
-505.41041889
 31
0.0
  0
LINE
  5
3CA
100
AcDbEntity
  8
Sc.1_5
 62
     9
  6
CONTINUOUS
370
    -2
100
AcDbLine
 10
1747.37726808
 20
-505.29122143
 30
0.0
 11
1747.81432136
 21
-505.41041793
 31
0.0
  0
LINE
  5
3CB
100
AcDbEntity
  8
Sc.1_5
 62
     9
  6
CONTINUOUS
370
    -2
100
AcDbLine
 10
1744.04393867
 20
-505.29122143
 30
0.0
 11
1744.48098845
 21
-505.41041698
 31
0.0
  0
LINE
  5
3CC
100
AcDbEntity
  8
Sc.1_5
 62
     9
  6
CONTINUOUS
370
    -2
100
AcDbLine
 10
1740.71060926
 20
-505.29122143
 30
0.0
 11
1741.14765554
 21
-505.41041602
 31
0.0
  0
LINE
  5
3CD
100
AcDbEntity
  8
Sc.1_5
 62
     9
  6
CONTINUOUS
370
    -2
100
AcDbLine
 10
1737.37727985
 20
-505.29122143
 30
0.0
 11
1737.81432263
 21
-505.41041507
 31
0.0
  0
LINE
  5
3CE
100
AcDbEntity
  8
Sc.1_5
 62
     9
  6
CONTINUOUS
370
    -2
100
AcDbLine
 10
1734.04395044
 20
-505.29122143
 30
0.0
 11
1734.48098972
 21
-505.41041411
 31
0.0
  0
LINE
  5
3CF
100
AcDbEntity
  8
Sc.1_5
 62
     9
  6
CONTINUOUS
370
    -2
100
AcDbLine
 10
1730.71062103
 20
-505.29122143
 30
0.0
 11
1731.14765681
 21
-505.41041316
 31
0.0
  0
LINE
  5
3D0
100
AcDbEntity
  8
Sc.1_5
 62
     9
  6
CONTINUOUS
370
    -2
100
AcDbLine
 10
1727.37729162
 20
-505.29122143
 30
0.0
 11
1727.8143239
 21
-505.4104122
 31
0.0
  0
LINE
  5
3D1
100
AcDbEntity
  8
Sc.1_5
 62
     9
  6
CONTINUOUS
370
    -2
100
AcDbLine
 10
1724.04396221
 20
-505.29122143
 30
0.0
 11
1724.48099099
 21
-505.41041125
 31
0.0
  0
LINE
  5
3D2
100
AcDbEntity
  8
Sc.1_5
 62
     9
  6
CONTINUOUS
370
    -2
100
AcDbLine
 10
1720.7106328
 20
-505.29122143
 30
0.0
 11
1721.14765808
 21
-505.41041029
 31
0.0
  0
LINE
  5
3D3
100
AcDbEntity
  8
Sc.1_5
 62
     9
  6
CONTINUOUS
370
    -2
100
AcDbLine
 10
1717.37730339
 20
-505.29122143
 30
0.0
 11
1717.81432516
 21
-505.41040934
 31
0.0
  0
LINE
  5
3D4
100
AcDbEntity
  8
Sc.1_5
 62
     9
  6
CONTINUOUS
370
    -2
100
AcDbLine
 10
1714.04397398
 20
-505.29122143
 30
0.0
 11
1714.48099225
 21
-505.41040838
 31
0.0
  0
LINE
  5
3D5
100
AcDbEntity
  8
Sc.1_5
 62
     9
  6
CONTINUOUS
370
    -2
100
AcDbLine
 10
1710.71064457
 20
-505.29122143
 30
0.0
 11
1711.14765934
 21
-505.41040743
 31
0.0
  0
LINE
  5
3D6
100
AcDbEntity
  8
Sc.1_5
 62
     9
  6
CONTINUOUS
370
    -2
100
AcDbLine
 10
1707.37731516
 20
-505.29122143
 30
0.0
 11
1707.81432643
 21
-505.41040647
 31
0.0
  0
LINE
  5
3D7
100
AcDbEntity
  8
Sc.1_5
 62
     9
  6
CONTINUOUS
370
    -2
100
AcDbLine
 10
1704.04398575
 20
-505.29122143
 30
0.0
 11
1704.48099352
 21
-505.41040552
 31
0.0
  0
LINE
  5
3D8
100
AcDbEntity
  8
Sc.1_5
 62
     9
  6
CONTINUOUS
370
    -2
100
AcDbLine
 10
1700.71065634
 20
-505.29122143
 30
0.0
 11
1701.14766061
 21
-505.41040456
 31
0.0
  0
LINE
  5
3D9
100
AcDbEntity
  8
Sc.1_5
 62
     9
  6
CONTINUOUS
370
    -2
100
AcDbLine
 10
1697.37732693
 20
-505.29122143
 30
0.0
 11
1697.8143277
 21
-505.41040361
 31
0.0
  0
LINE
  5
3DA
100
AcDbEntity
  8
Sc.1_5
 62
     9
  6
CONTINUOUS
370
    -2
100
AcDbLine
 10
1694.04399752
 20
-505.29122143
 30
0.0
 11
1694.48099479
 21
-505.41040265
 31
0.0
  0
LINE
  5
3DB
100
AcDbEntity
  8
Sc.1_5
 62
     9
  6
CONTINUOUS
370
    -2
100
AcDbLine
 10
1690.71066811
 20
-505.29122143
 30
0.0
 11
1691.14766188
 21
-505.4104017
 31
0.0
  0
LINE
  5
3DC
100
AcDbEntity
  8
Sc.1_5
 62
     9
  6
CONTINUOUS
370
    -2
100
AcDbLine
 10
1687.3773387
 20
-505.29122143
 30
0.0
 11
1687.81432897
 21
-505.41040074
 31
0.0
  0
LINE
  5
3DD
100
AcDbEntity
  8
Sc.1_5
 62
     9
  6
CONTINUOUS
370
    -2
100
AcDbLine
 10
1684.04400929
 20
-505.29122143
 30
0.0
 11
1684.48099606
 21
-505.41039979
 31
0.0
  0
LINE
  5
3DE
100
AcDbEntity
  8
Sc.1_5
 62
     9
  6
CONTINUOUS
370
    -2
100
AcDbLine
 10
1680.71067988
 20
-505.29122143
 30
0.0
 11
1681.14766315
 21
-505.41039884
 31
0.0
  0
LINE
  5
3DF
100
AcDbEntity
  8
Sc.1_5
 62
     9
  6
CONTINUOUS
370
    -2
100
AcDbLine
 10
1677.37735047
 20
-505.29122143
 30
0.0
 11
1677.81433024
 21
-505.41039788
 31
0.0
  0
LINE
  5
3E0
100
AcDbEntity
  8
Sc.1_5
 62
     9
  6
CONTINUOUS
370
    -2
100
AcDbLine
 10
1676.14766064
 20
-515.17199138
 30
0.0
 11
1676.52087335
 21
-514.94806392
 31
0.0
  0
LINE
  5
3E1
100
AcDbEntity
  8
Sc.1_5
 62
     9
  6
CONTINUOUS
370
    -2
100
AcDbLine
 10
1679.48099423
 20
-515.17199241
 30
0.0
 11
1679.85420694
 21
-514.94806494
 31
0.0
  0
LINE
  5
3E2
100
AcDbEntity
  8
Sc.1_5
 62
     9
  6
CONTINUOUS
370
    -2
100
AcDbLine
 10
1682.81432782
 20
-515.17199343
 30
0.0
 11
1683.18754053
 21
-514.94806596
 31
0.0
  0
LINE
  5
3E3
100
AcDbEntity
  8
Sc.1_5
 62
     9
  6
CONTINUOUS
370
    -2
100
AcDbLine
 10
1686.14766141
 20
-515.17199445
 30
0.0
 11
1686.52087412
 21
-514.94806698
 31
0.0
  0
LINE
  5
3E4
100
AcDbEntity
  8
Sc.1_5
 62
     9
  6
CONTINUOUS
370
    -2
100
AcDbLine
 10
1689.480995
 20
-515.17199547
 30
0.0
 11
1689.85420772
 21
-514.948068
 31
0.0
  0
LINE
  5
3E5
100
AcDbEntity
  8
Sc.1_5
 62
     9
  6
CONTINUOUS
370
    -2
100
AcDbLine
 10
1692.8143286
 20
-515.17199649
 30
0.0
 11
1693.18754131
 21
-514.94806903
 31
0.0
  0
LINE
  5
3E6
100
AcDbEntity
  8
Sc.1_5
 62
     9
  6
CONTINUOUS
370
    -2
100
AcDbLine
 10
1696.14766219
 20
-515.17199751
 30
0.0
 11
1696.5208749
 21
-514.94807005
 31
0.0
  0
LINE
  5
3E7
100
AcDbEntity
  8
Sc.1_5
 62
     9
  6
CONTINUOUS
370
    -2
100
AcDbLine
 10
1699.48099578
 20
-515.17199854
 30
0.0
 11
1699.85420849
 21
-514.94807107
 31
0.0
  0
LINE
  5
3E8
100
AcDbEntity
  8
Sc.1_5
 62
     9
  6
CONTINUOUS
370
    -2
100
AcDbLine
 10
1702.81432937
 20
-515.17199956
 30
0.0
 11
1703.18754208
 21
-514.94807209
 31
0.0
  0
LINE
  5
3E9
100
AcDbEntity
  8
Sc.1_5
 62
     9
  6
CONTINUOUS
370
    -2
100
AcDbLine
 10
1706.14766296
 20
-515.17200058
 30
0.0
 11
1706.52087567
 21
-514.94807311
 31
0.0
  0
LINE
  5
3EA
100
AcDbEntity
  8
Sc.1_5
 62
     9
  6
CONTINUOUS
370
    -2
100
AcDbLine
 10
1709.48099655
 20
-515.1720016
 30
0.0
 11
1709.85420926
 21
-514.94807414
 31
0.0
  0
LINE
  5
3EB
100
AcDbEntity
  8
Sc.1_5
 62
     9
  6
CONTINUOUS
370
    -2
100
AcDbLine
 10
1712.81433014
 20
-515.17200262
 30
0.0
 11
1713.18754286
 21
-514.94807516
 31
0.0
  0
LINE
  5
3EC
100
AcDbEntity
  8
Sc.1_5
 62
     9
  6
CONTINUOUS
370
    -2
100
AcDbLine
 10
1716.14766374
 20
-515.17200365
 30
0.0
 11
1716.52087645
 21
-514.94807618
 31
0.0
  0
LINE
  5
3ED
100
AcDbEntity
  8
Sc.1_5
 62
     9
  6
CONTINUOUS
370
    -2
100
AcDbLine
 10
1719.48099733
 20
-515.17200467
 30
0.0
 11
1719.85421004
 21
-514.9480772
 31
0.0
  0
LINE
  5
3EE
100
AcDbEntity
  8
Sc.1_5
 62
     9
  6
CONTINUOUS
370
    -2
100
AcDbLine
 10
1722.81433092
 20
-515.17200569
 30
0.0
 11
1723.18754363
 21
-514.94807822
 31
0.0
  0
LINE
  5
3EF
100
AcDbEntity
  8
Sc.1_5
 62
     9
  6
CONTINUOUS
370
    -2
100
AcDbLine
 10
1726.14766451
 20
-515.17200671
 30
0.0
 11
1726.52087722
 21
-514.94807925
 31
0.0
  0
LINE
  5
3F0
100
AcDbEntity
  8
Sc.1_5
 62
     9
  6
CONTINUOUS
370
    -2
100
AcDbLine
 10
1729.4809981
 20
-515.17200773
 30
0.0
 11
1729.85421081
 21
-514.94808027
 31
0.0
  0
LINE
  5
3F1
100
AcDbEntity
  8
Sc.1_5
 62
     9
  6
CONTINUOUS
370
    -2
100
AcDbLine
 10
1732.81433169
 20
-515.17200876
 30
0.0
 11
1733.1875444
 21
-514.94808129
 31
0.0
  0
LINE
  5
3F2
100
AcDbEntity
  8
Sc.1_5
 62
     9
  6
CONTINUOUS
370
    -2
100
AcDbLine
 10
1736.14766528
 20
-515.17200978
 30
0.0
 11
1736.520878
 21
-514.94808231
 31
0.0
  0
LINE
  5
3F3
100
AcDbEntity
  8
Sc.1_5
 62
     9
  6
CONTINUOUS
370
    -2
100
AcDbLine
 10
1739.48099888
 20
-515.1720108
 30
0.0
 11
1739.85421159
 21
-514.94808333
 31
0.0
  0
LINE
  5
3F4
100
AcDbEntity
  8
Sc.1_5
 62
     9
  6
CONTINUOUS
370
    -2
100
AcDbLine
 10
1742.81433247
 20
-515.17201182
 30
0.0
 11
1743.18754518
 21
-514.94808435
 31
0.0
  0
LINE
  5
3F5
100
AcDbEntity
  8
Sc.1_5
 62
     9
  6
CONTINUOUS
370
    -2
100
AcDbLine
 10
1746.14766606
 20
-515.17201284
 30
0.0
 11
1746.52087877
 21
-514.94808538
 31
0.0
  0
LINE
  5
3F6
100
AcDbEntity
  8
Sc.1_5
 62
     9
  6
CONTINUOUS
370
    -2
100
AcDbLine
 10
1749.48099965
 20
-515.17201387
 30
0.0
 11
1749.85421236
 21
-514.9480864
 31
0.0
  0
LINE
  5
3F7
100
AcDbEntity
  8
Sc.1_5
 62
     9
  6
CONTINUOUS
370
    -2
100
AcDbLine
 10
1752.81433324
 20
-515.17201489
 30
0.0
 11
1753.18754595
 21
-514.94808742
 31
0.0
  0
LINE
  5
3F8
100
AcDbEntity
  8
Sc.1_5
 62
     9
  6
CONTINUOUS
370
    -2
100
AcDbLine
 10
1756.14766683
 20
-515.17201591
 30
0.0
 11
1756.52087954
 21
-514.94808844
 31
0.0
  0
LINE
  5
3F9
100
AcDbEntity
  8
Sc.1_5
 62
     9
  6
CONTINUOUS
370
    -2
100
AcDbLine
 10
1759.48100042
 20
-515.17201693
 30
0.0
 11
1759.85421314
 21
-514.94808946
 31
0.0
  0
LINE
  5
3FA
100
AcDbEntity
  8
Sc.1_5
 62
     9
  6
CONTINUOUS
370
    -2
100
AcDbLine
 10
1678.15798021
 20
-515.17199226
 30
0.0
 11
1677.78476765
 21
-514.94806453
 31
0.0
  0
LINE
  5
3FB
100
AcDbEntity
  8
Sc.1_5
 62
     9
  6
CONTINUOUS
370
    -2
100
AcDbLine
 10
1681.4913138
 20
-515.17199355
 30
0.0
 11
1681.11810125
 21
-514.94806582
 31
0.0
  0
LINE
  5
3FC
100
AcDbEntity
  8
Sc.1_5
 62
     9
  6
CONTINUOUS
370
    -2
100
AcDbLine
 10
1684.82464739
 20
-515.17199483
 30
0.0
 11
1684.45143484
 21
-514.94806711
 31
0.0
  0
LINE
  5
3FD
100
AcDbEntity
  8
Sc.1_5
 62
     9
  6
CONTINUOUS
370
    -2
100
AcDbLine
 10
1688.15798098
 20
-515.17199612
 30
0.0
 11
1687.78476843
 21
-514.9480684
 31
0.0
  0
LINE
  5
3FE
100
AcDbEntity
  8
Sc.1_5
 62
     9
  6
CONTINUOUS
370
    -2
100
AcDbLine
 10
1691.49131458
 20
-515.17199741
 30
0.0
 11
1691.11810202
 21
-514.94806968
 31
0.0
  0
LINE
  5
3FF
100
AcDbEntity
  8
Sc.1_5
 62
     9
  6
CONTINUOUS
370
    -2
100
AcDbLine
 10
1694.82464817
 20
-515.1719987
 30
0.0
 11
1694.45143561
 21
-514.94807097
 31
0.0
  0
LINE
  5
400
100
AcDbEntity
  8
Sc.1_5
 62
     9
  6
CONTINUOUS
370
    -2
100
AcDbLine
 10
1698.15798176
 20
-515.17199999
 30
0.0
 11
1697.7847692
 21
-514.94807226
 31
0.0
  0
LINE
  5
401
100
AcDbEntity
  8
Sc.1_5
 62
     9
  6
CONTINUOUS
370
    -2
100
AcDbLine
 10
1701.49131535
 20
-515.17200127
 30
0.0
 11
1701.11810279
 21
-514.94807355
 31
0.0
  0
LINE
  5
402
100
AcDbEntity
  8
Sc.1_5
 62
     9
  6
CONTINUOUS
370
    -2
100
AcDbLine
 10
1704.82464894
 20
-515.17200256
 30
0.0
 11
1704.45143639
 21
-514.94807484
 31
0.0
  0
LINE
  5
403
100
AcDbEntity
  8
Sc.1_5
 62
     9
  6
CONTINUOUS
370
    -2
100
AcDbLine
 10
1708.15798253
 20
-515.17200385
 30
0.0
 11
1707.78476998
 21
-514.94807612
 31
0.0
  0
LINE
  5
404
100
AcDbEntity
  8
Sc.1_5
 62
     9
  6
CONTINUOUS
370
    -2
100
AcDbLine
 10
1711.49131612
 20
-515.17200514
 30
0.0
 11
1711.11810357
 21
-514.94807741
 31
0.0
  0
LINE
  5
405
100
AcDbEntity
  8
Sc.1_5
 62
     9
  6
CONTINUOUS
370
    -2
100
AcDbLine
 10
1714.82464972
 20
-515.17200643
 30
0.0
 11
1714.45143716
 21
-514.9480787
 31
0.0
  0
LINE
  5
406
100
AcDbEntity
  8
Sc.1_5
 62
     9
  6
CONTINUOUS
370
    -2
100
AcDbLine
 10
1718.15798331
 20
-515.17200772
 30
0.0
 11
1717.78477075
 21
-514.94807999
 31
0.0
  0
LINE
  5
407
100
AcDbEntity
  8
Sc.1_5
 62
     9
  6
CONTINUOUS
370
    -2
100
AcDbLine
 10
1721.4913169
 20
-515.172009
 30
0.0
 11
1721.11810434
 21
-514.94808128
 31
0.0
  0
LINE
  5
408
100
AcDbEntity
  8
Sc.1_5
 62
     9
  6
CONTINUOUS
370
    -2
100
AcDbLine
 10
1724.82465049
 20
-515.17201029
 30
0.0
 11
1724.45143793
 21
-514.94808257
 31
0.0
  0
LINE
  5
409
100
AcDbEntity
  8
Sc.1_5
 62
     9
  6
CONTINUOUS
370
    -2
100
AcDbLine
 10
1728.15798408
 20
-515.17201158
 30
0.0
 11
1727.78477153
 21
-514.94808385
 31
0.0
  0
LINE
  5
40A
100
AcDbEntity
  8
Sc.1_5
 62
     9
  6
CONTINUOUS
370
    -2
100
AcDbLine
 10
1731.49131767
 20
-515.17201287
 30
0.0
 11
1731.11810512
 21
-514.94808514
 31
0.0
  0
LINE
  5
40B
100
AcDbEntity
  8
Sc.1_5
 62
     9
  6
CONTINUOUS
370
    -2
100
AcDbLine
 10
1734.82465126
 20
-515.17201416
 30
0.0
 11
1734.45143871
 21
-514.94808643
 31
0.0
  0
LINE
  5
40C
100
AcDbEntity
  8
Sc.1_5
 62
     9
  6
CONTINUOUS
370
    -2
100
AcDbLine
 10
1738.15798486
 20
-515.17201544
 30
0.0
 11
1737.7847723
 21
-514.94808772
 31
0.0
  0
LINE
  5
40D
100
AcDbEntity
  8
Sc.1_5
 62
     9
  6
CONTINUOUS
370
    -2
100
AcDbLine
 10
1741.49131845
 20
-515.17201673
 30
0.0
 11
1741.11810589
 21
-514.94808901
 31
0.0
  0
LINE
  5
40E
100
AcDbEntity
  8
Sc.1_5
 62
     9
  6
CONTINUOUS
370
    -2
100
AcDbLine
 10
1744.82465204
 20
-515.17201802
 30
0.0
 11
1744.45143948
 21
-514.94809029
 31
0.0
  0
LINE
  5
40F
100
AcDbEntity
  8
Sc.1_5
 62
     9
  6
CONTINUOUS
370
    -2
100
AcDbLine
 10
1748.15798563
 20
-515.17201931
 30
0.0
 11
1747.78477307
 21
-514.94809158
 31
0.0
  0
LINE
  5
410
100
AcDbEntity
  8
Sc.1_5
 62
     9
  6
CONTINUOUS
370
    -2
100
AcDbLine
 10
1751.49131922
 20
-515.1720206
 30
0.0
 11
1751.11810667
 21
-514.94809287
 31
0.0
  0
LINE
  5
411
100
AcDbEntity
  8
Sc.1_5
 62
     9
  6
CONTINUOUS
370
    -2
100
AcDbLine
 10
1754.82465281
 20
-515.17202189
 30
0.0
 11
1754.45144026
 21
-514.94809416
 31
0.0
  0
LINE
  5
412
100
AcDbEntity
  8
Sc.1_5
 62
     9
  6
CONTINUOUS
370
    -2
100
AcDbLine
 10
1758.1579864
 20
-515.17202317
 30
0.0
 11
1757.78477385
 21
-514.94809545
 31
0.0
  0
LINE
  5
413
100
AcDbEntity
  8
Sc.1_5
 62
     9
  6
CONTINUOUS
370
    -2
100
AcDbLine
 10
1761.49132
 20
-515.17202446
 30
0.0
 11
1761.11810744
 21
-514.94809674
 31
0.0
  0
LINE
  5
414
100
AcDbEntity
  8
Sc.1_5
 62
     9
  6
CONTINUOUS
370
    -2
100
AcDbLine
 10
1676.12056962
 20
-505.63432544
 30
0.0
 11
1676.49378233
 21
-505.41039797
 31
0.0
  0
LINE
  5
415
100
AcDbEntity
  8
Sc.1_5
 62
     9
  6
CONTINUOUS
370
    -2
100
AcDbLine
 10
1679.45390321
 20
-505.63432646
 30
0.0
 11
1679.82711592
 21
-505.410399
 31
0.0
  0
LINE
  5
416
100
AcDbEntity
  8
Sc.1_5
 62
     9
  6
CONTINUOUS
370
    -2
100
AcDbLine
 10
1682.7872368
 20
-505.63432749
 30
0.0
 11
1683.16044951
 21
-505.41040002
 31
0.0
  0
LINE
  5
417
100
AcDbEntity
  8
Sc.1_5
 62
     9
  6
CONTINUOUS
370
    -2
100
AcDbLine
 10
1686.12057039
 20
-505.63432851
 30
0.0
 11
1686.4937831
 21
-505.41040104
 31
0.0
  0
LINE
  5
418
100
AcDbEntity
  8
Sc.1_5
 62
     9
  6
CONTINUOUS
370
    -2
100
AcDbLine
 10
1689.45390399
 20
-505.63432953
 30
0.0
 11
1689.8271167
 21
-505.41040206
 31
0.0
  0
LINE
  5
419
100
AcDbEntity
  8
Sc.1_5
 62
     9
  6
CONTINUOUS
370
    -2
100
AcDbLine
 10
1692.78723758
 20
-505.63433055
 30
0.0
 11
1693.16045029
 21
-505.41040308
 31
0.0
  0
LINE
  5
41A
100
AcDbEntity
  8
Sc.1_5
 62
     9
  6
CONTINUOUS
370
    -2
100
AcDbLine
 10
1696.12057117
 20
-505.63433157
 30
0.0
 11
1696.49378388
 21
-505.41040411
 31
0.0
  0
LINE
  5
41B
100
AcDbEntity
  8
Sc.1_5
 62
     9
  6
CONTINUOUS
370
    -2
100
AcDbLine
 10
1699.45390476
 20
-505.6343326
 30
0.0
 11
1699.82711747
 21
-505.41040513
 31
0.0
  0
LINE
  5
41C
100
AcDbEntity
  8
Sc.1_5
 62
     9
  6
CONTINUOUS
370
    -2
100
AcDbLine
 10
1702.78723835
 20
-505.63433362
 30
0.0
 11
1703.16045106
 21
-505.41040615
 31
0.0
  0
LINE
  5
41D
100
AcDbEntity
  8
Sc.1_5
 62
     9
  6
CONTINUOUS
370
    -2
100
AcDbLine
 10
1706.12057194
 20
-505.63433464
 30
0.0
 11
1706.49378465
 21
-505.41040717
 31
0.0
  0
LINE
  5
41E
100
AcDbEntity
  8
Sc.1_5
 62
     9
  6
CONTINUOUS
370
    -2
100
AcDbLine
 10
1709.45390553
 20
-505.63433566
 30
0.0
 11
1709.82711824
 21
-505.41040819
 31
0.0
  0
LINE
  5
41F
100
AcDbEntity
  8
Sc.1_5
 62
     9
  6
CONTINUOUS
370
    -2
100
AcDbLine
 10
1712.78723913
 20
-505.63433668
 30
0.0
 11
1713.16045184
 21
-505.41040922
 31
0.0
  0
LINE
  5
420
100
AcDbEntity
  8
Sc.1_5
 62
     9
  6
CONTINUOUS
370
    -2
100
AcDbLine
 10
1716.12057272
 20
-505.6343377
 30
0.0
 11
1716.49378543
 21
-505.41041024
 31
0.0
  0
LINE
  5
421
100
AcDbEntity
  8
Sc.1_5
 62
     9
  6
CONTINUOUS
370
    -2
100
AcDbLine
 10
1719.45390631
 20
-505.63433873
 30
0.0
 11
1719.82711902
 21
-505.41041126
 31
0.0
  0
LINE
  5
422
100
AcDbEntity
  8
Sc.1_5
 62
     9
  6
CONTINUOUS
370
    -2
100
AcDbLine
 10
1722.7872399
 20
-505.63433975
 30
0.0
 11
1723.16045261
 21
-505.41041228
 31
0.0
  0
LINE
  5
423
100
AcDbEntity
  8
Sc.1_5
 62
     9
  6
CONTINUOUS
370
    -2
100
AcDbLine
 10
1726.12057349
 20
-505.63434077
 30
0.0
 11
1726.4937862
 21
-505.4104133
 31
0.0
  0
LINE
  5
424
100
AcDbEntity
  8
Sc.1_5
 62
     9
  6
CONTINUOUS
370
    -2
100
AcDbLine
 10
1729.45390708
 20
-505.63434179
 30
0.0
 11
1729.82711979
 21
-505.41041433
 31
0.0
  0
LINE
  5
425
100
AcDbEntity
  8
Sc.1_5
 62
     9
  6
CONTINUOUS
370
    -2
100
AcDbLine
 10
1732.78724067
 20
-505.63434281
 30
0.0
 11
1733.16045338
 21
-505.41041535
 31
0.0
  0
LINE
  5
426
100
AcDbEntity
  8
Sc.1_5
 62
     9
  6
CONTINUOUS
370
    -2
100
AcDbLine
 10
1736.12057427
 20
-505.63434384
 30
0.0
 11
1736.49378698
 21
-505.41041637
 31
0.0
  0
LINE
  5
427
100
AcDbEntity
  8
Sc.1_5
 62
     9
  6
CONTINUOUS
370
    -2
100
AcDbLine
 10
1739.45390786
 20
-505.63434486
 30
0.0
 11
1739.82712057
 21
-505.41041739
 31
0.0
  0
LINE
  5
428
100
AcDbEntity
  8
Sc.1_5
 62
     9
  6
CONTINUOUS
370
    -2
100
AcDbLine
 10
1742.78724145
 20
-505.63434588
 30
0.0
 11
1743.16045416
 21
-505.41041841
 31
0.0
  0
LINE
  5
429
100
AcDbEntity
  8
Sc.1_5
 62
     9
  6
CONTINUOUS
370
    -2
100
AcDbLine
 10
1746.12057504
 20
-505.6343469
 30
0.0
 11
1746.49378775
 21
-505.41041944
 31
0.0
  0
LINE
  5
42A
100
AcDbEntity
  8
Sc.1_5
 62
     9
  6
CONTINUOUS
370
    -2
100
AcDbLine
 10
1749.45390863
 20
-505.63434792
 30
0.0
 11
1749.82712134
 21
-505.41042046
 31
0.0
  0
LINE
  5
42B
100
AcDbEntity
  8
Sc.1_5
 62
     9
  6
CONTINUOUS
370
    -2
100
AcDbLine
 10
1752.78724222
 20
-505.63434895
 30
0.0
 11
1753.16045493
 21
-505.41042148
 31
0.0
  0
LINE
  5
42C
100
AcDbEntity
  8
Sc.1_5
 62
     9
  6
CONTINUOUS
370
    -2
100
AcDbLine
 10
1756.12057581
 20
-505.63434997
 30
0.0
 11
1756.49378852
 21
-505.4104225
 31
0.0
  0
LINE
  5
42D
100
AcDbEntity
  8
Sc.1_5
 62
     9
  6
CONTINUOUS
370
    -2
100
AcDbLine
 10
1759.45390941
 20
-505.63435099
 30
0.0
 11
1759.82712212
 21
-505.41042352
 31
0.0
  0
LINE
  5
42E
100
AcDbEntity
  8
Sc.1_5
 62
     9
  6
CONTINUOUS
370
    -2
100
AcDbLine
 10
1761.14767047
 20
-505.41042418
 30
0.0
 11
1761.52088304
 21
-505.63435188
 31
0.0
  0
LINE
  5
42F
100
AcDbEntity
  8
Sc.1_5
 62
     9
  6
CONTINUOUS
370
    -2
100
AcDbLine
 10
1757.81433688
 20
-505.41042311
 30
0.0
 11
1758.18754945
 21
-505.63435081
 31
0.0
  0
LINE
  5
430
100
AcDbEntity
  8
Sc.1_5
 62
     9
  6
CONTINUOUS
370
    -2
100
AcDbLine
 10
1754.48100328
 20
-505.41042204
 30
0.0
 11
1754.85421585
 21
-505.63434975
 31
0.0
  0
LINE
  5
431
100
AcDbEntity
  8
Sc.1_5
 62
     9
  6
CONTINUOUS
370
    -2
100
AcDbLine
 10
1751.14766969
 20
-505.41042098
 30
0.0
 11
1751.52088226
 21
-505.63434868
 31
0.0
  0
LINE
  5
432
100
AcDbEntity
  8
Sc.1_5
 62
     9
  6
CONTINUOUS
370
    -2
100
AcDbLine
 10
1747.8143361
 20
-505.41041991
 30
0.0
 11
1748.18754867
 21
-505.63434761
 31
0.0
  0
LINE
  5
433
100
AcDbEntity
  8
Sc.1_5
 62
     9
  6
CONTINUOUS
370
    -2
100
AcDbLine
 10
1744.48100251
 20
-505.41041885
 30
0.0
 11
1744.85421508
 21
-505.63434655
 31
0.0
  0
LINE
  5
434
100
AcDbEntity
  8
Sc.1_5
 62
     9
  6
CONTINUOUS
370
    -2
100
AcDbLine
 10
1741.14766892
 20
-505.41041778
 30
0.0
 11
1741.52088149
 21
-505.63434548
 31
0.0
  0
LINE
  5
435
100
AcDbEntity
  8
Sc.1_5
 62
     9
  6
CONTINUOUS
370
    -2
100
AcDbLine
 10
1737.81433533
 20
-505.41041671
 30
0.0
 11
1738.1875479
 21
-505.63434441
 31
0.0
  0
LINE
  5
436
100
AcDbEntity
  8
Sc.1_5
 62
     9
  6
CONTINUOUS
370
    -2
100
AcDbLine
 10
1734.48100174
 20
-505.41041565
 30
0.0
 11
1734.85421431
 21
-505.63434335
 31
0.0
  0
LINE
  5
437
100
AcDbEntity
  8
Sc.1_5
 62
     9
  6
CONTINUOUS
370
    -2
100
AcDbLine
 10
1731.14766814
 20
-505.41041458
 30
0.0
 11
1731.52088071
 21
-505.63434228
 31
0.0
  0
LINE
  5
438
100
AcDbEntity
  8
Sc.1_5
 62
     9
  6
CONTINUOUS
370
    -2
100
AcDbLine
 10
1727.81433455
 20
-505.41041351
 30
0.0
 11
1728.18754712
 21
-505.63434122
 31
0.0
  0
LINE
  5
439
100
AcDbEntity
  8
Sc.1_5
 62
     9
  6
CONTINUOUS
370
    -2
100
AcDbLine
 10
1724.48100096
 20
-505.41041245
 30
0.0
 11
1724.85421353
 21
-505.63434015
 31
0.0
  0
LINE
  5
43A
100
AcDbEntity
  8
Sc.1_5
 62
     9
  6
CONTINUOUS
370
    -2
100
AcDbLine
 10
1721.14766737
 20
-505.41041138
 30
0.0
 11
1721.52087994
 21
-505.63433908
 31
0.0
  0
LINE
  5
43B
100
AcDbEntity
  8
Sc.1_5
 62
     9
  6
CONTINUOUS
370
    -2
100
AcDbLine
 10
1717.81433378
 20
-505.41041032
 30
0.0
 11
1718.18754635
 21
-505.63433802
 31
0.0
  0
LINE
  5
43C
100
AcDbEntity
  8
Sc.1_5
 62
     9
  6
CONTINUOUS
370
    -2
100
AcDbLine
 10
1714.48100019
 20
-505.41040925
 30
0.0
 11
1714.85421276
 21
-505.63433695
 31
0.0
  0
LINE
  5
43D
100
AcDbEntity
  8
Sc.1_5
 62
     9
  6
CONTINUOUS
370
    -2
100
AcDbLine
 10
1711.1476666
 20
-505.41040818
 30
0.0
 11
1711.52087917
 21
-505.63433588
 31
0.0
  0
LINE
  5
43E
100
AcDbEntity
  8
Sc.1_5
 62
     9
  6
CONTINUOUS
370
    -2
100
AcDbLine
 10
1707.814333
 20
-505.41040712
 30
0.0
 11
1708.18754557
 21
-505.63433482
 31
0.0
  0
LINE
  5
43F
100
AcDbEntity
  8
Sc.1_5
 62
     9
  6
CONTINUOUS
370
    -2
100
AcDbLine
 10
1704.48099941
 20
-505.41040605
 30
0.0
 11
1704.85421198
 21
-505.63433375
 31
0.0
  0
LINE
  5
440
100
AcDbEntity
  8
Sc.1_5
 62
     9
  6
CONTINUOUS
370
    -2
100
AcDbLine
 10
1701.14766582
 20
-505.41040498
 30
0.0
 11
1701.52087839
 21
-505.63433269
 31
0.0
  0
LINE
  5
441
100
AcDbEntity
  8
Sc.1_5
 62
     9
  6
CONTINUOUS
370
    -2
100
AcDbLine
 10
1697.81433223
 20
-505.41040392
 30
0.0
 11
1698.1875448
 21
-505.63433162
 31
0.0
  0
LINE
  5
442
100
AcDbEntity
  8
Sc.1_5
 62
     9
  6
CONTINUOUS
370
    -2
100
AcDbLine
 10
1694.48099864
 20
-505.41040285
 30
0.0
 11
1694.85421121
 21
-505.63433055
 31
0.0
  0
LINE
  5
443
100
AcDbEntity
  8
Sc.1_5
 62
     9
  6
CONTINUOUS
370
    -2
100
AcDbLine
 10
1691.14766505
 20
-505.41040179
 30
0.0
 11
1691.52087762
 21
-505.63432949
 31
0.0
  0
LINE
  5
444
100
AcDbEntity
  8
Sc.1_5
 62
     9
  6
CONTINUOUS
370
    -2
100
AcDbLine
 10
1687.81433146
 20
-505.41040072
 30
0.0
 11
1688.18754403
 21
-505.63432842
 31
0.0
  0
LINE
  5
445
100
AcDbEntity
  8
Sc.1_5
 62
     9
  6
CONTINUOUS
370
    -2
100
AcDbLine
 10
1684.48099786
 20
-505.41039965
 30
0.0
 11
1684.85421043
 21
-505.63432735
 31
0.0
  0
LINE
  5
446
100
AcDbEntity
  8
Sc.1_5
 62
     9
  6
CONTINUOUS
370
    -2
100
AcDbLine
 10
1681.14766427
 20
-505.41039859
 30
0.0
 11
1681.52087684
 21
-505.63432629
 31
0.0
  0
LINE
  5
447
100
AcDbEntity
  8
Sc.1_5
 62
     9
  6
CONTINUOUS
370
    -2
100
AcDbLine
 10
1677.81433068
 20
-505.41039752
 30
0.0
 11
1678.18754325
 21
-505.63432522
 31
0.0
  0
LINE
  5
448
100
AcDbEntity
  8
Sc.1_5
 62
     9
  6
CONTINUOUS
370
    -2
100
AcDbLine
 10
1676.52087269
 20
-514.9480635
 30
0.0
 11
1676.78259349
 21
-514.68634286
 31
0.0
  0
LINE
  5
449
100
AcDbEntity
  8
Sc.1_5
 62
     9
  6
CONTINUOUS
370
    -2
100
AcDbLine
 10
1679.85420658
 20
-514.94806454
 30
0.0
 11
1680.11592738
 21
-514.6863439
 31
0.0
  0
LINE
  5
44A
100
AcDbEntity
  8
Sc.1_5
 62
     9
  6
CONTINUOUS
370
    -2
100
AcDbLine
 10
1683.18754048
 20
-514.94806558
 30
0.0
 11
1683.44926128
 21
-514.68634495
 31
0.0
  0
LINE
  5
44B
100
AcDbEntity
  8
Sc.1_5
 62
     9
  6
CONTINUOUS
370
    -2
100
AcDbLine
 10
1686.52087437
 20
-514.94806663
 30
0.0
 11
1686.78259517
 21
-514.68634599
 31
0.0
  0
LINE
  5
44C
100
AcDbEntity
  8
Sc.1_5
 62
     9
  6
CONTINUOUS
370
    -2
100
AcDbLine
 10
1689.85420827
 20
-514.94806767
 30
0.0
 11
1690.11592907
 21
-514.68634704
 31
0.0
  0
LINE
  5
44D
100
AcDbEntity
  8
Sc.1_5
 62
     9
  6
CONTINUOUS
370
    -2
100
AcDbLine
 10
1693.18754216
 20
-514.94806872
 30
0.0
 11
1693.44926296
 21
-514.68634808
 31
0.0
  0
LINE
  5
44E
100
AcDbEntity
  8
Sc.1_5
 62
     9
  6
CONTINUOUS
370
    -2
100
AcDbLine
 10
1696.52087606
 20
-514.94806976
 30
0.0
 11
1696.78259686
 21
-514.68634912
 31
0.0
  0
LINE
  5
44F
100
AcDbEntity
  8
Sc.1_5
 62
     9
  6
CONTINUOUS
370
    -2
100
AcDbLine
 10
1699.85420995
 20
-514.9480708
 30
0.0
 11
1700.11593075
 21
-514.68635017
 31
0.0
  0
LINE
  5
450
100
AcDbEntity
  8
Sc.1_5
 62
     9
  6
CONTINUOUS
370
    -2
100
AcDbLine
 10
1703.18754384
 20
-514.94807185
 30
0.0
 11
1703.44926464
 21
-514.68635121
 31
0.0
  0
LINE
  5
451
100
AcDbEntity
  8
Sc.1_5
 62
     9
  6
CONTINUOUS
370
    -2
100
AcDbLine
 10
1706.52087774
 20
-514.94807289
 30
0.0
 11
1706.78259854
 21
-514.68635226
 31
0.0
  0
LINE
  5
452
100
AcDbEntity
  8
Sc.1_5
 62
     9
  6
CONTINUOUS
370
    -2
100
AcDbLine
 10
1709.85421163
 20
-514.94807394
 30
0.0
 11
1710.11593243
 21
-514.6863533
 31
0.0
  0
LINE
  5
453
100
AcDbEntity
  8
Sc.1_5
 62
     9
  6
CONTINUOUS
370
    -2
100
AcDbLine
 10
1713.18754553
 20
-514.94807498
 30
0.0
 11
1713.44926633
 21
-514.68635434
 31
0.0
  0
LINE
  5
454
100
AcDbEntity
  8
Sc.1_5
 62
     9
  6
CONTINUOUS
370
    -2
100
AcDbLine
 10
1716.52087942
 20
-514.94807602
 30
0.0
 11
1716.78260022
 21
-514.68635539
 31
0.0
  0
LINE
  5
455
100
AcDbEntity
  8
Sc.1_5
 62
     9
  6
CONTINUOUS
370
    -2
100
AcDbLine
 10
1719.85421332
 20
-514.94807707
 30
0.0
 11
1720.11593412
 21
-514.68635643
 31
0.0
  0
LINE
  5
456
100
AcDbEntity
  8
Sc.1_5
 62
     9
  6
CONTINUOUS
370
    -2
100
AcDbLine
 10
1723.18754721
 20
-514.94807811
 30
0.0
 11
1723.44926801
 21
-514.68635748
 31
0.0
  0
LINE
  5
457
100
AcDbEntity
  8
Sc.1_5
 62
     9
  6
CONTINUOUS
370
    -2
100
AcDbLine
 10
1726.52088111
 20
-514.94807916
 30
0.0
 11
1726.78260191
 21
-514.68635852
 31
0.0
  0
LINE
  5
458
100
AcDbEntity
  8
Sc.1_5
 62
     9
  6
CONTINUOUS
370
    -2
100
AcDbLine
 10
1729.854215
 20
-514.9480802
 30
0.0
 11
1730.1159358
 21
-514.68635957
 31
0.0
  0
LINE
  5
459
100
AcDbEntity
  8
Sc.1_5
 62
     9
  6
CONTINUOUS
370
    -2
100
AcDbLine
 10
1733.18754889
 20
-514.94808125
 30
0.0
 11
1733.44926969
 21
-514.68636061
 31
0.0
  0
LINE
  5
45A
100
AcDbEntity
  8
Sc.1_5
 62
     9
  6
CONTINUOUS
370
    -2
100
AcDbLine
 10
1736.52088279
 20
-514.94808229
 30
0.0
 11
1736.78260359
 21
-514.68636165
 31
0.0
  0
LINE
  5
45B
100
AcDbEntity
  8
Sc.1_5
 62
     9
  6
CONTINUOUS
370
    -2
100
AcDbLine
 10
1739.85421668
 20
-514.94808333
 30
0.0
 11
1740.11593748
 21
-514.6863627
 31
0.0
  0
LINE
  5
45C
100
AcDbEntity
  8
Sc.1_5
 62
     9
  6
CONTINUOUS
370
    -2
100
AcDbLine
 10
1743.18755058
 20
-514.94808438
 30
0.0
 11
1743.44927138
 21
-514.68636374
 31
0.0
  0
LINE
  5
45D
100
AcDbEntity
  8
Sc.1_5
 62
     9
  6
CONTINUOUS
370
    -2
100
AcDbLine
 10
1746.52088447
 20
-514.94808542
 30
0.0
 11
1746.78260527
 21
-514.68636479
 31
0.0
  0
LINE
  5
45E
100
AcDbEntity
  8
Sc.1_5
 62
     9
  6
CONTINUOUS
370
    -2
100
AcDbLine
 10
1749.85421837
 20
-514.94808647
 30
0.0
 11
1750.11593917
 21
-514.68636583
 31
0.0
  0
LINE
  5
45F
100
AcDbEntity
  8
Sc.1_5
 62
     9
  6
CONTINUOUS
370
    -2
100
AcDbLine
 10
1753.18755226
 20
-514.94808751
 30
0.0
 11
1753.44927306
 21
-514.68636687
 31
0.0
  0
LINE
  5
460
100
AcDbEntity
  8
Sc.1_5
 62
     9
  6
CONTINUOUS
370
    -2
100
AcDbLine
 10
1756.52088616
 20
-514.94808855
 30
0.0
 11
1756.78260696
 21
-514.68636792
 31
0.0
  0
LINE
  5
461
100
AcDbEntity
  8
Sc.1_5
 62
     9
  6
CONTINUOUS
370
    -2
100
AcDbLine
 10
1759.85422005
 20
-514.9480896
 30
0.0
 11
1760.11594085
 21
-514.68636896
 31
0.0
  0
LINE
  5
462
100
AcDbEntity
  8
Sc.1_5
 62
     9
  6
CONTINUOUS
370
    -2
100
AcDbLine
 10
1677.78723457
 20
-514.94806389
 30
0.0
 11
1677.52551393
 21
-514.68634309
 31
0.0
  0
LINE
  5
463
100
AcDbEntity
  8
Sc.1_5
 62
     9
  6
CONTINUOUS
370
    -2
100
AcDbLine
 10
1681.12056846
 20
-514.94806494
 30
0.0
 11
1680.85884782
 21
-514.68634414
 31
0.0
  0
LINE
  5
464
100
AcDbEntity
  8
Sc.1_5
 62
     9
  6
CONTINUOUS
370
    -2
100
AcDbLine
 10
1684.45390236
 20
-514.94806598
 30
0.0
 11
1684.19218172
 21
-514.68634518
 31
0.0
  0
LINE
  5
465
100
AcDbEntity
  8
Sc.1_5
 62
     9
  6
CONTINUOUS
370
    -2
100
AcDbLine
 10
1687.78723625
 20
-514.94806702
 30
0.0
 11
1687.52551561
 21
-514.68634622
 31
0.0
  0
LINE
  5
466
100
AcDbEntity
  8
Sc.1_5
 62
     9
  6
CONTINUOUS
370
    -2
100
AcDbLine
 10
1691.12057014
 20
-514.94806807
 30
0.0
 11
1690.85884951
 21
-514.68634727
 31
0.0
  0
LINE
  5
467
100
AcDbEntity
  8
Sc.1_5
 62
     9
  6
CONTINUOUS
370
    -2
100
AcDbLine
 10
1694.45390404
 20
-514.94806911
 30
0.0
 11
1694.1921834
 21
-514.68634831
 31
0.0
  0
LINE
  5
468
100
AcDbEntity
  8
Sc.1_5
 62
     9
  6
CONTINUOUS
370
    -2
100
AcDbLine
 10
1697.78723793
 20
-514.94807016
 30
0.0
 11
1697.5255173
 21
-514.68634936
 31
0.0
  0
LINE
  5
469
100
AcDbEntity
  8
Sc.1_5
 62
     9
  6
CONTINUOUS
370
    -2
100
AcDbLine
 10
1701.12057183
 20
-514.9480712
 30
0.0
 11
1700.85885119
 21
-514.6863504
 31
0.0
  0
LINE
  5
46A
100
AcDbEntity
  8
Sc.1_5
 62
     9
  6
CONTINUOUS
370
    -2
100
AcDbLine
 10
1704.45390572
 20
-514.94807225
 30
0.0
 11
1704.19218509
 21
-514.68635144
 31
0.0
  0
LINE
  5
46B
100
AcDbEntity
  8
Sc.1_5
 62
     9
  6
CONTINUOUS
370
    -2
100
AcDbLine
 10
1707.78723962
 20
-514.94807329
 30
0.0
 11
1707.52551898
 21
-514.68635249
 31
0.0
  0
LINE
  5
46C
100
AcDbEntity
  8
Sc.1_5
 62
     9
  6
CONTINUOUS
370
    -2
100
AcDbLine
 10
1711.12057351
 20
-514.94807433
 30
0.0
 11
1710.85885287
 21
-514.68635353
 31
0.0
  0
LINE
  5
46D
100
AcDbEntity
  8
Sc.1_5
 62
     9
  6
CONTINUOUS
370
    -2
100
AcDbLine
 10
1714.45390741
 20
-514.94807538
 30
0.0
 11
1714.19218677
 21
-514.68635458
 31
0.0
  0
LINE
  5
46E
100
AcDbEntity
  8
Sc.1_5
 62
     9
  6
CONTINUOUS
370
    -2
100
AcDbLine
 10
1717.7872413
 20
-514.94807642
 30
0.0
 11
1717.52552066
 21
-514.68635562
 31
0.0
  0
LINE
  5
46F
100
AcDbEntity
  8
Sc.1_5
 62
     9
  6
CONTINUOUS
370
    -2
100
AcDbLine
 10
1721.12057519
 20
-514.94807747
 30
0.0
 11
1720.85885456
 21
-514.68635667
 31
0.0
  0
LINE
  5
470
100
AcDbEntity
  8
Sc.1_5
 62
     9
  6
CONTINUOUS
370
    -2
100
AcDbLine
 10
1724.45390909
 20
-514.94807851
 30
0.0
 11
1724.19218845
 21
-514.68635771
 31
0.0
  0
LINE
  5
471
100
AcDbEntity
  8
Sc.1_5
 62
     9
  6
CONTINUOUS
370
    -2
100
AcDbLine
 10
1727.78724298
 20
-514.94807955
 30
0.0
 11
1727.52552235
 21
-514.68635875
 31
0.0
  0
LINE
  5
472
100
AcDbEntity
  8
Sc.1_5
 62
     9
  6
CONTINUOUS
370
    -2
100
AcDbLine
 10
1731.12057688
 20
-514.9480806
 30
0.0
 11
1730.85885624
 21
-514.6863598
 31
0.0
  0
LINE
  5
473
100
AcDbEntity
  8
Sc.1_5
 62
     9
  6
CONTINUOUS
370
    -2
100
AcDbLine
 10
1734.45391077
 20
-514.94808164
 30
0.0
 11
1734.19219014
 21
-514.68636084
 31
0.0
  0
LINE
  5
474
100
AcDbEntity
  8
Sc.1_5
 62
     9
  6
CONTINUOUS
370
    -2
100
AcDbLine
 10
1737.78724467
 20
-514.94808269
 30
0.0
 11
1737.52552403
 21
-514.68636189
 31
0.0
  0
LINE
  5
475
100
AcDbEntity
  8
Sc.1_5
 62
     9
  6
CONTINUOUS
370
    -2
100
AcDbLine
 10
1741.12057856
 20
-514.94808373
 30
0.0
 11
1740.85885792
 21
-514.68636293
 31
0.0
  0
LINE
  5
476
100
AcDbEntity
  8
Sc.1_5
 62
     9
  6
CONTINUOUS
370
    -2
100
AcDbLine
 10
1744.45391246
 20
-514.94808477
 30
0.0
 11
1744.19219182
 21
-514.68636397
 31
0.0
  0
LINE
  5
477
100
AcDbEntity
  8
Sc.1_5
 62
     9
  6
CONTINUOUS
370
    -2
100
AcDbLine
 10
1747.78724635
 20
-514.94808582
 30
0.0
 11
1747.52552571
 21
-514.68636502
 31
0.0
  0
LINE
  5
478
100
AcDbEntity
  8
Sc.1_5
 62
     9
  6
CONTINUOUS
370
    -2
100
AcDbLine
 10
1751.12058024
 20
-514.94808686
 30
0.0
 11
1750.85885961
 21
-514.68636606
 31
0.0
  0
LINE
  5
479
100
AcDbEntity
  8
Sc.1_5
 62
     9
  6
CONTINUOUS
370
    -2
100
AcDbLine
 10
1754.45391414
 20
-514.94808791
 30
0.0
 11
1754.1921935
 21
-514.68636711
 31
0.0
  0
LINE
  5
47A
100
AcDbEntity
  8
Sc.1_5
 62
     9
  6
CONTINUOUS
370
    -2
100
AcDbLine
 10
1757.78724803
 20
-514.94808895
 30
0.0
 11
1757.5255274
 21
-514.68636815
 31
0.0
  0
LINE
  5
47B
100
AcDbEntity
  8
Sc.1_5
 62
     9
  6
CONTINUOUS
370
    -2
100
AcDbLine
 10
1761.12058193
 20
-514.94808999
 30
0.0
 11
1760.85886129
 21
-514.68636919
 31
0.0
  0
LINE
  5
47C
100
AcDbEntity
  8
Sc.1_5
 62
     9
  6
CONTINUOUS
370
    -2
100
AcDbLine
 10
1675.85884951
 20
-505.89604506
 30
0.0
 11
1676.12057031
 21
-505.63432443
 31
0.0
  0
LINE
  5
47D
100
AcDbEntity
  8
Sc.1_5
 62
     9
  6
CONTINUOUS
370
    -2
100
AcDbLine
 10
1679.1921834
 20
-505.89604611
 30
0.0
 11
1679.4539042
 21
-505.63432547
 31
0.0
  0
LINE
  5
47E
100
AcDbEntity
  8
Sc.1_5
 62
     9
  6
CONTINUOUS
370
    -2
100
AcDbLine
 10
1682.5255173
 20
-505.89604715
 30
0.0
 11
1682.7872381
 21
-505.63432652
 31
0.0
  0
LINE
  5
47F
100
AcDbEntity
  8
Sc.1_5
 62
     9
  6
CONTINUOUS
370
    -2
100
AcDbLine
 10
1685.85885119
 20
-505.8960482
 30
0.0
 11
1686.12057199
 21
-505.63432756
 31
0.0
  0
LINE
  5
480
100
AcDbEntity
  8
Sc.1_5
 62
     9
  6
CONTINUOUS
370
    -2
100
AcDbLine
 10
1689.19218508
 20
-505.89604924
 30
0.0
 11
1689.45390588
 21
-505.6343286
 31
0.0
  0
LINE
  5
481
100
AcDbEntity
  8
Sc.1_5
 62
     9
  6
CONTINUOUS
370
    -2
100
AcDbLine
 10
1692.52551898
 20
-505.89605028
 30
0.0
 11
1692.78723978
 21
-505.63432965
 31
0.0
  0
LINE
  5
482
100
AcDbEntity
  8
Sc.1_5
 62
     9
  6
CONTINUOUS
370
    -2
100
AcDbLine
 10
1695.85885287
 20
-505.89605133
 30
0.0
 11
1696.12057367
 21
-505.63433069
 31
0.0
  0
LINE
  5
483
100
AcDbEntity
  8
Sc.1_5
 62
     9
  6
CONTINUOUS
370
    -2
100
AcDbLine
 10
1699.19218677
 20
-505.89605237
 30
0.0
 11
1699.45390757
 21
-505.63433174
 31
0.0
  0
LINE
  5
484
100
AcDbEntity
  8
Sc.1_5
 62
     9
  6
CONTINUOUS
370
    -2
100
AcDbLine
 10
1702.52552066
 20
-505.89605342
 30
0.0
 11
1702.78724146
 21
-505.63433278
 31
0.0
  0
LINE
  5
485
100
AcDbEntity
  8
Sc.1_5
 62
     9
  6
CONTINUOUS
370
    -2
100
AcDbLine
 10
1705.85885456
 20
-505.89605446
 30
0.0
 11
1706.12057536
 21
-505.63433382
 31
0.0
  0
LINE
  5
486
100
AcDbEntity
  8
Sc.1_5
 62
     9
  6
CONTINUOUS
370
    -2
100
AcDbLine
 10
1709.19218845
 20
-505.8960555
 30
0.0
 11
1709.45390925
 21
-505.63433487
 31
0.0
  0
LINE
  5
487
100
AcDbEntity
  8
Sc.1_5
 62
     9
  6
CONTINUOUS
370
    -2
100
AcDbLine
 10
1712.52552235
 20
-505.89605655
 30
0.0
 11
1712.78724315
 21
-505.63433591
 31
0.0
  0
LINE
  5
488
100
AcDbEntity
  8
Sc.1_5
 62
     9
  6
CONTINUOUS
370
    -2
100
AcDbLine
 10
1715.85885624
 20
-505.89605759
 30
0.0
 11
1716.12057704
 21
-505.63433696
 31
0.0
  0
LINE
  5
489
100
AcDbEntity
  8
Sc.1_5
 62
     9
  6
CONTINUOUS
370
    -2
100
AcDbLine
 10
1719.19219013
 20
-505.89605864
 30
0.0
 11
1719.45391093
 21
-505.634338
 31
0.0
  0
LINE
  5
48A
100
AcDbEntity
  8
Sc.1_5
 62
     9
  6
CONTINUOUS
370
    -2
100
AcDbLine
 10
1722.52552403
 20
-505.89605968
 30
0.0
 11
1722.78724483
 21
-505.63433904
 31
0.0
  0
LINE
  5
48B
100
AcDbEntity
  8
Sc.1_5
 62
     9
  6
CONTINUOUS
370
    -2
100
AcDbLine
 10
1725.85885792
 20
-505.89606072
 30
0.0
 11
1726.12057872
 21
-505.63434009
 31
0.0
  0
LINE
  5
48C
100
AcDbEntity
  8
Sc.1_5
 62
     9
  6
CONTINUOUS
370
    -2
100
AcDbLine
 10
1729.19219182
 20
-505.89606177
 30
0.0
 11
1729.45391262
 21
-505.63434113
 31
0.0
  0
LINE
  5
48D
100
AcDbEntity
  8
Sc.1_5
 62
     9
  6
CONTINUOUS
370
    -2
100
AcDbLine
 10
1732.52552571
 20
-505.89606281
 30
0.0
 11
1732.78724651
 21
-505.63434218
 31
0.0
  0
LINE
  5
48E
100
AcDbEntity
  8
Sc.1_5
 62
     9
  6
CONTINUOUS
370
    -2
100
AcDbLine
 10
1735.85885961
 20
-505.89606386
 30
0.0
 11
1736.12058041
 21
-505.63434322
 31
0.0
  0
LINE
  5
48F
100
AcDbEntity
  8
Sc.1_5
 62
     9
  6
CONTINUOUS
370
    -2
100
AcDbLine
 10
1739.1921935
 20
-505.8960649
 30
0.0
 11
1739.4539143
 21
-505.63434426
 31
0.0
  0
LINE
  5
490
100
AcDbEntity
  8
Sc.1_5
 62
     9
  6
CONTINUOUS
370
    -2
100
AcDbLine
 10
1742.5255274
 20
-505.89606595
 30
0.0
 11
1742.7872482
 21
-505.63434531
 31
0.0
  0
LINE
  5
491
100
AcDbEntity
  8
Sc.1_5
 62
     9
  6
CONTINUOUS
370
    -2
100
AcDbLine
 10
1745.85886129
 20
-505.89606699
 30
0.0
 11
1746.12058209
 21
-505.63434635
 31
0.0
  0
LINE
  5
492
100
AcDbEntity
  8
Sc.1_5
 62
     9
  6
CONTINUOUS
370
    -2
100
AcDbLine
 10
1749.19219518
 20
-505.89606803
 30
0.0
 11
1749.45391598
 21
-505.6343474
 31
0.0
  0
LINE
  5
493
100
AcDbEntity
  8
Sc.1_5
 62
     9
  6
CONTINUOUS
370
    -2
100
AcDbLine
 10
1752.52552908
 20
-505.89606908
 30
0.0
 11
1752.78724988
 21
-505.63434844
 31
0.0
  0
LINE
  5
494
100
AcDbEntity
  8
Sc.1_5
 62
     9
  6
CONTINUOUS
370
    -2
100
AcDbLine
 10
1755.85886297
 20
-505.89607012
 30
0.0
 11
1756.12058377
 21
-505.63434949
 31
0.0
  0
LINE
  5
495
100
AcDbEntity
  8
Sc.1_5
 62
     9
  6
CONTINUOUS
370
    -2
100
AcDbLine
 10
1759.19219687
 20
-505.89607117
 30
0.0
 11
1759.45391767
 21
-505.63435053
 31
0.0
  0
LINE
  5
496
100
AcDbEntity
  8
Sc.1_5
 62
     9
  6
CONTINUOUS
370
    -2
100
AcDbLine
 10
1761.52089007
 20
-505.63435219
 30
0.0
 11
1761.78261071
 21
-505.89607299
 31
0.0
  0
LINE
  5
497
100
AcDbEntity
  8
Sc.1_5
 62
     9
  6
CONTINUOUS
370
    -2
100
AcDbLine
 10
1758.18755618
 20
-505.63435115
 30
0.0
 11
1758.44927681
 21
-505.89607195
 31
0.0
  0
LINE
  5
498
100
AcDbEntity
  8
Sc.1_5
 62
     9
  6
CONTINUOUS
370
    -2
100
AcDbLine
 10
1754.85422228
 20
-505.6343501
 30
0.0
 11
1755.11594292
 21
-505.8960709
 31
0.0
  0
LINE
  5
499
100
AcDbEntity
  8
Sc.1_5
 62
     9
  6
CONTINUOUS
370
    -2
100
AcDbLine
 10
1751.52088839
 20
-505.63434906
 30
0.0
 11
1751.78260902
 21
-505.89606986
 31
0.0
  0
LINE
  5
49A
100
AcDbEntity
  8
Sc.1_5
 62
     9
  6
CONTINUOUS
370
    -2
100
AcDbLine
 10
1748.18755449
 20
-505.63434801
 30
0.0
 11
1748.44927513
 21
-505.89606882
 31
0.0
  0
LINE
  5
49B
100
AcDbEntity
  8
Sc.1_5
 62
     9
  6
CONTINUOUS
370
    -2
100
AcDbLine
 10
1744.8542206
 20
-505.63434697
 30
0.0
 11
1745.11594124
 21
-505.89606777
 31
0.0
  0
LINE
  5
49C
100
AcDbEntity
  8
Sc.1_5
 62
     9
  6
CONTINUOUS
370
    -2
100
AcDbLine
 10
1741.5208867
 20
-505.63434593
 30
0.0
 11
1741.78260734
 21
-505.89606673
 31
0.0
  0
LINE
  5
49D
100
AcDbEntity
  8
Sc.1_5
 62
     9
  6
CONTINUOUS
370
    -2
100
AcDbLine
 10
1738.18755281
 20
-505.63434488
 30
0.0
 11
1738.44927345
 21
-505.89606568
 31
0.0
  0
LINE
  5
49E
100
AcDbEntity
  8
Sc.1_5
 62
     9
  6
CONTINUOUS
370
    -2
100
AcDbLine
 10
1734.85421892
 20
-505.63434384
 30
0.0
 11
1735.11593955
 21
-505.89606464
 31
0.0
  0
LINE
  5
49F
100
AcDbEntity
  8
Sc.1_5
 62
     9
  6
CONTINUOUS
370
    -2
100
AcDbLine
 10
1731.52088502
 20
-505.63434279
 30
0.0
 11
1731.78260566
 21
-505.89606359
 31
0.0
  0
LINE
  5
4A0
100
AcDbEntity
  8
Sc.1_5
 62
     9
  6
CONTINUOUS
370
    -2
100
AcDbLine
 10
1728.18755113
 20
-505.63434175
 30
0.0
 11
1728.44927176
 21
-505.89606255
 31
0.0
  0
LINE
  5
4A1
100
AcDbEntity
  8
Sc.1_5
 62
     9
  6
CONTINUOUS
370
    -2
100
AcDbLine
 10
1724.85421723
 20
-505.63434071
 30
0.0
 11
1725.11593787
 21
-505.89606151
 31
0.0
  0
LINE
  5
4A2
100
AcDbEntity
  8
Sc.1_5
 62
     9
  6
CONTINUOUS
370
    -2
100
AcDbLine
 10
1721.52088334
 20
-505.63433966
 30
0.0
 11
1721.78260397
 21
-505.89606046
 31
0.0
  0
LINE
  5
4A3
100
AcDbEntity
  8
Sc.1_5
 62
     9
  6
CONTINUOUS
370
    -2
100
AcDbLine
 10
1718.18754944
 20
-505.63433862
 30
0.0
 11
1718.44927008
 21
-505.89605942
 31
0.0
  0
LINE
  5
4A4
100
AcDbEntity
  8
Sc.1_5
 62
     9
  6
CONTINUOUS
370
    -2
100
AcDbLine
 10
1714.85421555
 20
-505.63433757
 30
0.0
 11
1715.11593619
 21
-505.89605837
 31
0.0
  0
LINE
  5
4A5
100
AcDbEntity
  8
Sc.1_5
 62
     9
  6
CONTINUOUS
370
    -2
100
AcDbLine
 10
1711.52088165
 20
-505.63433653
 30
0.0
 11
1711.78260229
 21
-505.89605733
 31
0.0
  0
LINE
  5
4A6
100
AcDbEntity
  8
Sc.1_5
 62
     9
  6
CONTINUOUS
370
    -2
100
AcDbLine
 10
1708.18754776
 20
-505.63433549
 30
0.0
 11
1708.4492684
 21
-505.89605629
 31
0.0
  0
LINE
  5
4A7
100
AcDbEntity
  8
Sc.1_5
 62
     9
  6
CONTINUOUS
370
    -2
100
AcDbLine
 10
1704.85421387
 20
-505.63433444
 30
0.0
 11
1705.1159345
 21
-505.89605524
 31
0.0
  0
LINE
  5
4A8
100
AcDbEntity
  8
Sc.1_5
 62
     9
  6
CONTINUOUS
370
    -2
100
AcDbLine
 10
1701.52087997
 20
-505.6343334
 30
0.0
 11
1701.78260061
 21
-505.8960542
 31
0.0
  0
LINE
  5
4A9
100
AcDbEntity
  8
Sc.1_5
 62
     9
  6
CONTINUOUS
370
    -2
100
AcDbLine
 10
1698.18754608
 20
-505.63433235
 30
0.0
 11
1698.44926671
 21
-505.89605315
 31
0.0
  0
LINE
  5
4AA
100
AcDbEntity
  8
Sc.1_5
 62
     9
  6
CONTINUOUS
370
    -2
100
AcDbLine
 10
1694.85421218
 20
-505.63433131
 30
0.0
 11
1695.11593282
 21
-505.89605211
 31
0.0
  0
LINE
  5
4AB
100
AcDbEntity
  8
Sc.1_5
 62
     9
  6
CONTINUOUS
370
    -2
100
AcDbLine
 10
1691.52087829
 20
-505.63433027
 30
0.0
 11
1691.78259892
 21
-505.89605107
 31
0.0
  0
LINE
  5
4AC
100
AcDbEntity
  8
Sc.1_5
 62
     9
  6
CONTINUOUS
370
    -2
100
AcDbLine
 10
1688.18754439
 20
-505.63432922
 30
0.0
 11
1688.44926503
 21
-505.89605002
 31
0.0
  0
LINE
  5
4AD
100
AcDbEntity
  8
Sc.1_5
 62
     9
  6
CONTINUOUS
370
    -2
100
AcDbLine
 10
1684.8542105
 20
-505.63432818
 30
0.0
 11
1685.11593114
 21
-505.89604898
 31
0.0
  0
LINE
  5
4AE
100
AcDbEntity
  8
Sc.1_5
 62
     9
  6
CONTINUOUS
370
    -2
100
AcDbLine
 10
1681.5208766
 20
-505.63432713
 30
0.0
 11
1681.78259724
 21
-505.89604793
 31
0.0
  0
LINE
  5
4AF
100
AcDbEntity
  8
Sc.1_5
 62
     9
  6
CONTINUOUS
370
    -2
100
AcDbLine
 10
1678.18754271
 20
-505.63432609
 30
0.0
 11
1678.44926335
 21
-505.89604689
 31
0.0
  0
LINE
  5
4B0
100
AcDbEntity
  8
Sc.1_5
 62
     9
  6
CONTINUOUS
370
    -2
100
AcDbLine
 10
1676.78259379
 20
-514.68634358
 30
0.0
 11
1676.9979446
 21
-514.36331758
 31
0.0
  0
LINE
  5
4B1
100
AcDbEntity
  8
Sc.1_5
 62
     9
  6
CONTINUOUS
370
    -2
100
AcDbLine
 10
1680.11592729
 20
-514.68634424
 30
0.0
 11
1680.3312781
 21
-514.36331825
 31
0.0
  0
LINE
  5
4B2
100
AcDbEntity
  8
Sc.1_5
 62
     9
  6
CONTINUOUS
370
    -2
100
AcDbLine
 10
1683.44926079
 20
-514.68634491
 30
0.0
 11
1683.6646116
 21
-514.36331891
 31
0.0
  0
LINE
  5
4B3
100
AcDbEntity
  8
Sc.1_5
 62
     9
  6
CONTINUOUS
370
    -2
100
AcDbLine
 10
1686.78259429
 20
-514.68634558
 30
0.0
 11
1686.9979451
 21
-514.36331958
 31
0.0
  0
LINE
  5
4B4
100
AcDbEntity
  8
Sc.1_5
 62
     9
  6
CONTINUOUS
370
    -2
100
AcDbLine
 10
1690.11592779
 20
-514.68634624
 30
0.0
 11
1690.3312786
 21
-514.36332025
 31
0.0
  0
LINE
  5
4B5
100
AcDbEntity
  8
Sc.1_5
 62
     9
  6
CONTINUOUS
370
    -2
100
AcDbLine
 10
1693.44926129
 20
-514.68634691
 30
0.0
 11
1693.6646121
 21
-514.36332091
 31
0.0
  0
LINE
  5
4B6
100
AcDbEntity
  8
Sc.1_5
 62
     9
  6
CONTINUOUS
370
    -2
100
AcDbLine
 10
1696.7825948
 20
-514.68634758
 30
0.0
 11
1696.9979456
 21
-514.36332158
 31
0.0
  0
LINE
  5
4B7
100
AcDbEntity
  8
Sc.1_5
 62
     9
  6
CONTINUOUS
370
    -2
100
AcDbLine
 10
1700.1159283
 20
-514.68634824
 30
0.0
 11
1700.33127911
 21
-514.36332225
 31
0.0
  0
LINE
  5
4B8
100
AcDbEntity
  8
Sc.1_5
 62
     9
  6
CONTINUOUS
370
    -2
100
AcDbLine
 10
1703.4492618
 20
-514.68634891
 30
0.0
 11
1703.66461261
 21
-514.36332291
 31
0.0
  0
LINE
  5
4B9
100
AcDbEntity
  8
Sc.1_5
 62
     9
  6
CONTINUOUS
370
    -2
100
AcDbLine
 10
1706.7825953
 20
-514.68634958
 30
0.0
 11
1706.99794611
 21
-514.36332358
 31
0.0
  0
LINE
  5
4BA
100
AcDbEntity
  8
Sc.1_5
 62
     9
  6
CONTINUOUS
370
    -2
100
AcDbLine
 10
1710.1159288
 20
-514.68635024
 30
0.0
 11
1710.33127961
 21
-514.36332425
 31
0.0
  0
LINE
  5
4BB
100
AcDbEntity
  8
Sc.1_5
 62
     9
  6
CONTINUOUS
370
    -2
100
AcDbLine
 10
1713.4492623
 20
-514.68635091
 30
0.0
 11
1713.66461311
 21
-514.36332491
 31
0.0
  0
LINE
  5
4BC
100
AcDbEntity
  8
Sc.1_5
 62
     9
  6
CONTINUOUS
370
    -2
100
AcDbLine
 10
1716.7825958
 20
-514.68635158
 30
0.0
 11
1716.99794661
 21
-514.36332558
 31
0.0
  0
LINE
  5
4BD
100
AcDbEntity
  8
Sc.1_5
 62
     9
  6
CONTINUOUS
370
    -2
100
AcDbLine
 10
1720.11592931
 20
-514.68635224
 30
0.0
 11
1720.33128012
 21
-514.36332625
 31
0.0
  0
LINE
  5
4BE
100
AcDbEntity
  8
Sc.1_5
 62
     9
  6
CONTINUOUS
370
    -2
100
AcDbLine
 10
1723.44926281
 20
-514.68635291
 30
0.0
 11
1723.66461362
 21
-514.36332691
 31
0.0
  0
LINE
  5
4BF
100
AcDbEntity
  8
Sc.1_5
 62
     9
  6
CONTINUOUS
370
    -2
100
AcDbLine
 10
1726.78259631
 20
-514.68635358
 30
0.0
 11
1726.99794712
 21
-514.36332758
 31
0.0
  0
LINE
  5
4C0
100
AcDbEntity
  8
Sc.1_5
 62
     9
  6
CONTINUOUS
370
    -2
100
AcDbLine
 10
1730.11592981
 20
-514.68635424
 30
0.0
 11
1730.33128062
 21
-514.36332825
 31
0.0
  0
LINE
  5
4C1
100
AcDbEntity
  8
Sc.1_5
 62
     9
  6
CONTINUOUS
370
    -2
100
AcDbLine
 10
1733.44926331
 20
-514.68635491
 30
0.0
 11
1733.66461412
 21
-514.36332891
 31
0.0
  0
LINE
  5
4C2
100
AcDbEntity
  8
Sc.1_5
 62
     9
  6
CONTINUOUS
370
    -2
100
AcDbLine
 10
1736.78259681
 20
-514.68635558
 30
0.0
 11
1736.99794762
 21
-514.36332958
 31
0.0
  0
LINE
  5
4C3
100
AcDbEntity
  8
Sc.1_5
 62
     9
  6
CONTINUOUS
370
    -2
100
AcDbLine
 10
1740.11593032
 20
-514.68635624
 30
0.0
 11
1740.33128112
 21
-514.36333025
 31
0.0
  0
LINE
  5
4C4
100
AcDbEntity
  8
Sc.1_5
 62
     9
  6
CONTINUOUS
370
    -2
100
AcDbLine
 10
1743.44926382
 20
-514.68635691
 30
0.0
 11
1743.66461463
 21
-514.36333091
 31
0.0
  0
LINE
  5
4C5
100
AcDbEntity
  8
Sc.1_5
 62
     9
  6
CONTINUOUS
370
    -2
100
AcDbLine
 10
1746.78259732
 20
-514.68635758
 30
0.0
 11
1746.99794813
 21
-514.36333158
 31
0.0
  0
LINE
  5
4C6
100
AcDbEntity
  8
Sc.1_5
 62
     9
  6
CONTINUOUS
370
    -2
100
AcDbLine
 10
1750.11593082
 20
-514.68635824
 30
0.0
 11
1750.33128163
 21
-514.36333225
 31
0.0
  0
LINE
  5
4C7
100
AcDbEntity
  8
Sc.1_5
 62
     9
  6
CONTINUOUS
370
    -2
100
AcDbLine
 10
1753.44926432
 20
-514.68635891
 30
0.0
 11
1753.66461513
 21
-514.36333291
 31
0.0
  0
LINE
  5
4C8
100
AcDbEntity
  8
Sc.1_5
 62
     9
  6
CONTINUOUS
370
    -2
100
AcDbLine
 10
1756.78259782
 20
-514.68635958
 30
0.0
 11
1756.99794863
 21
-514.36333358
 31
0.0
  0
LINE
  5
4C9
100
AcDbEntity
  8
Sc.1_5
 62
     9
  6
CONTINUOUS
370
    -2
100
AcDbLine
 10
1760.11593132
 20
-514.68636024
 30
0.0
 11
1760.33128213
 21
-514.36333425
 31
0.0
  0
LINE
  5
4CA
100
AcDbEntity
  8
Sc.1_5
 62
     9
  6
CONTINUOUS
370
    -2
100
AcDbLine
 10
1677.52551324
 20
-514.68634441
 30
0.0
 11
1677.31016266
 21
-514.36331826
 31
0.0
  0
LINE
  5
4CB
100
AcDbEntity
  8
Sc.1_5
 62
     9
  6
CONTINUOUS
370
    -2
100
AcDbLine
 10
1680.85884674
 20
-514.68634605
 30
0.0
 11
1680.64349616
 21
-514.3633199
 31
0.0
  0
LINE
  5
4CC
100
AcDbEntity
  8
Sc.1_5
 62
     9
  6
CONTINUOUS
370
    -2
100
AcDbLine
 10
1684.19218024
 20
-514.68634769
 30
0.0
 11
1683.97682966
 21
-514.36332155
 31
0.0
  0
LINE
  5
4CD
100
AcDbEntity
  8
Sc.1_5
 62
     9
  6
CONTINUOUS
370
    -2
100
AcDbLine
 10
1687.52551375
 20
-514.68634934
 30
0.0
 11
1687.31016316
 21
-514.36332319
 31
0.0
  0
LINE
  5
4CE
100
AcDbEntity
  8
Sc.1_5
 62
     9
  6
CONTINUOUS
370
    -2
100
AcDbLine
 10
1690.85884725
 20
-514.68635098
 30
0.0
 11
1690.64349666
 21
-514.36332483
 31
0.0
  0
LINE
  5
4CF
100
AcDbEntity
  8
Sc.1_5
 62
     9
  6
CONTINUOUS
370
    -2
100
AcDbLine
 10
1694.19218075
 20
-514.68635262
 30
0.0
 11
1693.97683016
 21
-514.36332648
 31
0.0
  0
LINE
  5
4D0
100
AcDbEntity
  8
Sc.1_5
 62
     9
  6
CONTINUOUS
370
    -2
100
AcDbLine
 10
1697.52551425
 20
-514.68635427
 30
0.0
 11
1697.31016366
 21
-514.36332812
 31
0.0
  0
LINE
  5
4D1
100
AcDbEntity
  8
Sc.1_5
 62
     9
  6
CONTINUOUS
370
    -2
100
AcDbLine
 10
1700.85884775
 20
-514.68635591
 30
0.0
 11
1700.64349717
 21
-514.36332976
 31
0.0
  0
LINE
  5
4D2
100
AcDbEntity
  8
Sc.1_5
 62
     9
  6
CONTINUOUS
370
    -2
100
AcDbLine
 10
1704.19218125
 20
-514.68635755
 30
0.0
 11
1703.97683067
 21
-514.36333141
 31
0.0
  0
LINE
  5
4D3
100
AcDbEntity
  8
Sc.1_5
 62
     9
  6
CONTINUOUS
370
    -2
100
AcDbLine
 10
1707.52551475
 20
-514.6863592
 30
0.0
 11
1707.31016417
 21
-514.36333305
 31
0.0
  0
LINE
  5
4D4
100
AcDbEntity
  8
Sc.1_5
 62
     9
  6
CONTINUOUS
370
    -2
100
AcDbLine
 10
1710.85884826
 20
-514.68636084
 30
0.0
 11
1710.64349767
 21
-514.36333469
 31
0.0
  0
LINE
  5
4D5
100
AcDbEntity
  8
Sc.1_5
 62
     9
  6
CONTINUOUS
370
    -2
100
AcDbLine
 10
1714.19218176
 20
-514.68636249
 30
0.0
 11
1713.97683117
 21
-514.36333634
 31
0.0
  0
LINE
  5
4D6
100
AcDbEntity
  8
Sc.1_5
 62
     9
  6
CONTINUOUS
370
    -2
100
AcDbLine
 10
1717.52551526
 20
-514.68636413
 30
0.0
 11
1717.31016467
 21
-514.36333798
 31
0.0
  0
LINE
  5
4D7
100
AcDbEntity
  8
Sc.1_5
 62
     9
  6
CONTINUOUS
370
    -2
100
AcDbLine
 10
1720.85884876
 20
-514.68636577
 30
0.0
 11
1720.64349818
 21
-514.36333962
 31
0.0
  0
LINE
  5
4D8
100
AcDbEntity
  8
Sc.1_5
 62
     9
  6
CONTINUOUS
370
    -2
100
AcDbLine
 10
1724.19218226
 20
-514.68636742
 30
0.0
 11
1723.97683168
 21
-514.36334127
 31
0.0
  0
LINE
  5
4D9
100
AcDbEntity
  8
Sc.1_5
 62
     9
  6
CONTINUOUS
370
    -2
100
AcDbLine
 10
1727.52551576
 20
-514.68636906
 30
0.0
 11
1727.31016518
 21
-514.36334291
 31
0.0
  0
LINE
  5
4DA
100
AcDbEntity
  8
Sc.1_5
 62
     9
  6
CONTINUOUS
370
    -2
100
AcDbLine
 10
1730.85884927
 20
-514.6863707
 30
0.0
 11
1730.64349868
 21
-514.36334456
 31
0.0
  0
LINE
  5
4DB
100
AcDbEntity
  8
Sc.1_5
 62
     9
  6
CONTINUOUS
370
    -2
100
AcDbLine
 10
1734.19218277
 20
-514.68637235
 30
0.0
 11
1733.97683218
 21
-514.3633462
 31
0.0
  0
LINE
  5
4DC
100
AcDbEntity
  8
Sc.1_5
 62
     9
  6
CONTINUOUS
370
    -2
100
AcDbLine
 10
1737.52551627
 20
-514.68637399
 30
0.0
 11
1737.31016568
 21
-514.36334784
 31
0.0
  0
LINE
  5
4DD
100
AcDbEntity
  8
Sc.1_5
 62
     9
  6
CONTINUOUS
370
    -2
100
AcDbLine
 10
1740.85884977
 20
-514.68637563
 30
0.0
 11
1740.64349918
 21
-514.36334949
 31
0.0
  0
LINE
  5
4DE
100
AcDbEntity
  8
Sc.1_5
 62
     9
  6
CONTINUOUS
370
    -2
100
AcDbLine
 10
1744.19218327
 20
-514.68637728
 30
0.0
 11
1743.97683269
 21
-514.36335113
 31
0.0
  0
LINE
  5
4DF
100
AcDbEntity
  8
Sc.1_5
 62
     9
  6
CONTINUOUS
370
    -2
100
AcDbLine
 10
1747.52551677
 20
-514.68637892
 30
0.0
 11
1747.31016619
 21
-514.36335277
 31
0.0
  0
LINE
  5
4E0
100
AcDbEntity
  8
Sc.1_5
 62
     9
  6
CONTINUOUS
370
    -2
100
AcDbLine
 10
1750.85885027
 20
-514.68638056
 30
0.0
 11
1750.64349969
 21
-514.36335442
 31
0.0
  0
LINE
  5
4E1
100
AcDbEntity
  8
Sc.1_5
 62
     9
  6
CONTINUOUS
370
    -2
100
AcDbLine
 10
1754.19218378
 20
-514.68638221
 30
0.0
 11
1753.97683319
 21
-514.36335606
 31
0.0
  0
LINE
  5
4E2
100
AcDbEntity
  8
Sc.1_5
 62
     9
  6
CONTINUOUS
370
    -2
100
AcDbLine
 10
1757.52551728
 20
-514.68638385
 30
0.0
 11
1757.31016669
 21
-514.3633577
 31
0.0
  0
LINE
  5
4E3
100
AcDbEntity
  8
Sc.1_5
 62
     9
  6
CONTINUOUS
370
    -2
100
AcDbLine
 10
1760.85885078
 20
-514.68638549
 30
0.0
 11
1760.64350019
 21
-514.36335935
 31
0.0
  0
LINE
  5
4E4
100
AcDbEntity
  8
Sc.1_5
 62
     9
  6
CONTINUOUS
370
    -2
100
AcDbLine
 10
1675.64349842
 20
-506.21907165
 30
0.0
 11
1675.85884923
 21
-505.89604566
 31
0.0
  0
LINE
  5
4E5
100
AcDbEntity
  8
Sc.1_5
 62
     9
  6
CONTINUOUS
370
    -2
100
AcDbLine
 10
1678.97683192
 20
-506.21907232
 30
0.0
 11
1679.19218273
 21
-505.89604632
 31
0.0
  0
LINE
  5
4E6
100
AcDbEntity
  8
Sc.1_5
 62
     9
  6
CONTINUOUS
370
    -2
100
AcDbLine
 10
1682.31016542
 20
-506.21907299
 30
0.0
 11
1682.52551623
 21
-505.89604699
 31
0.0
  0
LINE
  5
4E7
100
AcDbEntity
  8
Sc.1_5
 62
     9
  6
CONTINUOUS
370
    -2
100
AcDbLine
 10
1685.64349892
 20
-506.21907365
 30
0.0
 11
1685.85884973
 21
-505.89604766
 31
0.0
  0
LINE
  5
4E8
100
AcDbEntity
  8
Sc.1_5
 62
     9
  6
CONTINUOUS
370
    -2
100
AcDbLine
 10
1688.97683243
 20
-506.21907432
 30
0.0
 11
1689.19218324
 21
-505.89604832
 31
0.0
  0
LINE
  5
4E9
100
AcDbEntity
  8
Sc.1_5
 62
     9
  6
CONTINUOUS
370
    -2
100
AcDbLine
 10
1692.31016593
 20
-506.21907499
 30
0.0
 11
1692.52551674
 21
-505.89604899
 31
0.0
  0
LINE
  5
4EA
100
AcDbEntity
  8
Sc.1_5
 62
     9
  6
CONTINUOUS
370
    -2
100
AcDbLine
 10
1695.64349943
 20
-506.21907565
 30
0.0
 11
1695.85885024
 21
-505.89604966
 31
0.0
  0
LINE
  5
4EB
100
AcDbEntity
  8
Sc.1_5
 62
     9
  6
CONTINUOUS
370
    -2
100
AcDbLine
 10
1698.97683293
 20
-506.21907632
 30
0.0
 11
1699.19218374
 21
-505.89605032
 31
0.0
  0
LINE
  5
4EC
100
AcDbEntity
  8
Sc.1_5
 62
     9
  6
CONTINUOUS
370
    -2
100
AcDbLine
 10
1702.31016643
 20
-506.21907699
 30
0.0
 11
1702.52551724
 21
-505.89605099
 31
0.0
  0
LINE
  5
4ED
100
AcDbEntity
  8
Sc.1_5
 62
     9
  6
CONTINUOUS
370
    -2
100
AcDbLine
 10
1705.64349993
 20
-506.21907765
 30
0.0
 11
1705.85885074
 21
-505.89605166
 31
0.0
  0
LINE
  5
4EE
100
AcDbEntity
  8
Sc.1_5
 62
     9
  6
CONTINUOUS
370
    -2
100
AcDbLine
 10
1708.97683344
 20
-506.21907832
 30
0.0
 11
1709.19218424
 21
-505.89605232
 31
0.0
  0
LINE
  5
4EF
100
AcDbEntity
  8
Sc.1_5
 62
     9
  6
CONTINUOUS
370
    -2
100
AcDbLine
 10
1712.31016694
 20
-506.21907899
 30
0.0
 11
1712.52551775
 21
-505.89605299
 31
0.0
  0
LINE
  5
4F0
100
AcDbEntity
  8
Sc.1_5
 62
     9
  6
CONTINUOUS
370
    -2
100
AcDbLine
 10
1715.64350044
 20
-506.21907965
 30
0.0
 11
1715.85885125
 21
-505.89605366
 31
0.0
  0
LINE
  5
4F1
100
AcDbEntity
  8
Sc.1_5
 62
     9
  6
CONTINUOUS
370
    -2
100
AcDbLine
 10
1718.97683394
 20
-506.21908032
 30
0.0
 11
1719.19218475
 21
-505.89605432
 31
0.0
  0
LINE
  5
4F2
100
AcDbEntity
  8
Sc.1_5
 62
     9
  6
CONTINUOUS
370
    -2
100
AcDbLine
 10
1722.31016744
 20
-506.21908099
 30
0.0
 11
1722.52551825
 21
-505.89605499
 31
0.0
  0
LINE
  5
4F3
100
AcDbEntity
  8
Sc.1_5
 62
     9
  6
CONTINUOUS
370
    -2
100
AcDbLine
 10
1725.64350094
 20
-506.21908165
 30
0.0
 11
1725.85885175
 21
-505.89605566
 31
0.0
  0
LINE
  5
4F4
100
AcDbEntity
  8
Sc.1_5
 62
     9
  6
CONTINUOUS
370
    -2
100
AcDbLine
 10
1728.97683444
 20
-506.21908232
 30
0.0
 11
1729.19218525
 21
-505.89605632
 31
0.0
  0
LINE
  5
4F5
100
AcDbEntity
  8
Sc.1_5
 62
     9
  6
CONTINUOUS
370
    -2
100
AcDbLine
 10
1732.31016795
 20
-506.21908299
 30
0.0
 11
1732.52551876
 21
-505.89605699
 31
0.0
  0
LINE
  5
4F6
100
AcDbEntity
  8
Sc.1_5
 62
     9
  6
CONTINUOUS
370
    -2
100
AcDbLine
 10
1735.64350145
 20
-506.21908365
 30
0.0
 11
1735.85885226
 21
-505.89605766
 31
0.0
  0
LINE
  5
4F7
100
AcDbEntity
  8
Sc.1_5
 62
     9
  6
CONTINUOUS
370
    -2
100
AcDbLine
 10
1738.97683495
 20
-506.21908432
 30
0.0
 11
1739.19218576
 21
-505.89605832
 31
0.0
  0
LINE
  5
4F8
100
AcDbEntity
  8
Sc.1_5
 62
     9
  6
CONTINUOUS
370
    -2
100
AcDbLine
 10
1742.31016845
 20
-506.21908499
 30
0.0
 11
1742.52551926
 21
-505.89605899
 31
0.0
  0
LINE
  5
4F9
100
AcDbEntity
  8
Sc.1_5
 62
     9
  6
CONTINUOUS
370
    -2
100
AcDbLine
 10
1745.64350195
 20
-506.21908565
 30
0.0
 11
1745.85885276
 21
-505.89605966
 31
0.0
  0
LINE
  5
4FA
100
AcDbEntity
  8
Sc.1_5
 62
     9
  6
CONTINUOUS
370
    -2
100
AcDbLine
 10
1748.97683545
 20
-506.21908632
 30
0.0
 11
1749.19218626
 21
-505.89606032
 31
0.0
  0
LINE
  5
4FB
100
AcDbEntity
  8
Sc.1_5
 62
     9
  6
CONTINUOUS
370
    -2
100
AcDbLine
 10
1752.31016896
 20
-506.21908699
 30
0.0
 11
1752.52551976
 21
-505.89606099
 31
0.0
  0
LINE
  5
4FC
100
AcDbEntity
  8
Sc.1_5
 62
     9
  6
CONTINUOUS
370
    -2
100
AcDbLine
 10
1755.64350246
 20
-506.21908765
 30
0.0
 11
1755.85885327
 21
-505.89606166
 31
0.0
  0
LINE
  5
4FD
100
AcDbEntity
  8
Sc.1_5
 62
     9
  6
CONTINUOUS
370
    -2
100
AcDbLine
 10
1758.97683596
 20
-506.21908832
 30
0.0
 11
1759.19218677
 21
-505.89606232
 31
0.0
  0
LINE
  5
4FE
100
AcDbEntity
  8
Sc.1_5
 62
     9
  6
CONTINUOUS
370
    -2
100
AcDbLine
 10
1762.31016946
 20
-506.21908899
 30
0.0
 11
1762.4873871
 21
-505.95326271
 31
0.0
  0
LINE
  5
4FF
100
AcDbEntity
  8
Sc.1_5
 62
     9
  6
CONTINUOUS
370
    -2
100
AcDbLine
 10
1761.78260106
 20
-505.89608141
 30
0.0
 11
1761.99795167
 21
-506.21910754
 31
0.0
  0
LINE
  5
500
100
AcDbEntity
  8
Sc.1_5
 62
     9
  6
CONTINUOUS
370
    -2
100
AcDbLine
 10
1758.44926756
 20
-505.89607999
 30
0.0
 11
1758.66461817
 21
-506.21910612
 31
0.0
  0
LINE
  5
501
100
AcDbEntity
  8
Sc.1_5
 62
     9
  6
CONTINUOUS
370
    -2
100
AcDbLine
 10
1755.11593406
 20
-505.89607857
 30
0.0
 11
1755.33128467
 21
-506.2191047
 31
0.0
  0
LINE
  5
502
100
AcDbEntity
  8
Sc.1_5
 62
     9
  6
CONTINUOUS
370
    -2
100
AcDbLine
 10
1751.78260056
 20
-505.89607715
 30
0.0
 11
1751.99795116
 21
-506.21910328
 31
0.0
  0
LINE
  5
503
100
AcDbEntity
  8
Sc.1_5
 62
     9
  6
CONTINUOUS
370
    -2
100
AcDbLine
 10
1748.44926706
 20
-505.89607572
 30
0.0
 11
1748.66461766
 21
-506.21910186
 31
0.0
  0
LINE
  5
504
100
AcDbEntity
  8
Sc.1_5
 62
     9
  6
CONTINUOUS
370
    -2
100
AcDbLine
 10
1745.11593355
 20
-505.8960743
 30
0.0
 11
1745.33128416
 21
-506.21910044
 31
0.0
  0
LINE
  5
505
100
AcDbEntity
  8
Sc.1_5
 62
     9
  6
CONTINUOUS
370
    -2
100
AcDbLine
 10
1741.78260005
 20
-505.89607288
 30
0.0
 11
1741.99795066
 21
-506.21909901
 31
0.0
  0
LINE
  5
506
100
AcDbEntity
  8
Sc.1_5
 62
     9
  6
CONTINUOUS
370
    -2
100
AcDbLine
 10
1738.44926655
 20
-505.89607146
 30
0.0
 11
1738.66461716
 21
-506.21909759
 31
0.0
  0
LINE
  5
507
100
AcDbEntity
  8
Sc.1_5
 62
     9
  6
CONTINUOUS
370
    -2
100
AcDbLine
 10
1735.11593305
 20
-505.89607004
 30
0.0
 11
1735.33128366
 21
-506.21909617
 31
0.0
  0
LINE
  5
508
100
AcDbEntity
  8
Sc.1_5
 62
     9
  6
CONTINUOUS
370
    -2
100
AcDbLine
 10
1731.78259955
 20
-505.89606862
 30
0.0
 11
1731.99795016
 21
-506.21909475
 31
0.0
  0
LINE
  5
509
100
AcDbEntity
  8
Sc.1_5
 62
     9
  6
CONTINUOUS
370
    -2
100
AcDbLine
 10
1728.44926605
 20
-505.8960672
 30
0.0
 11
1728.66461665
 21
-506.21909333
 31
0.0
  0
LINE
  5
50A
100
AcDbEntity
  8
Sc.1_5
 62
     9
  6
CONTINUOUS
370
    -2
100
AcDbLine
 10
1725.11593255
 20
-505.89606577
 30
0.0
 11
1725.33128315
 21
-506.21909191
 31
0.0
  0
LINE
  5
50B
100
AcDbEntity
  8
Sc.1_5
 62
     9
  6
CONTINUOUS
370
    -2
100
AcDbLine
 10
1721.78259904
 20
-505.89606435
 30
0.0
 11
1721.99794965
 21
-506.21909049
 31
0.0
  0
LINE
  5
50C
100
AcDbEntity
  8
Sc.1_5
 62
     9
  6
CONTINUOUS
370
    -2
100
AcDbLine
 10
1718.44926554
 20
-505.89606293
 30
0.0
 11
1718.66461615
 21
-506.21908906
 31
0.0
  0
LINE
  5
50D
100
AcDbEntity
  8
Sc.1_5
 62
     9
  6
CONTINUOUS
370
    -2
100
AcDbLine
 10
1715.11593204
 20
-505.89606151
 30
0.0
 11
1715.33128265
 21
-506.21908764
 31
0.0
  0
LINE
  5
50E
100
AcDbEntity
  8
Sc.1_5
 62
     9
  6
CONTINUOUS
370
    -2
100
AcDbLine
 10
1711.78259854
 20
-505.89606009
 30
0.0
 11
1711.99794915
 21
-506.21908622
 31
0.0
  0
LINE
  5
50F
100
AcDbEntity
  8
Sc.1_5
 62
     9
  6
CONTINUOUS
370
    -2
100
AcDbLine
 10
1708.44926504
 20
-505.89605867
 30
0.0
 11
1708.66461564
 21
-506.2190848
 31
0.0
  0
LINE
  5
510
100
AcDbEntity
  8
Sc.1_5
 62
     9
  6
CONTINUOUS
370
    -2
100
AcDbLine
 10
1705.11593154
 20
-505.89605725
 30
0.0
 11
1705.33128214
 21
-506.21908338
 31
0.0
  0
LINE
  5
511
100
AcDbEntity
  8
Sc.1_5
 62
     9
  6
CONTINUOUS
370
    -2
100
AcDbLine
 10
1701.78259803
 20
-505.89605582
 30
0.0
 11
1701.99794864
 21
-506.21908196
 31
0.0
  0
LINE
  5
512
100
AcDbEntity
  8
Sc.1_5
 62
     9
  6
CONTINUOUS
370
    -2
100
AcDbLine
 10
1698.44926453
 20
-505.8960544
 30
0.0
 11
1698.66461514
 21
-506.21908054
 31
0.0
  0
LINE
  5
513
100
AcDbEntity
  8
Sc.1_5
 62
     9
  6
CONTINUOUS
370
    -2
100
AcDbLine
 10
1695.11593103
 20
-505.89605298
 30
0.0
 11
1695.33128164
 21
-506.21907911
 31
0.0
  0
LINE
  5
514
100
AcDbEntity
  8
Sc.1_5
 62
     9
  6
CONTINUOUS
370
    -2
100
AcDbLine
 10
1691.78259753
 20
-505.89605156
 30
0.0
 11
1691.99794814
 21
-506.21907769
 31
0.0
  0
LINE
  5
515
100
AcDbEntity
  8
Sc.1_5
 62
     9
  6
CONTINUOUS
370
    -2
100
AcDbLine
 10
1688.44926403
 20
-505.89605014
 30
0.0
 11
1688.66461464
 21
-506.21907627
 31
0.0
  0
LINE
  5
516
100
AcDbEntity
  8
Sc.1_5
 62
     9
  6
CONTINUOUS
370
    -2
100
AcDbLine
 10
1685.11593053
 20
-505.89604872
 30
0.0
 11
1685.33128113
 21
-506.21907485
 31
0.0
  0
LINE
  5
517
100
AcDbEntity
  8
Sc.1_5
 62
     9
  6
CONTINUOUS
370
    -2
100
AcDbLine
 10
1681.78259703
 20
-505.8960473
 30
0.0
 11
1681.99794763
 21
-506.21907343
 31
0.0
  0
LINE
  5
518
100
AcDbEntity
  8
Sc.1_5
 62
     9
  6
CONTINUOUS
370
    -2
100
AcDbLine
 10
1678.44926352
 20
-505.89604587
 30
0.0
 11
1678.66461413
 21
-506.21907201
 31
0.0
  0
LINE
  5
519
100
AcDbEntity
  8
Sc.1_5
 62
     9
  6
CONTINUOUS
370
    -2
100
AcDbLine
 10
1676.99794487
 20
-514.36331764
 30
0.0
 11
1677.15405404
 21
-513.8949907
 31
0.0
  0
LINE
  5
51A
100
AcDbEntity
  8
Sc.1_5
 62
     9
  6
CONTINUOUS
370
    -2
100
AcDbLine
 10
1680.33127861
 20
-514.36331852
 30
0.0
 11
1680.48738778
 21
-513.89499158
 31
0.0
  0
LINE
  5
51B
100
AcDbEntity
  8
Sc.1_5
 62
     9
  6
CONTINUOUS
370
    -2
100
AcDbLine
 10
1683.66461235
 20
-514.3633194
 30
0.0
 11
1683.82072152
 21
-513.89499245
 31
0.0
  0
LINE
  5
51C
100
AcDbEntity
  8
Sc.1_5
 62
     9
  6
CONTINUOUS
370
    -2
100
AcDbLine
 10
1686.99794609
 20
-514.36332027
 30
0.0
 11
1687.15405526
 21
-513.89499333
 31
0.0
  0
LINE
  5
51D
100
AcDbEntity
  8
Sc.1_5
 62
     9
  6
CONTINUOUS
370
    -2
100
AcDbLine
 10
1690.33127983
 20
-514.36332115
 30
0.0
 11
1690.487389
 21
-513.89499421
 31
0.0
  0
LINE
  5
51E
100
AcDbEntity
  8
Sc.1_5
 62
     9
  6
CONTINUOUS
370
    -2
100
AcDbLine
 10
1693.66461356
 20
-514.36332203
 30
0.0
 11
1693.82072273
 21
-513.89499508
 31
0.0
  0
LINE
  5
51F
100
AcDbEntity
  8
Sc.1_5
 62
     9
  6
CONTINUOUS
370
    -2
100
AcDbLine
 10
1696.9979473
 20
-514.3633229
 30
0.0
 11
1697.15405647
 21
-513.89499596
 31
0.0
  0
LINE
  5
520
100
AcDbEntity
  8
Sc.1_5
 62
     9
  6
CONTINUOUS
370
    -2
100
AcDbLine
 10
1700.33128104
 20
-514.36332378
 30
0.0
 11
1700.48739021
 21
-513.89499684
 31
0.0
  0
LINE
  5
521
100
AcDbEntity
  8
Sc.1_5
 62
     9
  6
CONTINUOUS
370
    -2
100
AcDbLine
 10
1703.66461478
 20
-514.36332466
 30
0.0
 11
1703.82072395
 21
-513.89499772
 31
0.0
  0
LINE
  5
522
100
AcDbEntity
  8
Sc.1_5
 62
     9
  6
CONTINUOUS
370
    -2
100
AcDbLine
 10
1706.99794852
 20
-514.36332553
 30
0.0
 11
1707.15405769
 21
-513.89499859
 31
0.0
  0
LINE
  5
523
100
AcDbEntity
  8
Sc.1_5
 62
     9
  6
CONTINUOUS
370
    -2
100
AcDbLine
 10
1710.33128225
 20
-514.36332641
 30
0.0
 11
1710.48739143
 21
-513.89499947
 31
0.0
  0
LINE
  5
524
100
AcDbEntity
  8
Sc.1_5
 62
     9
  6
CONTINUOUS
370
    -2
100
AcDbLine
 10
1713.66461599
 20
-514.36332729
 30
0.0
 11
1713.82072516
 21
-513.89500035
 31
0.0
  0
LINE
  5
525
100
AcDbEntity
  8
Sc.1_5
 62
     9
  6
CONTINUOUS
370
    -2
100
AcDbLine
 10
1716.99794973
 20
-514.36332817
 30
0.0
 11
1717.1540589
 21
-513.89500122
 31
0.0
  0
LINE
  5
526
100
AcDbEntity
  8
Sc.1_5
 62
     9
  6
CONTINUOUS
370
    -2
100
AcDbLine
 10
1720.33128347
 20
-514.36332904
 30
0.0
 11
1720.48739264
 21
-513.8950021
 31
0.0
  0
LINE
  5
527
100
AcDbEntity
  8
Sc.1_5
 62
     9
  6
CONTINUOUS
370
    -2
100
AcDbLine
 10
1723.66461721
 20
-514.36332992
 30
0.0
 11
1723.82072638
 21
-513.89500298
 31
0.0
  0
LINE
  5
528
100
AcDbEntity
  8
Sc.1_5
 62
     9
  6
CONTINUOUS
370
    -2
100
AcDbLine
 10
1726.99795095
 20
-514.3633308
 30
0.0
 11
1727.15406012
 21
-513.89500385
 31
0.0
  0
LINE
  5
529
100
AcDbEntity
  8
Sc.1_5
 62
     9
  6
CONTINUOUS
370
    -2
100
AcDbLine
 10
1730.33128468
 20
-514.36333167
 30
0.0
 11
1730.48739385
 21
-513.89500473
 31
0.0
  0
LINE
  5
52A
100
AcDbEntity
  8
Sc.1_5
 62
     9
  6
CONTINUOUS
370
    -2
100
AcDbLine
 10
1733.66461842
 20
-514.36333255
 30
0.0
 11
1733.82072759
 21
-513.89500561
 31
0.0
  0
LINE
  5
52B
100
AcDbEntity
  8
Sc.1_5
 62
     9
  6
CONTINUOUS
370
    -2
100
AcDbLine
 10
1736.99795216
 20
-514.36333343
 30
0.0
 11
1737.15406133
 21
-513.89500649
 31
0.0
  0
LINE
  5
52C
100
AcDbEntity
  8
Sc.1_5
 62
     9
  6
CONTINUOUS
370
    -2
100
AcDbLine
 10
1740.3312859
 20
-514.3633343
 30
0.0
 11
1740.48739507
 21
-513.89500736
 31
0.0
  0
LINE
  5
52D
100
AcDbEntity
  8
Sc.1_5
 62
     9
  6
CONTINUOUS
370
    -2
100
AcDbLine
 10
1743.66461964
 20
-514.36333518
 30
0.0
 11
1743.82072881
 21
-513.89500824
 31
0.0
  0
LINE
  5
52E
100
AcDbEntity
  8
Sc.1_5
 62
     9
  6
CONTINUOUS
370
    -2
100
AcDbLine
 10
1746.99795337
 20
-514.36333606
 30
0.0
 11
1747.15406255
 21
-513.89500912
 31
0.0
  0
LINE
  5
52F
100
AcDbEntity
  8
Sc.1_5
 62
     9
  6
CONTINUOUS
370
    -2
100
AcDbLine
 10
1750.33128711
 20
-514.36333694
 30
0.0
 11
1750.48739628
 21
-513.89500999
 31
0.0
  0
LINE
  5
530
100
AcDbEntity
  8
Sc.1_5
 62
     9
  6
CONTINUOUS
370
    -2
100
AcDbLine
 10
1753.66462085
 20
-514.36333781
 30
0.0
 11
1753.82073002
 21
-513.89501087
 31
0.0
  0
LINE
  5
531
100
AcDbEntity
  8
Sc.1_5
 62
     9
  6
CONTINUOUS
370
    -2
100
AcDbLine
 10
1756.99795459
 20
-514.36333869
 30
0.0
 11
1757.15406376
 21
-513.89501175
 31
0.0
  0
LINE
  5
532
100
AcDbEntity
  8
Sc.1_5
 62
     9
  6
CONTINUOUS
370
    -2
100
AcDbLine
 10
1760.33128833
 20
-514.36333957
 30
0.0
 11
1760.4873975
 21
-513.89501262
 31
0.0
  0
LINE
  5
533
100
AcDbEntity
  8
Sc.1_5
 62
     9
  6
CONTINUOUS
370
    -2
100
AcDbLine
 10
1677.31016259
 20
-514.36331791
 30
0.0
 11
1677.15405372
 21
-513.89499087
 31
0.0
  0
LINE
  5
534
100
AcDbEntity
  8
Sc.1_5
 62
     9
  6
CONTINUOUS
370
    -2
100
AcDbLine
 10
1680.64349633
 20
-514.36331912
 30
0.0
 11
1680.48738745
 21
-513.89499208
 31
0.0
  0
LINE
  5
535
100
AcDbEntity
  8
Sc.1_5
 62
     9
  6
CONTINUOUS
370
    -2
100
AcDbLine
 10
1683.97683007
 20
-514.36332033
 30
0.0
 11
1683.82072119
 21
-513.89499329
 31
0.0
  0
LINE
  5
536
100
AcDbEntity
  8
Sc.1_5
 62
     9
  6
CONTINUOUS
370
    -2
100
AcDbLine
 10
1687.31016381
 20
-514.36332154
 30
0.0
 11
1687.15405493
 21
-513.8949945
 31
0.0
  0
LINE
  5
537
100
AcDbEntity
  8
Sc.1_5
 62
     9
  6
CONTINUOUS
370
    -2
100
AcDbLine
 10
1690.64349755
 20
-514.36332275
 30
0.0
 11
1690.48738867
 21
-513.89499571
 31
0.0
  0
LINE
  5
538
100
AcDbEntity
  8
Sc.1_5
 62
     9
  6
CONTINUOUS
370
    -2
100
AcDbLine
 10
1693.97683128
 20
-514.36332396
 30
0.0
 11
1693.82072241
 21
-513.89499692
 31
0.0
  0
LINE
  5
539
100
AcDbEntity
  8
Sc.1_5
 62
     9
  6
CONTINUOUS
370
    -2
100
AcDbLine
 10
1697.31016502
 20
-514.36332517
 30
0.0
 11
1697.15405614
 21
-513.89499813
 31
0.0
  0
LINE
  5
53A
100
AcDbEntity
  8
Sc.1_5
 62
     9
  6
CONTINUOUS
370
    -2
100
AcDbLine
 10
1700.64349876
 20
-514.36332639
 30
0.0
 11
1700.48738988
 21
-513.89499934
 31
0.0
  0
LINE
  5
53B
100
AcDbEntity
  8
Sc.1_5
 62
     9
  6
CONTINUOUS
370
    -2
100
AcDbLine
 10
1703.9768325
 20
-514.3633276
 30
0.0
 11
1703.82072362
 21
-513.89500056
 31
0.0
  0
LINE
  5
53C
100
AcDbEntity
  8
Sc.1_5
 62
     9
  6
CONTINUOUS
370
    -2
100
AcDbLine
 10
1707.31016624
 20
-514.36332881
 30
0.0
 11
1707.15405736
 21
-513.89500177
 31
0.0
  0
LINE
  5
53D
100
AcDbEntity
  8
Sc.1_5
 62
     9
  6
CONTINUOUS
370
    -2
100
AcDbLine
 10
1710.64349997
 20
-514.36333002
 30
0.0
 11
1710.4873911
 21
-513.89500298
 31
0.0
  0
LINE
  5
53E
100
AcDbEntity
  8
Sc.1_5
 62
     9
  6
CONTINUOUS
370
    -2
100
AcDbLine
 10
1713.97683371
 20
-514.36333123
 30
0.0
 11
1713.82072484
 21
-513.89500419
 31
0.0
  0
LINE
  5
53F
100
AcDbEntity
  8
Sc.1_5
 62
     9
  6
CONTINUOUS
370
    -2
100
AcDbLine
 10
1717.31016745
 20
-514.36333244
 30
0.0
 11
1717.15405857
 21
-513.8950054
 31
0.0
  0
LINE
  5
540
100
AcDbEntity
  8
Sc.1_5
 62
     9
  6
CONTINUOUS
370
    -2
100
AcDbLine
 10
1720.64350119
 20
-514.36333365
 30
0.0
 11
1720.48739231
 21
-513.89500661
 31
0.0
  0
LINE
  5
541
100
AcDbEntity
  8
Sc.1_5
 62
     9
  6
CONTINUOUS
370
    -2
100
AcDbLine
 10
1723.97683493
 20
-514.36333486
 30
0.0
 11
1723.82072605
 21
-513.89500782
 31
0.0
  0
LINE
  5
542
100
AcDbEntity
  8
Sc.1_5
 62
     9
  6
CONTINUOUS
370
    -2
100
AcDbLine
 10
1727.31016867
 20
-514.36333607
 30
0.0
 11
1727.15405979
 21
-513.89500903
 31
0.0
  0
LINE
  5
543
100
AcDbEntity
  8
Sc.1_5
 62
     9
  6
CONTINUOUS
370
    -2
100
AcDbLine
 10
1730.6435024
 20
-514.36333729
 30
0.0
 11
1730.48739353
 21
-513.89501025
 31
0.0
  0
LINE
  5
544
100
AcDbEntity
  8
Sc.1_5
 62
     9
  6
CONTINUOUS
370
    -2
100
AcDbLine
 10
1733.97683614
 20
-514.3633385
 30
0.0
 11
1733.82072726
 21
-513.89501146
 31
0.0
  0
LINE
  5
545
100
AcDbEntity
  8
Sc.1_5
 62
     9
  6
CONTINUOUS
370
    -2
100
AcDbLine
 10
1737.31016988
 20
-514.36333971
 30
0.0
 11
1737.154061
 21
-513.89501267
 31
0.0
  0
LINE
  5
546
100
AcDbEntity
  8
Sc.1_5
 62
     9
  6
CONTINUOUS
370
    -2
100
AcDbLine
 10
1740.64350362
 20
-514.36334092
 30
0.0
 11
1740.48739474
 21
-513.89501388
 31
0.0
  0
LINE
  5
547
100
AcDbEntity
  8
Sc.1_5
 62
     9
  6
CONTINUOUS
370
    -2
100
AcDbLine
 10
1743.97683736
 20
-514.36334213
 30
0.0
 11
1743.82072848
 21
-513.89501509
 31
0.0
  0
LINE
  5
548
100
AcDbEntity
  8
Sc.1_5
 62
     9
  6
CONTINUOUS
370
    -2
100
AcDbLine
 10
1747.31017109
 20
-514.36334334
 30
0.0
 11
1747.15406222
 21
-513.8950163
 31
0.0
  0
LINE
  5
549
100
AcDbEntity
  8
Sc.1_5
 62
     9
  6
CONTINUOUS
370
    -2
100
AcDbLine
 10
1750.64350483
 20
-514.36334455
 30
0.0
 11
1750.48739595
 21
-513.89501751
 31
0.0
  0
LINE
  5
54A
100
AcDbEntity
  8
Sc.1_5
 62
     9
  6
CONTINUOUS
370
    -2
100
AcDbLine
 10
1753.97683857
 20
-514.36334576
 30
0.0
 11
1753.82072969
 21
-513.89501872
 31
0.0
  0
LINE
  5
54B
100
AcDbEntity
  8
Sc.1_5
 62
     9
  6
CONTINUOUS
370
    -2
100
AcDbLine
 10
1757.31017231
 20
-514.36334698
 30
0.0
 11
1757.15406343
 21
-513.89501994
 31
0.0
  0
LINE
  5
54C
100
AcDbEntity
  8
Sc.1_5
 62
     9
  6
CONTINUOUS
370
    -2
100
AcDbLine
 10
1760.64350605
 20
-514.36334819
 30
0.0
 11
1760.48739717
 21
-513.89502115
 31
0.0
  0
LINE
  5
54D
100
AcDbEntity
  8
Sc.1_5
 62
     9
  6
CONTINUOUS
370
    -2
100
AcDbLine
 10
1675.48738927
 20
-506.68739817
 30
0.0
 11
1675.64349844
 21
-506.21907123
 31
0.0
  0
LINE
  5
54E
100
AcDbEntity
  8
Sc.1_5
 62
     9
  6
CONTINUOUS
370
    -2
100
AcDbLine
 10
1678.82072301
 20
-506.68739905
 30
0.0
 11
1678.97683218
 21
-506.21907211
 31
0.0
  0
LINE
  5
54F
100
AcDbEntity
  8
Sc.1_5
 62
     9
  6
CONTINUOUS
370
    -2
100
AcDbLine
 10
1682.15405674
 20
-506.68739993
 30
0.0
 11
1682.31016592
 21
-506.21907298
 31
0.0
  0
LINE
  5
550
100
AcDbEntity
  8
Sc.1_5
 62
     9
  6
CONTINUOUS
370
    -2
100
AcDbLine
 10
1685.48739048
 20
-506.6874008
 30
0.0
 11
1685.64349965
 21
-506.21907386
 31
0.0
  0
LINE
  5
551
100
AcDbEntity
  8
Sc.1_5
 62
     9
  6
CONTINUOUS
370
    -2
100
AcDbLine
 10
1688.82072422
 20
-506.68740168
 30
0.0
 11
1688.97683339
 21
-506.21907474
 31
0.0
  0
LINE
  5
552
100
AcDbEntity
  8
Sc.1_5
 62
     9
  6
CONTINUOUS
370
    -2
100
AcDbLine
 10
1692.15405796
 20
-506.68740256
 30
0.0
 11
1692.31016713
 21
-506.21907561
 31
0.0
  0
LINE
  5
553
100
AcDbEntity
  8
Sc.1_5
 62
     9
  6
CONTINUOUS
370
    -2
100
AcDbLine
 10
1695.4873917
 20
-506.68740343
 30
0.0
 11
1695.64350087
 21
-506.21907649
 31
0.0
  0
LINE
  5
554
100
AcDbEntity
  8
Sc.1_5
 62
     9
  6
CONTINUOUS
370
    -2
100
AcDbLine
 10
1698.82072544
 20
-506.68740431
 30
0.0
 11
1698.97683461
 21
-506.21907737
 31
0.0
  0
LINE
  5
555
100
AcDbEntity
  8
Sc.1_5
 62
     9
  6
CONTINUOUS
370
    -2
100
AcDbLine
 10
1702.15405917
 20
-506.68740519
 30
0.0
 11
1702.31016834
 21
-506.21907825
 31
0.0
  0
LINE
  5
556
100
AcDbEntity
  8
Sc.1_5
 62
     9
  6
CONTINUOUS
370
    -2
100
AcDbLine
 10
1705.48739291
 20
-506.68740607
 30
0.0
 11
1705.64350208
 21
-506.21907912
 31
0.0
  0
LINE
  5
557
100
AcDbEntity
  8
Sc.1_5
 62
     9
  6
CONTINUOUS
370
    -2
100
AcDbLine
 10
1708.82072665
 20
-506.68740694
 30
0.0
 11
1708.97683582
 21
-506.21908
 31
0.0
  0
LINE
  5
558
100
AcDbEntity
  8
Sc.1_5
 62
     9
  6
CONTINUOUS
370
    -2
100
AcDbLine
 10
1712.15406039
 20
-506.68740782
 30
0.0
 11
1712.31016956
 21
-506.21908088
 31
0.0
  0
LINE
  5
559
100
AcDbEntity
  8
Sc.1_5
 62
     9
  6
CONTINUOUS
370
    -2
100
AcDbLine
 10
1715.48739413
 20
-506.6874087
 30
0.0
 11
1715.6435033
 21
-506.21908175
 31
0.0
  0
LINE
  5
55A
100
AcDbEntity
  8
Sc.1_5
 62
     9
  6
CONTINUOUS
370
    -2
100
AcDbLine
 10
1718.82072786
 20
-506.68740957
 30
0.0
 11
1718.97683704
 21
-506.21908263
 31
0.0
  0
LINE
  5
55B
100
AcDbEntity
  8
Sc.1_5
 62
     9
  6
CONTINUOUS
370
    -2
100
AcDbLine
 10
1722.1540616
 20
-506.68741045
 30
0.0
 11
1722.31017077
 21
-506.21908351
 31
0.0
  0
LINE
  5
55C
100
AcDbEntity
  8
Sc.1_5
 62
     9
  6
CONTINUOUS
370
    -2
100
AcDbLine
 10
1725.48739534
 20
-506.68741133
 30
0.0
 11
1725.64350451
 21
-506.21908438
 31
0.0
  0
LINE
  5
55D
100
AcDbEntity
  8
Sc.1_5
 62
     9
  6
CONTINUOUS
370
    -2
100
AcDbLine
 10
1728.82072908
 20
-506.6874122
 30
0.0
 11
1728.97683825
 21
-506.21908526
 31
0.0
  0
LINE
  5
55E
100
AcDbEntity
  8
Sc.1_5
 62
     9
  6
CONTINUOUS
370
    -2
100
AcDbLine
 10
1732.15406282
 20
-506.68741308
 30
0.0
 11
1732.31017199
 21
-506.21908614
 31
0.0
  0
LINE
  5
55F
100
AcDbEntity
  8
Sc.1_5
 62
     9
  6
CONTINUOUS
370
    -2
100
AcDbLine
 10
1735.48739656
 20
-506.68741396
 30
0.0
 11
1735.64350573
 21
-506.21908702
 31
0.0
  0
LINE
  5
560
100
AcDbEntity
  8
Sc.1_5
 62
     9
  6
CONTINUOUS
370
    -2
100
AcDbLine
 10
1738.82073029
 20
-506.68741484
 30
0.0
 11
1738.97683946
 21
-506.21908789
 31
0.0
  0
LINE
  5
561
100
AcDbEntity
  8
Sc.1_5
 62
     9
  6
CONTINUOUS
370
    -2
100
AcDbLine
 10
1742.15406403
 20
-506.68741571
 30
0.0
 11
1742.3101732
 21
-506.21908877
 31
0.0
  0
LINE
  5
562
100
AcDbEntity
  8
Sc.1_5
 62
     9
  6
CONTINUOUS
370
    -2
100
AcDbLine
 10
1745.48739777
 20
-506.68741659
 30
0.0
 11
1745.64350694
 21
-506.21908965
 31
0.0
  0
LINE
  5
563
100
AcDbEntity
  8
Sc.1_5
 62
     9
  6
CONTINUOUS
370
    -2
100
AcDbLine
 10
1748.82073151
 20
-506.68741747
 30
0.0
 11
1748.97684068
 21
-506.21909052
 31
0.0
  0
LINE
  5
564
100
AcDbEntity
  8
Sc.1_5
 62
     9
  6
CONTINUOUS
370
    -2
100
AcDbLine
 10
1752.15406525
 20
-506.68741834
 30
0.0
 11
1752.31017442
 21
-506.2190914
 31
0.0
  0
LINE
  5
565
100
AcDbEntity
  8
Sc.1_5
 62
     9
  6
CONTINUOUS
370
    -2
100
AcDbLine
 10
1755.48739898
 20
-506.68741922
 30
0.0
 11
1755.64350815
 21
-506.21909228
 31
0.0
  0
LINE
  5
566
100
AcDbEntity
  8
Sc.1_5
 62
     9
  6
CONTINUOUS
370
    -2
100
AcDbLine
 10
1758.82073272
 20
-506.6874201
 30
0.0
 11
1758.97684189
 21
-506.21909315
 31
0.0
  0
LINE
  5
567
100
AcDbEntity
  8
Sc.1_5
 62
     9
  6
CONTINUOUS
370
    -2
100
AcDbLine
 10
1762.15406646
 20
-506.68742097
 30
0.0
 11
1762.31017563
 21
-506.21909403
 31
0.0
  0
LINE
  5
568
100
AcDbEntity
  8
Sc.1_5
 62
     9
  6
CONTINUOUS
370
    -2
100
AcDbLine
 10
1761.99795679
 20
-506.21910288
 30
0.0
 11
1762.15406567
 21
-506.68742992
 31
0.0
  0
LINE
  5
569
100
AcDbEntity
  8
Sc.1_5
 62
     9
  6
CONTINUOUS
370
    -2
100
AcDbLine
 10
1758.66462305
 20
-506.21910167
 30
0.0
 11
1758.82073193
 21
-506.68742871
 31
0.0
  0
LINE
  5
56A
100
AcDbEntity
  8
Sc.1_5
 62
     9
  6
CONTINUOUS
370
    -2
100
AcDbLine
 10
1755.33128931
 20
-506.21910046
 30
0.0
 11
1755.48739819
 21
-506.6874275
 31
0.0
  0
LINE
  5
56B
100
AcDbEntity
  8
Sc.1_5
 62
     9
  6
CONTINUOUS
370
    -2
100
AcDbLine
 10
1751.99795558
 20
-506.21909925
 30
0.0
 11
1752.15406445
 21
-506.68742629
 31
0.0
  0
LINE
  5
56C
100
AcDbEntity
  8
Sc.1_5
 62
     9
  6
CONTINUOUS
370
    -2
100
AcDbLine
 10
1748.66462184
 20
-506.21909803
 30
0.0
 11
1748.82073071
 21
-506.68742508
 31
0.0
  0
LINE
  5
56D
100
AcDbEntity
  8
Sc.1_5
 62
     9
  6
CONTINUOUS
370
    -2
100
AcDbLine
 10
1745.3312881
 20
-506.21909682
 30
0.0
 11
1745.48739698
 21
-506.68742386
 31
0.0
  0
LINE
  5
56E
100
AcDbEntity
  8
Sc.1_5
 62
     9
  6
CONTINUOUS
370
    -2
100
AcDbLine
 10
1741.99795436
 20
-506.21909561
 30
0.0
 11
1742.15406324
 21
-506.68742265
 31
0.0
  0
LINE
  5
56F
100
AcDbEntity
  8
Sc.1_5
 62
     9
  6
CONTINUOUS
370
    -2
100
AcDbLine
 10
1738.66462062
 20
-506.2190944
 30
0.0
 11
1738.8207295
 21
-506.68742144
 31
0.0
  0
LINE
  5
570
100
AcDbEntity
  8
Sc.1_5
 62
     9
  6
CONTINUOUS
370
    -2
100
AcDbLine
 10
1735.33128688
 20
-506.21909319
 30
0.0
 11
1735.48739576
 21
-506.68742023
 31
0.0
  0
LINE
  5
571
100
AcDbEntity
  8
Sc.1_5
 62
     9
  6
CONTINUOUS
370
    -2
100
AcDbLine
 10
1731.99795315
 20
-506.21909198
 30
0.0
 11
1732.15406202
 21
-506.68741902
 31
0.0
  0
LINE
  5
572
100
AcDbEntity
  8
Sc.1_5
 62
     9
  6
CONTINUOUS
370
    -2
100
AcDbLine
 10
1728.66461941
 20
-506.21909077
 30
0.0
 11
1728.82072829
 21
-506.68741781
 31
0.0
  0
LINE
  5
573
100
AcDbEntity
  8
Sc.1_5
 62
     9
  6
CONTINUOUS
370
    -2
100
AcDbLine
 10
1725.33128567
 20
-506.21908956
 30
0.0
 11
1725.48739455
 21
-506.6874166
 31
0.0
  0
LINE
  5
574
100
AcDbEntity
  8
Sc.1_5
 62
     9
  6
CONTINUOUS
370
    -2
100
AcDbLine
 10
1721.99795193
 20
-506.21908834
 30
0.0
 11
1722.15406081
 21
-506.68741539
 31
0.0
  0
LINE
  5
575
100
AcDbEntity
  8
Sc.1_5
 62
     9
  6
CONTINUOUS
370
    -2
100
AcDbLine
 10
1718.66461819
 20
-506.21908713
 30
0.0
 11
1718.82072707
 21
-506.68741417
 31
0.0
  0
LINE
  5
576
100
AcDbEntity
  8
Sc.1_5
 62
     9
  6
CONTINUOUS
370
    -2
100
AcDbLine
 10
1715.33128446
 20
-506.21908592
 30
0.0
 11
1715.48739333
 21
-506.68741296
 31
0.0
  0
LINE
  5
577
100
AcDbEntity
  8
Sc.1_5
 62
     9
  6
CONTINUOUS
370
    -2
100
AcDbLine
 10
1711.99795072
 20
-506.21908471
 30
0.0
 11
1712.15405959
 21
-506.68741175
 31
0.0
  0
LINE
  5
578
100
AcDbEntity
  8
Sc.1_5
 62
     9
  6
CONTINUOUS
370
    -2
100
AcDbLine
 10
1708.66461698
 20
-506.2190835
 30
0.0
 11
1708.82072586
 21
-506.68741054
 31
0.0
  0
LINE
  5
579
100
AcDbEntity
  8
Sc.1_5
 62
     9
  6
CONTINUOUS
370
    -2
100
AcDbLine
 10
1705.33128324
 20
-506.21908229
 30
0.0
 11
1705.48739212
 21
-506.68740933
 31
0.0
  0
LINE
  5
57A
100
AcDbEntity
  8
Sc.1_5
 62
     9
  6
CONTINUOUS
370
    -2
100
AcDbLine
 10
1701.9979495
 20
-506.21908108
 30
0.0
 11
1702.15405838
 21
-506.68740812
 31
0.0
  0
LINE
  5
57B
100
AcDbEntity
  8
Sc.1_5
 62
     9
  6
CONTINUOUS
370
    -2
100
AcDbLine
 10
1698.66461576
 20
-506.21907987
 30
0.0
 11
1698.82072464
 21
-506.68740691
 31
0.0
  0
LINE
  5
57C
100
AcDbEntity
  8
Sc.1_5
 62
     9
  6
CONTINUOUS
370
    -2
100
AcDbLine
 10
1695.33128203
 20
-506.21907866
 30
0.0
 11
1695.4873909
 21
-506.6874057
 31
0.0
  0
LINE
  5
57D
100
AcDbEntity
  8
Sc.1_5
 62
     9
  6
CONTINUOUS
370
    -2
100
AcDbLine
 10
1691.99794829
 20
-506.21907744
 30
0.0
 11
1692.15405717
 21
-506.68740448
 31
0.0
  0
LINE
  5
57E
100
AcDbEntity
  8
Sc.1_5
 62
     9
  6
CONTINUOUS
370
    -2
100
AcDbLine
 10
1688.66461455
 20
-506.21907623
 30
0.0
 11
1688.82072343
 21
-506.68740327
 31
0.0
  0
LINE
  5
57F
100
AcDbEntity
  8
Sc.1_5
 62
     9
  6
CONTINUOUS
370
    -2
100
AcDbLine
 10
1685.33128081
 20
-506.21907502
 30
0.0
 11
1685.48738969
 21
-506.68740206
 31
0.0
  0
LINE
  5
580
100
AcDbEntity
  8
Sc.1_5
 62
     9
  6
CONTINUOUS
370
    -2
100
AcDbLine
 10
1681.99794707
 20
-506.21907381
 30
0.0
 11
1682.15405595
 21
-506.68740085
 31
0.0
  0
LINE
  5
581
100
AcDbEntity
  8
Sc.1_5
 62
     9
  6
CONTINUOUS
370
    -2
100
AcDbLine
 10
1678.66461334
 20
-506.2190726
 30
0.0
 11
1678.82072221
 21
-506.68739964
 31
0.0
  0
LINE
  5
582
100
AcDbEntity
  8
Sc.1_5
 62
     9
  6
CONTINUOUS
370
    -2
100
AcDbLine
 10
1677.15405421
 20
-513.6245246
 30
0.0
 11
1677.19377866
 21
-513.26700574
 31
0.0
  0
LINE
  5
583
100
AcDbEntity
  8
Sc.1_5
 62
     9
  6
CONTINUOUS
370
    -2
100
AcDbLine
 10
1680.48738736
 20
-513.62452157
 30
0.0
 11
1680.52711181
 21
-513.26700271
 31
0.0
  0
LINE
  5
584
100
AcDbEntity
  8
Sc.1_5
 62
     9
  6
CONTINUOUS
370
    -2
100
AcDbLine
 10
1683.8207205
 20
-513.62451854
 30
0.0
 11
1683.86044495
 21
-513.26699968
 31
0.0
  0
LINE
  5
585
100
AcDbEntity
  8
Sc.1_5
 62
     9
  6
CONTINUOUS
370
    -2
100
AcDbLine
 10
1687.15405365
 20
-513.62451551
 30
0.0
 11
1687.1937781
 21
-513.26699665
 31
0.0
  0
LINE
  5
586
100
AcDbEntity
  8
Sc.1_5
 62
     9
  6
CONTINUOUS
370
    -2
100
AcDbLine
 10
1690.4873868
 20
-513.62451248
 30
0.0
 11
1690.52711125
 21
-513.26699362
 31
0.0
  0
LINE
  5
587
100
AcDbEntity
  8
Sc.1_5
 62
     9
  6
CONTINUOUS
370
    -2
100
AcDbLine
 10
1693.82071994
 20
-513.62450945
 30
0.0
 11
1693.86044439
 21
-513.26699059
 31
0.0
  0
LINE
  5
588
100
AcDbEntity
  8
Sc.1_5
 62
     9
  6
CONTINUOUS
370
    -2
100
AcDbLine
 10
1697.15405309
 20
-513.62450642
 30
0.0
 11
1697.19377754
 21
-513.26698756
 31
0.0
  0
LINE
  5
589
100
AcDbEntity
  8
Sc.1_5
 62
     9
  6
CONTINUOUS
370
    -2
100
AcDbLine
 10
1700.48738623
 20
-513.62450339
 30
0.0
 11
1700.52711068
 21
-513.26698453
 31
0.0
  0
LINE
  5
58A
100
AcDbEntity
  8
Sc.1_5
 62
     9
  6
CONTINUOUS
370
    -2
100
AcDbLine
 10
1703.82071938
 20
-513.62450036
 30
0.0
 11
1703.86044383
 21
-513.2669815
 31
0.0
  0
LINE
  5
58B
100
AcDbEntity
  8
Sc.1_5
 62
     9
  6
CONTINUOUS
370
    -2
100
AcDbLine
 10
1707.15405253
 20
-513.62449733
 30
0.0
 11
1707.19377698
 21
-513.26697847
 31
0.0
  0
LINE
  5
58C
100
AcDbEntity
  8
Sc.1_5
 62
     9
  6
CONTINUOUS
370
    -2
100
AcDbLine
 10
1710.48738567
 20
-513.6244943
 30
0.0
 11
1710.52711012
 21
-513.26697544
 31
0.0
  0
LINE
  5
58D
100
AcDbEntity
  8
Sc.1_5
 62
     9
  6
CONTINUOUS
370
    -2
100
AcDbLine
 10
1713.82071882
 20
-513.62449127
 30
0.0
 11
1713.86044327
 21
-513.26697241
 31
0.0
  0
LINE
  5
58E
100
AcDbEntity
  8
Sc.1_5
 62
     9
  6
CONTINUOUS
370
    -2
100
AcDbLine
 10
1717.15405197
 20
-513.62448824
 30
0.0
 11
1717.19377642
 21
-513.26696939
 31
0.0
  0
LINE
  5
58F
100
AcDbEntity
  8
Sc.1_5
 62
     9
  6
CONTINUOUS
370
    -2
100
AcDbLine
 10
1720.48738511
 20
-513.62448521
 30
0.0
 11
1720.52710956
 21
-513.26696636
 31
0.0
  0
LINE
  5
590
100
AcDbEntity
  8
Sc.1_5
 62
     9
  6
CONTINUOUS
370
    -2
100
AcDbLine
 10
1723.82071826
 20
-513.62448218
 30
0.0
 11
1723.86044271
 21
-513.26696333
 31
0.0
  0
LINE
  5
591
100
AcDbEntity
  8
Sc.1_5
 62
     9
  6
CONTINUOUS
370
    -2
100
AcDbLine
 10
1727.1540514
 20
-513.62447915
 30
0.0
 11
1727.19377585
 21
-513.2669603
 31
0.0
  0
LINE
  5
592
100
AcDbEntity
  8
Sc.1_5
 62
     9
  6
CONTINUOUS
370
    -2
100
AcDbLine
 10
1730.48738455
 20
-513.62447612
 30
0.0
 11
1730.527109
 21
-513.26695727
 31
0.0
  0
LINE
  5
593
100
AcDbEntity
  8
Sc.1_5
 62
     9
  6
CONTINUOUS
370
    -2
100
AcDbLine
 10
1733.8207177
 20
-513.62447309
 30
0.0
 11
1733.86044215
 21
-513.26695424
 31
0.0
  0
LINE
  5
594
100
AcDbEntity
  8
Sc.1_5
 62
     9
  6
CONTINUOUS
370
    -2
100
AcDbLine
 10
1737.15405084
 20
-513.62447007
 30
0.0
 11
1737.19377529
 21
-513.26695121
 31
0.0
  0
LINE
  5
595
100
AcDbEntity
  8
Sc.1_5
 62
     9
  6
CONTINUOUS
370
    -2
100
AcDbLine
 10
1740.48738399
 20
-513.62446704
 30
0.0
 11
1740.52710844
 21
-513.26694818
 31
0.0
  0
LINE
  5
596
100
AcDbEntity
  8
Sc.1_5
 62
     9
  6
CONTINUOUS
370
    -2
100
AcDbLine
 10
1743.82071714
 20
-513.62446401
 30
0.0
 11
1743.86044159
 21
-513.26694515
 31
0.0
  0
LINE
  5
597
100
AcDbEntity
  8
Sc.1_5
 62
     9
  6
CONTINUOUS
370
    -2
100
AcDbLine
 10
1747.15405028
 20
-513.62446098
 30
0.0
 11
1747.19377473
 21
-513.26694212
 31
0.0
  0
LINE
  5
598
100
AcDbEntity
  8
Sc.1_5
 62
     9
  6
CONTINUOUS
370
    -2
100
AcDbLine
 10
1750.48738343
 20
-513.62445795
 30
0.0
 11
1750.52710788
 21
-513.26693909
 31
0.0
  0
LINE
  5
599
100
AcDbEntity
  8
Sc.1_5
 62
     9
  6
CONTINUOUS
370
    -2
100
AcDbLine
 10
1753.82071657
 20
-513.62445492
 30
0.0
 11
1753.86044102
 21
-513.26693606
 31
0.0
  0
LINE
  5
59A
100
AcDbEntity
  8
Sc.1_5
 62
     9
  6
CONTINUOUS
370
    -2
100
AcDbLine
 10
1757.15404972
 20
-513.62445189
 30
0.0
 11
1757.19377417
 21
-513.26693303
 31
0.0
  0
LINE
  5
59B
100
AcDbEntity
  8
Sc.1_5
 62
     9
  6
CONTINUOUS
370
    -2
100
AcDbLine
 10
1760.48738287
 20
-513.62444886
 30
0.0
 11
1760.52710732
 21
-513.26693
 31
0.0
  0
LINE
  5
59C
100
AcDbEntity
  8
Sc.1_5
 62
     9
  6
CONTINUOUS
370
    -2
100
AcDbLine
 10
1677.15405313
 20
-513.62452867
 30
0.0
 11
1677.1143289
 21
-513.26700979
 31
0.0
  0
LINE
  5
59D
100
AcDbEntity
  8
Sc.1_5
 62
     9
  6
CONTINUOUS
370
    -2
100
AcDbLine
 10
1680.48738627
 20
-513.62453379
 30
0.0
 11
1680.44766205
 21
-513.2670149
 31
0.0
  0
LINE
  5
59E
100
AcDbEntity
  8
Sc.1_5
 62
     9
  6
CONTINUOUS
370
    -2
100
AcDbLine
 10
1683.82071942
 20
-513.6245389
 30
0.0
 11
1683.78099519
 21
-513.26702002
 31
0.0
  0
LINE
  5
59F
100
AcDbEntity
  8
Sc.1_5
 62
     9
  6
CONTINUOUS
370
    -2
100
AcDbLine
 10
1687.15405256
 20
-513.62454402
 30
0.0
 11
1687.11432834
 21
-513.26702514
 31
0.0
  0
LINE
  5
5A0
100
AcDbEntity
  8
Sc.1_5
 62
     9
  6
CONTINUOUS
370
    -2
100
AcDbLine
 10
1690.48738571
 20
-513.62454914
 30
0.0
 11
1690.44766149
 21
-513.26703026
 31
0.0
  0
LINE
  5
5A1
100
AcDbEntity
  8
Sc.1_5
 62
     9
  6
CONTINUOUS
370
    -2
100
AcDbLine
 10
1693.82071886
 20
-513.62455426
 30
0.0
 11
1693.78099463
 21
-513.26703538
 31
0.0
  0
LINE
  5
5A2
100
AcDbEntity
  8
Sc.1_5
 62
     9
  6
CONTINUOUS
370
    -2
100
AcDbLine
 10
1697.154052
 20
-513.62455937
 30
0.0
 11
1697.11432778
 21
-513.26704049
 31
0.0
  0
LINE
  5
5A3
100
AcDbEntity
  8
Sc.1_5
 62
     9
  6
CONTINUOUS
370
    -2
100
AcDbLine
 10
1700.48738515
 20
-513.62456449
 30
0.0
 11
1700.44766092
 21
-513.26704561
 31
0.0
  0
LINE
  5
5A4
100
AcDbEntity
  8
Sc.1_5
 62
     9
  6
CONTINUOUS
370
    -2
100
AcDbLine
 10
1703.8207183
 20
-513.62456961
 30
0.0
 11
1703.78099407
 21
-513.26705073
 31
0.0
  0
LINE
  5
5A5
100
AcDbEntity
  8
Sc.1_5
 62
     9
  6
CONTINUOUS
370
    -2
100
AcDbLine
 10
1707.15405144
 20
-513.62457473
 30
0.0
 11
1707.11432722
 21
-513.26705585
 31
0.0
  0
LINE
  5
5A6
100
AcDbEntity
  8
Sc.1_5
 62
     9
  6
CONTINUOUS
370
    -2
100
AcDbLine
 10
1710.48738459
 20
-513.62457985
 30
0.0
 11
1710.44766036
 21
-513.26706096
 31
0.0
  0
LINE
  5
5A7
100
AcDbEntity
  8
Sc.1_5
 62
     9
  6
CONTINUOUS
370
    -2
100
AcDbLine
 10
1713.82071774
 20
-513.62458496
 30
0.0
 11
1713.78099351
 21
-513.26706608
 31
0.0
  0
LINE
  5
5A8
100
AcDbEntity
  8
Sc.1_5
 62
     9
  6
CONTINUOUS
370
    -2
100
AcDbLine
 10
1717.15405088
 20
-513.62459008
 30
0.0
 11
1717.11432666
 21
-513.2670712
 31
0.0
  0
LINE
  5
5A9
100
AcDbEntity
  8
Sc.1_5
 62
     9
  6
CONTINUOUS
370
    -2
100
AcDbLine
 10
1720.48738403
 20
-513.6245952
 30
0.0
 11
1720.4476598
 21
-513.26707632
 31
0.0
  0
LINE
  5
5AA
100
AcDbEntity
  8
Sc.1_5
 62
     9
  6
CONTINUOUS
370
    -2
100
AcDbLine
 10
1723.82071717
 20
-513.62460032
 30
0.0
 11
1723.78099295
 21
-513.26708143
 31
0.0
  0
LINE
  5
5AB
100
AcDbEntity
  8
Sc.1_5
 62
     9
  6
CONTINUOUS
370
    -2
100
AcDbLine
 10
1727.15405032
 20
-513.62460543
 30
0.0
 11
1727.11432609
 21
-513.26708655
 31
0.0
  0
LINE
  5
5AC
100
AcDbEntity
  8
Sc.1_5
 62
     9
  6
CONTINUOUS
370
    -2
100
AcDbLine
 10
1730.48738347
 20
-513.62461055
 30
0.0
 11
1730.44765924
 21
-513.26709167
 31
0.0
  0
LINE
  5
5AD
100
AcDbEntity
  8
Sc.1_5
 62
     9
  6
CONTINUOUS
370
    -2
100
AcDbLine
 10
1733.82071661
 20
-513.62461567
 30
0.0
 11
1733.78099239
 21
-513.26709679
 31
0.0
  0
LINE
  5
5AE
100
AcDbEntity
  8
Sc.1_5
 62
     9
  6
CONTINUOUS
370
    -2
100
AcDbLine
 10
1737.15404976
 20
-513.62462079
 30
0.0
 11
1737.11432553
 21
-513.2671019
 31
0.0
  0
LINE
  5
5AF
100
AcDbEntity
  8
Sc.1_5
 62
     9
  6
CONTINUOUS
370
    -2
100
AcDbLine
 10
1740.48738291
 20
-513.6246259
 30
0.0
 11
1740.44765868
 21
-513.26710702
 31
0.0
  0
LINE
  5
5B0
100
AcDbEntity
  8
Sc.1_5
 62
     9
  6
CONTINUOUS
370
    -2
100
AcDbLine
 10
1743.82071605
 20
-513.62463102
 30
0.0
 11
1743.78099183
 21
-513.26711214
 31
0.0
  0
LINE
  5
5B1
100
AcDbEntity
  8
Sc.1_5
 62
     9
  6
CONTINUOUS
370
    -2
100
AcDbLine
 10
1747.1540492
 20
-513.62463614
 30
0.0
 11
1747.11432497
 21
-513.26711726
 31
0.0
  0
LINE
  5
5B2
100
AcDbEntity
  8
Sc.1_5
 62
     9
  6
CONTINUOUS
370
    -2
100
AcDbLine
 10
1750.48738234
 20
-513.62464126
 30
0.0
 11
1750.44765812
 21
-513.26712238
 31
0.0
  0
LINE
  5
5B3
100
AcDbEntity
  8
Sc.1_5
 62
     9
  6
CONTINUOUS
370
    -2
100
AcDbLine
 10
1753.82071549
 20
-513.62464637
 30
0.0
 11
1753.78099126
 21
-513.26712749
 31
0.0
  0
LINE
  5
5B4
100
AcDbEntity
  8
Sc.1_5
 62
     9
  6
CONTINUOUS
370
    -2
100
AcDbLine
 10
1757.15404864
 20
-513.62465149
 30
0.0
 11
1757.11432441
 21
-513.26713261
 31
0.0
  0
LINE
  5
5B5
100
AcDbEntity
  8
Sc.1_5
 62
     9
  6
CONTINUOUS
370
    -2
100
AcDbLine
 10
1760.48738178
 20
-513.62465661
 30
0.0
 11
1760.44765756
 21
-513.26713773
 31
0.0
  0
LINE
  5
5B6
100
AcDbEntity
  8
Sc.1_5
 62
     9
  6
CONTINUOUS
370
    -2
100
AcDbLine
 10
1762.15405099
 20
-506.95775932
 30
0.0
 11
1762.11432663
 21
-507.31527818
 31
0.0
  0
LINE
  5
5B7
100
AcDbEntity
  8
Sc.1_5
 62
     9
  6
CONTINUOUS
370
    -2
100
AcDbLine
 10
1758.82071784
 20
-506.95776323
 30
0.0
 11
1758.78099349
 21
-507.3152821
 31
0.0
  0
LINE
  5
5B8
100
AcDbEntity
  8
Sc.1_5
 62
     9
  6
CONTINUOUS
370
    -2
100
AcDbLine
 10
1755.48738469
 20
-506.95776715
 30
0.0
 11
1755.44766034
 21
-507.31528602
 31
0.0
  0
LINE
  5
5B9
100
AcDbEntity
  8
Sc.1_5
 62
     9
  6
CONTINUOUS
370
    -2
100
AcDbLine
 10
1752.15405155
 20
-506.95777107
 30
0.0
 11
1752.11432719
 21
-507.31528993
 31
0.0
  0
LINE
  5
5BA
100
AcDbEntity
  8
Sc.1_5
 62
     9
  6
CONTINUOUS
370
    -2
100
AcDbLine
 10
1748.8207184
 20
-506.95777498
 30
0.0
 11
1748.78099405
 21
-507.31529385
 31
0.0
  0
LINE
  5
5BB
100
AcDbEntity
  8
Sc.1_5
 62
     9
  6
CONTINUOUS
370
    -2
100
AcDbLine
 10
1745.48738526
 20
-506.9577789
 30
0.0
 11
1745.4476609
 21
-507.31529777
 31
0.0
  0
LINE
  5
5BC
100
AcDbEntity
  8
Sc.1_5
 62
     9
  6
CONTINUOUS
370
    -2
100
AcDbLine
 10
1742.15405211
 20
-506.95778282
 30
0.0
 11
1742.11432775
 21
-507.31530169
 31
0.0
  0
LINE
  5
5BD
100
AcDbEntity
  8
Sc.1_5
 62
     9
  6
CONTINUOUS
370
    -2
100
AcDbLine
 10
1738.82071896
 20
-506.95778674
 30
0.0
 11
1738.78099461
 21
-507.3153056
 31
0.0
  0
LINE
  5
5BE
100
AcDbEntity
  8
Sc.1_5
 62
     9
  6
CONTINUOUS
370
    -2
100
AcDbLine
 10
1735.48738582
 20
-506.95779065
 30
0.0
 11
1735.44766146
 21
-507.31530952
 31
0.0
  0
LINE
  5
5BF
100
AcDbEntity
  8
Sc.1_5
 62
     9
  6
CONTINUOUS
370
    -2
100
AcDbLine
 10
1732.15405267
 20
-506.95779457
 30
0.0
 11
1732.11432832
 21
-507.31531344
 31
0.0
  0
LINE
  5
5C0
100
AcDbEntity
  8
Sc.1_5
 62
     9
  6
CONTINUOUS
370
    -2
100
AcDbLine
 10
1728.82071952
 20
-506.95779849
 30
0.0
 11
1728.78099517
 21
-507.31531735
 31
0.0
  0
LINE
  5
5C1
100
AcDbEntity
  8
Sc.1_5
 62
     9
  6
CONTINUOUS
370
    -2
100
AcDbLine
 10
1725.48738638
 20
-506.9578024
 30
0.0
 11
1725.44766202
 21
-507.31532127
 31
0.0
  0
LINE
  5
5C2
100
AcDbEntity
  8
Sc.1_5
 62
     9
  6
CONTINUOUS
370
    -2
100
AcDbLine
 10
1722.15405323
 20
-506.95780632
 30
0.0
 11
1722.11432888
 21
-507.31532519
 31
0.0
  0
LINE
  5
5C3
100
AcDbEntity
  8
Sc.1_5
 62
     9
  6
CONTINUOUS
370
    -2
100
AcDbLine
 10
1718.82072008
 20
-506.95781024
 30
0.0
 11
1718.78099573
 21
-507.31532911
 31
0.0
  0
LINE
  5
5C4
100
AcDbEntity
  8
Sc.1_5
 62
     9
  6
CONTINUOUS
370
    -2
100
AcDbLine
 10
1715.48738694
 20
-506.95781416
 30
0.0
 11
1715.44766258
 21
-507.31533302
 31
0.0
  0
LINE
  5
5C5
100
AcDbEntity
  8
Sc.1_5
 62
     9
  6
CONTINUOUS
370
    -2
100
AcDbLine
 10
1712.15405379
 20
-506.95781807
 30
0.0
 11
1712.11432944
 21
-507.31533694
 31
0.0
  0
LINE
  5
5C6
100
AcDbEntity
  8
Sc.1_5
 62
     9
  6
CONTINUOUS
370
    -2
100
AcDbLine
 10
1708.82072065
 20
-506.95782199
 30
0.0
 11
1708.78099629
 21
-507.31534086
 31
0.0
  0
LINE
  5
5C7
100
AcDbEntity
  8
Sc.1_5
 62
     9
  6
CONTINUOUS
370
    -2
100
AcDbLine
 10
1705.4873875
 20
-506.95782591
 30
0.0
 11
1705.44766315
 21
-507.31534478
 31
0.0
  0
LINE
  5
5C8
100
AcDbEntity
  8
Sc.1_5
 62
     9
  6
CONTINUOUS
370
    -2
100
AcDbLine
 10
1702.15405435
 20
-506.95782982
 30
0.0
 11
1702.11433
 21
-507.31534869
 31
0.0
  0
LINE
  5
5C9
100
AcDbEntity
  8
Sc.1_5
 62
     9
  6
CONTINUOUS
370
    -2
100
AcDbLine
 10
1698.82072121
 20
-506.95783374
 30
0.0
 11
1698.78099685
 21
-507.31535261
 31
0.0
  0
LINE
  5
5CA
100
AcDbEntity
  8
Sc.1_5
 62
     9
  6
CONTINUOUS
370
    -2
100
AcDbLine
 10
1695.48738806
 20
-506.95783766
 30
0.0
 11
1695.44766371
 21
-507.31535653
 31
0.0
  0
LINE
  5
5CB
100
AcDbEntity
  8
Sc.1_5
 62
     9
  6
CONTINUOUS
370
    -2
100
AcDbLine
 10
1692.15405491
 20
-506.95784158
 30
0.0
 11
1692.11433056
 21
-507.31536044
 31
0.0
  0
LINE
  5
5CC
100
AcDbEntity
  8
Sc.1_5
 62
     9
  6
CONTINUOUS
370
    -2
100
AcDbLine
 10
1688.82072177
 20
-506.95784549
 30
0.0
 11
1688.78099741
 21
-507.31536436
 31
0.0
  0
LINE
  5
5CD
100
AcDbEntity
  8
Sc.1_5
 62
     9
  6
CONTINUOUS
370
    -2
100
AcDbLine
 10
1685.48738862
 20
-506.95784941
 30
0.0
 11
1685.44766427
 21
-507.31536828
 31
0.0
  0
LINE
  5
5CE
100
AcDbEntity
  8
Sc.1_5
 62
     9
  6
CONTINUOUS
370
    -2
100
AcDbLine
 10
1682.15405548
 20
-506.95785333
 30
0.0
 11
1682.11433112
 21
-507.3153722
 31
0.0
  0
LINE
  5
5CF
100
AcDbEntity
  8
Sc.1_5
 62
     9
  6
CONTINUOUS
370
    -2
100
AcDbLine
 10
1678.82072233
 20
-506.95785725
 30
0.0
 11
1678.78099798
 21
-507.31537611
 31
0.0
  0
LINE
  5
5D0
100
AcDbEntity
  8
Sc.1_5
 62
     9
  6
CONTINUOUS
370
    -2
100
AcDbLine
 10
1675.48738918
 20
-506.95786116
 30
0.0
 11
1675.48738657
 21
-506.95788465
 31
0.0
  0
LINE
  5
5D1
100
AcDbEntity
  8
Sc.1_5
 62
     9
  6
CONTINUOUS
370
    -2
100
AcDbLine
 10
1762.15405099
 20
-506.95799422
 30
0.0
 11
1762.19377521
 21
-507.3155131
 31
0.0
  0
LINE
  5
5D2
100
AcDbEntity
  8
Sc.1_5
 62
     9
  6
CONTINUOUS
370
    -2
100
AcDbLine
 10
1758.82071784
 20
-506.9579891
 30
0.0
 11
1758.86044207
 21
-507.31550799
 31
0.0
  0
LINE
  5
5D3
100
AcDbEntity
  8
Sc.1_5
 62
     9
  6
CONTINUOUS
370
    -2
100
AcDbLine
 10
1755.48738469
 20
-506.95798399
 30
0.0
 11
1755.52710892
 21
-507.31550287
 31
0.0
  0
LINE
  5
5D4
100
AcDbEntity
  8
Sc.1_5
 62
     9
  6
CONTINUOUS
370
    -2
100
AcDbLine
 10
1752.15405155
 20
-506.95797887
 30
0.0
 11
1752.19377577
 21
-507.31549775
 31
0.0
  0
LINE
  5
5D5
100
AcDbEntity
  8
Sc.1_5
 62
     9
  6
CONTINUOUS
370
    -2
100
AcDbLine
 10
1748.8207184
 20
-506.95797375
 30
0.0
 11
1748.86044263
 21
-507.31549263
 31
0.0
  0
LINE
  5
5D6
100
AcDbEntity
  8
Sc.1_5
 62
     9
  6
CONTINUOUS
370
    -2
100
AcDbLine
 10
1745.48738526
 20
-506.95796863
 30
0.0
 11
1745.52710948
 21
-507.31548751
 31
0.0
  0
LINE
  5
5D7
100
AcDbEntity
  8
Sc.1_5
 62
     9
  6
CONTINUOUS
370
    -2
100
AcDbLine
 10
1742.15405211
 20
-506.95796352
 30
0.0
 11
1742.19377633
 21
-507.3154824
 31
0.0
  0
LINE
  5
5D8
100
AcDbEntity
  8
Sc.1_5
 62
     9
  6
CONTINUOUS
370
    -2
100
AcDbLine
 10
1738.82071896
 20
-506.9579584
 30
0.0
 11
1738.86044319
 21
-507.31547728
 31
0.0
  0
LINE
  5
5D9
100
AcDbEntity
  8
Sc.1_5
 62
     9
  6
CONTINUOUS
370
    -2
100
AcDbLine
 10
1735.48738582
 20
-506.95795328
 30
0.0
 11
1735.52711004
 21
-507.31547216
 31
0.0
  0
LINE
  5
5DA
100
AcDbEntity
  8
Sc.1_5
 62
     9
  6
CONTINUOUS
370
    -2
100
AcDbLine
 10
1732.15405267
 20
-506.95794816
 30
0.0
 11
1732.1937769
 21
-507.31546704
 31
0.0
  0
LINE
  5
5DB
100
AcDbEntity
  8
Sc.1_5
 62
     9
  6
CONTINUOUS
370
    -2
100
AcDbLine
 10
1728.82071952
 20
-506.95794304
 30
0.0
 11
1728.86044375
 21
-507.31546193
 31
0.0
  0
LINE
  5
5DC
100
AcDbEntity
  8
Sc.1_5
 62
     9
  6
CONTINUOUS
370
    -2
100
AcDbLine
 10
1725.48738638
 20
-506.95793793
 30
0.0
 11
1725.5271106
 21
-507.31545681
 31
0.0
  0
LINE
  5
5DD
100
AcDbEntity
  8
Sc.1_5
 62
     9
  6
CONTINUOUS
370
    -2
100
AcDbLine
 10
1722.15405323
 20
-506.95793281
 30
0.0
 11
1722.19377746
 21
-507.31545169
 31
0.0
  0
LINE
  5
5DE
100
AcDbEntity
  8
Sc.1_5
 62
     9
  6
CONTINUOUS
370
    -2
100
AcDbLine
 10
1718.82072008
 20
-506.95792769
 30
0.0
 11
1718.86044431
 21
-507.31544657
 31
0.0
  0
LINE
  5
5DF
100
AcDbEntity
  8
Sc.1_5
 62
     9
  6
CONTINUOUS
370
    -2
100
AcDbLine
 10
1715.48738694
 20
-506.95792257
 30
0.0
 11
1715.52711116
 21
-507.31544146
 31
0.0
  0
LINE
  5
5E0
100
AcDbEntity
  8
Sc.1_5
 62
     9
  6
CONTINUOUS
370
    -2
100
AcDbLine
 10
1712.15405379
 20
-506.95791746
 30
0.0
 11
1712.19377802
 21
-507.31543634
 31
0.0
  0
LINE
  5
5E1
100
AcDbEntity
  8
Sc.1_5
 62
     9
  6
CONTINUOUS
370
    -2
100
AcDbLine
 10
1708.82072065
 20
-506.95791234
 30
0.0
 11
1708.86044487
 21
-507.31543122
 31
0.0
  0
LINE
  5
5E2
100
AcDbEntity
  8
Sc.1_5
 62
     9
  6
CONTINUOUS
370
    -2
100
AcDbLine
 10
1705.4873875
 20
-506.95790722
 30
0.0
 11
1705.52711173
 21
-507.3154261
 31
0.0
  0
LINE
  5
5E3
100
AcDbEntity
  8
Sc.1_5
 62
     9
  6
CONTINUOUS
370
    -2
100
AcDbLine
 10
1702.15405435
 20
-506.9579021
 30
0.0
 11
1702.19377858
 21
-507.31542099
 31
0.0
  0
LINE
  5
5E4
100
AcDbEntity
  8
Sc.1_5
 62
     9
  6
CONTINUOUS
370
    -2
100
AcDbLine
 10
1698.82072121
 20
-506.95789699
 30
0.0
 11
1698.86044543
 21
-507.31541587
 31
0.0
  0
LINE
  5
5E5
100
AcDbEntity
  8
Sc.1_5
 62
     9
  6
CONTINUOUS
370
    -2
100
AcDbLine
 10
1695.48738806
 20
-506.95789187
 30
0.0
 11
1695.52711229
 21
-507.31541075
 31
0.0
  0
LINE
  5
5E6
100
AcDbEntity
  8
Sc.1_5
 62
     9
  6
CONTINUOUS
370
    -2
100
AcDbLine
 10
1692.15405491
 20
-506.95788675
 30
0.0
 11
1692.19377914
 21
-507.31540563
 31
0.0
  0
LINE
  5
5E7
100
AcDbEntity
  8
Sc.1_5
 62
     9
  6
CONTINUOUS
370
    -2
100
AcDbLine
 10
1688.82072177
 20
-506.95788163
 30
0.0
 11
1688.86044599
 21
-507.31540051
 31
0.0
  0
LINE
  5
5E8
100
AcDbEntity
  8
Sc.1_5
 62
     9
  6
CONTINUOUS
370
    -2
100
AcDbLine
 10
1685.48738862
 20
-506.95787652
 30
0.0
 11
1685.52711285
 21
-507.3153954
 31
0.0
  0
LINE
  5
5E9
100
AcDbEntity
  8
Sc.1_5
 62
     9
  6
CONTINUOUS
370
    -2
100
AcDbLine
 10
1682.15405548
 20
-506.9578714
 30
0.0
 11
1682.1937797
 21
-507.31539028
 31
0.0
  0
LINE
  5
5EA
100
AcDbEntity
  8
Sc.1_5
 62
     9
  6
CONTINUOUS
370
    -2
100
AcDbLine
 10
1678.82072233
 20
-506.95786628
 30
0.0
 11
1678.86044656
 21
-507.31538516
 31
0.0
  0
LINE
  5
5EB
100
AcDbEntity
  8
Sc.1_5
 62
     9
  6
CONTINUOUS
370
    -2
100
AcDbLine
 10
1675.48738918
 20
-506.95786116
 30
0.0
 11
1675.52711341
 21
-507.31538004
 31
0.0
  0
ENDBLK
  5
5EC
100
AcDbEntity
100
AcDbBlockEnd
  0
BLOCK
  5
5ED
100
AcDbEntity
  8
Sc.1_5
100
AcDbBlockBegin
  2
*X1741
 70
     1
 10
0.0
 20
0.0
 30
0.0
  3
*X1741
  1

  4
Cadwork hatch
  0
LINE
  5
5EE
100
AcDbEntity
  8
Sc.1_5
 62
     9
  6
CONTINUOUS
370
    -2
100
AcDbLine
 10
1647.48733278
 20
-505.79120925
 30
0.0
 11
1675.48744761
 21
-514.79119912
 31
0.0
  0
LINE
  5
5EF
100
AcDbEntity
  8
Sc.1_5
 62
     9
  6
CONTINUOUS
370
    -2
100
AcDbLine
 10
1675.48744761
 20
-505.79120925
 30
0.0
 11
1647.48733278
 21
-514.79119912
 31
0.0
  0
ENDBLK
  5
5F0
100
AcDbEntity
100
AcDbBlockEnd
  0
BLOCK
  5
5F1
100
AcDbEntity
  8
Sc.1_5
100
AcDbBlockBegin
  2
*X1760
 70
     1
 10
0.0
 20
0.0
 30
0.0
  3
*X1760
  1

  4
Cadwork hatch
  0
LINE
  5
5F2
100
AcDbEntity
  8
Sc.1_5
 62
     9
  6
CONTINUOUS
370
    -2
100
AcDbLine
 10
1647.48733278
 20
-471.79130972
 30
0.0
 11
1675.48744761
 21
-480.79129959
 31
0.0
  0
LINE
  5
5F3
100
AcDbEntity
  8
Sc.1_5
 62
     9
  6
CONTINUOUS
370
    -2
100
AcDbLine
 10
1647.48733278
 20
-480.79129959
 30
0.0
 11
1675.48744761
 21
-471.79130972
 31
0.0
  0
ENDBLK
  5
5F4
100
AcDbEntity
100
AcDbBlockEnd
  0
BLOCK
  5
5F5
100
AcDbEntity
  8
Sc.1_5
100
AcDbBlockBegin
  2
*X1776
 70
     1
 10
0.0
 20
0.0
 30
0.0
  3
*X1776
  1

  4
Cadwork hatch
  0
LINE
  5
5F6
100
AcDbEntity
  8
Sc.1_5
 62
     9
  6
CONTINUOUS
370
    -2
100
AcDbLine
 10
1640.31255114
 20
-499.04120862
 30
0.0
 11
1644.31247347
 21
-507.04118498
 31
0.0
  0
LINE
  5
5F7
100
AcDbEntity
  8
Sc.1_5
 62
     9
  6
CONTINUOUS
370
    -2
100
AcDbLine
 10
1644.31247347
 20
-499.04120862
 30
0.0
 11
1640.31255114
 21
-507.04118498
 31
0.0
  0
ENDBLK
  5
5F8
100
AcDbEntity
100
AcDbBlockEnd
  0
BLOCK
  5
5F9
100
AcDbEntity
  8
Sc.1_5
100
AcDbBlockBegin
  2
*X1777
 70
     1
 10
0.0
 20
0.0
 30
0.0
  3
*X1777
  1

  4
Cadwork hatch
  0
LINE
  5
5FA
100
AcDbEntity
  8
Sc.1_5
 62
     9
  6
CONTINUOUS
370
    -2
100
AcDbLine
 10
1640.31255114
 20
-403.04119594
 30
0.0
 11
1644.31247347
 21
-411.04120523
 31
0.0
  0
LINE
  5
5FB
100
AcDbEntity
  8
Sc.1_5
 62
     9
  6
CONTINUOUS
370
    -2
100
AcDbLine
 10
1644.31247347
 20
-403.04119594
 30
0.0
 11
1640.31255114
 21
-411.04120523
 31
0.0
  0
ENDBLK
  5
5FC
100
AcDbEntity
100
AcDbBlockEnd
  0
ENDSEC
  0
SECTION
  2
ENTITIES
  0
LWPOLYLINE
  5
5FD
102
{ACAD_REACTORS
330
5FE
102
}
100
AcDbEntity
  8
Sc.1_5
 62
     7
  6
CADWORK_15
100
AcDbPolyline
 90
        4
 70
     1
 43
0.0
 10
1687.48733852
 20
-585.08647044
 10
1687.48733852
 20
-515.79119418
 10
1647.48738697
 20
-515.79119418
 10
1647.48738697
 20
-585.08647044
  0
HATCH
  5
5FE
100
AcDbEntity
  8
Sc.1_5
 62
     9
  6
CADWORK_15
100
AcDbHatch
 10
0.0
 20
0.0
 30
0.0
210
0.0
220
0.0
230
1.0
  2
AR-CONC
 70
     0
 71
     1
 91
        1
 92
        7
 72
     0
 73
     1
 93
        4
 10
1687.48733852
 20
-585.08647044
 10
1687.48733852
 20
-515.79119418
 10
1647.48738697
 20
-515.79119418
 10
1647.48738697
 20
-585.08647044
 97
        1
330
5FD
 75
     0
 76
     2
 52
0.0
 41
0.01574813
 77
     0
 78
    13
 53
50.0
 43
0.0
 44
0.0
 45
-2.51237818
 46
0.21980459
 79
     2
 49
0.26270574
 49
-2.88976312
 53
355.0
 43
0.0
 44
0.0
 45
-0.48601034
 46
2.63473577
 79
     2
 49
0.2101645
 49
-2.31181049
 53
100.45140076
 43
0.20936476
 44
-0.018317
 45
-2.02636964
 46
-2.41492966
 79
     2
 49
0.2232655
 49
-2.4559207
 53
46.18420029
 43
0.0
 44
0.70054877
 45
-3.73827114
 46
0.5797705
 79
     2
 49
0.3940585
 49
-4.33464432
 53
96.63559723
 43
0.31152251
 44
0.65223426
 45
-3.27388349
 46
-3.41208454
 79
     2
 49
0.33489826
 49
-3.68388057
 53
351.1842041
 43
0.0
 44
0.70054877
 45
3.27388038
 46
3.41208762
 79
     2
 49
0.315247
 49
-3.46771574
 53
21.0
 43
0.35027426
 44
0.52541149
 45
-2.09081209
 46
1.41027054
 79
     2
 49
0.26270574
 49
-2.88976312
 53
326.0
 43
0.35027426
 44
0.52541149
 45
0.85227102
 46
2.54001431
 79
     2
 49
0.2101645
 49
-2.31181049
 53
71.45140076
 43
0.52450848
 44
0.40788874
 45
-2.94308395
 46
-1.12974158
 79
     2
 49
0.2232655
 49
-2.4559207
 53
37.5
 43
0.0
 44
0.0
 45
0.04259271
 46
1.16604166
 79
     6
 49
0.0025
 49
-2.28378844
 49
0.0025
 49
-2.346838
 49
0.0025
 49
-2.32056713
 53
7.5
 43
0.0
 44
0.0
 45
0.92146509
 46
1.38152296
 79
     6
 49
0.0025
 49
-1.33804774
 49
0.0025
 49
-2.23124719
 49
0.0025
 49
-0.88444275
 53
-32.5
 43
-0.78111178
 44
0.0
 45
1.86984275
 46
-0.079004
 79
     6
 49
0.0025
 49
-0.87568575
 49
0.0025
 49
-2.73213983
 49
0.0025
 49
-3.62533927
 53
-42.5
 43
-1.13138604
 44
0.0
 45
2.04275143
 46
0.35064206
 79
     6
 49
0.0025
 49
-1.13839149
 49
0.0025
 49
-1.81442106
 49
0.0025
 49
-2.5745163
 47
0.775229
 98
        1
 10
0.0
 20
0.0
  0
LINE
  5
5FF
100
AcDbEntity
  8
Sc.1_5
 62
     7
  6
CONTINUOUS
100
AcDbLine
 10
1647.48748811
 20
-395.64820575
 30
0.0
 11
1647.48748811
 21
-471.79130924
 31
0.0
  0
LINE
  5
600
100
AcDbEntity
  8
Sc.1_5
 62
     7
  6
CONTINUOUS
100
AcDbLine
 10
1675.48738842
 20
-471.79130924
 30
0.0
 11
1675.48738842
 21
-395.64820575
 31
0.0
  0
LINE
  5
601
100
AcDbEntity
  8
Sc.1_5
 62
     7
  6
DASHED
370
    25
100
AcDbLine
 10
1675.48738697
 20
-515.29119418
 30
0.0
 11
1647.48738697
 21
-515.29119418
 31
0.0
  0
LINE
  5
602
100
AcDbEntity
  8
Sc.1_5
 62
     7
  6
CONTINUOUS
100
AcDbLine
 10
1636.13748811
 20
-525.79119418
 30
0.0
 11
1639.93748811
 21
-525.79119418
 31
0.0
  0
LINE
  5
603
100
AcDbEntity
  8
Sc.1_5
 62
     7
  6
CONTINUOUS
100
AcDbLine
 10
1639.93748811
 20
-525.79119418
 30
0.0
 11
1639.93748811
 21
-395.64820575
 31
0.0
  0
LINE
  5
604
100
AcDbEntity
  8
Sc.1_5
 62
     7
  6
CONTINUOUS
100
AcDbLine
 10
1636.13748811
 20
-395.64820575
 30
0.0
 11
1636.13748811
 21
-525.79119418
 31
0.0
  0
LINE
  5
605
100
AcDbEntity
  8
Sc.1_5
 62
     7
  6
CONTINUOUS
100
AcDbLine
 10
1638.03748811
 20
-395.64820575
 30
0.0
 11
1638.03748811
 21
-525.79119418
 31
0.0
  0
LINE
  5
606
100
AcDbEntity
  8
Sc.1_5
 62
     7
  6
CONTINUOUS
100
AcDbLine
 10
1678.28738842
 20
-462.19068662
 30
0.0
 11
1678.28738842
 21
-476.29130924
 31
0.0
  0
LINE
  5
607
100
AcDbEntity
  8
Sc.1_5
 62
     7
  6
CONTINUOUS
100
AcDbLine
 10
1678.28738842
 20
-476.29130924
 30
0.0
 11
1681.28738842
 21
-476.29130924
 31
0.0
  0
LINE
  5
608
100
AcDbEntity
  8
Sc.1_5
 62
     7
  6
CONTINUOUS
100
AcDbLine
 10
1681.28738842
 20
-476.29130924
 30
0.0
 11
1681.28738842
 21
-464.29130924
 31
0.0
  0
LINE
  5
609
100
AcDbEntity
  8
Sc.1_5
 62
     7
  6
CONTINUOUS
100
AcDbLine
 10
1681.28738842
 20
-464.29130924
 30
0.0
 11
1678.28738842
 21
-462.19068662
 31
0.0
  0
LINE
  5
60A
100
AcDbEntity
  8
Sc.1_5
 62
     7
  6
CONTINUOUS
100
AcDbLine
 10
1677.78738842
 20
-476.79130924
 30
0.0
 11
1677.78738842
 21
-480.79130924
 31
0.0
  0
LINE
  5
60B
100
AcDbEntity
  8
Sc.1_5
 62
     7
  6
CONTINUOUS
370
    35
100
AcDbLine
 10
1640.43748811
 20
-514.29119418
 30
0.0
 11
1644.92574012
 21
-514.29119418
 31
0.0
  0
LINE
  5
60C
100
AcDbEntity
  8
Sc.1_5
 62
     7
  6
CONTINUOUS
370
    35
100
AcDbLine
 10
1644.92574012
 20
-514.29119418
 30
0.0
 11
1644.92574012
 21
-504.29119418
 31
0.0
  0
LINE
  5
60D
100
AcDbEntity
  8
Sc.1_5
 62
     7
  6
CONTINUOUS
370
    35
100
AcDbLine
 10
1640.43748811
 20
-514.29119418
 30
0.0
 11
1640.43748811
 21
-510.29119418
 31
0.0
  0
LINE
  5
60E
100
AcDbEntity
  8
Sc.1_5
 62
     7
  6
CONTINUOUS
100
AcDbLine
 10
1673.48738704
 20
-585.08647001
 30
0.0
 11
1670.98738744
 21
-590.0864703
 31
0.0
  0
LINE
  5
60F
100
AcDbEntity
  8
Sc.1_5
 62
     7
  6
CONTINUOUS
100
AcDbLine
 10
1670.98738744
 20
-590.0864703
 30
0.0
 11
1665.98738649
 21
-580.08647059
 31
0.0
  0
LINE
  5
610
100
AcDbEntity
  8
Sc.1_5
 62
     7
  6
CONTINUOUS
100
AcDbLine
 10
1665.98738649
 20
-580.08647059
 30
0.0
 11
1663.48738689
 21
-585.08647088
 31
0.0
  0
LINE
  5
611
100
AcDbEntity
  8
Sc.1_5
 62
     7
  6
CONTINUOUS
100
AcDbLine
 10
1663.48738689
 20
-585.08647088
 30
0.0
 11
1644.35157836
 21
-585.08647255
 31
0.0
  0
LINE
  5
612
100
AcDbEntity
  8
Sc.1_5
 62
     7
  6
CONTINUOUS
100
AcDbLine
 10
1691.17113255
 20
-585.08646846
 30
0.0
 11
1673.48738704
 21
-585.08647001
 31
0.0
  0
LWPOLYLINE
  5
613
102
{ACAD_REACTORS
330
614
102
}
100
AcDbEntity
  8
Sc.1_5
 62
     7
  6
CONTINUOUS
100
AcDbPolyline
 90
        4
 70
     1
 43
0.0
 10
1645.18748811
 20
-395.64820575
 10
1645.18748811
 20
-514.29119418
 10
1646.98748811
 20
-514.29119418
 10
1646.98748811
 20
-395.64820575
  0
HATCH
  5
614
100
AcDbEntity
  8
Sc.1_5
 62
     9
  6
CONTINUOUS
100
AcDbHatch
 10
0.0
 20
0.0
 30
0.0
210
0.0
220
0.0
230
1.0
  2
ANSI31
 70
     0
 71
     1
 91
        1
 92
        7
 72
     0
 73
     1
 93
        4
 10
1645.18748811
 20
-395.64820575
 10
1645.18748811
 20
-514.29119418
 10
1646.98748811
 20
-514.29119418
 10
1646.98748811
 20
-395.64820575
 97
        1
330
613
 75
     0
 76
     2
 52
0.0
 41
0.3149626
 77
     0
 78
     1
 53
45.0
 43
0.0
 44
0.0
 45
0.70710678
 46
-0.70710678
 79
     0
 47
0.775229
 98
        1
 10
0.0
 20
0.0
  0
LWPOLYLINE
  5
615
102
{ACAD_REACTORS
330
616
102
}
100
AcDbEntity
  8
Sc.1_5
 62
     7
  6
CONTINUOUS
100
AcDbPolyline
 90
        4
 70
     1
 43
0.0
 10
1675.98738842
 20
-395.64820575
 10
1675.98738842
 20
-480.79130924
 10
1677.78738842
 20
-480.79130924
 10
1677.78738842
 20
-395.64820575
  0
HATCH
  5
616
100
AcDbEntity
  8
Sc.1_5
 62
     9
  6
CONTINUOUS
100
AcDbHatch
 10
0.0
 20
0.0
 30
0.0
210
0.0
220
0.0
230
1.0
  2
CDWK12A
 70
     0
 71
     1
 91
        1
 92
        7
 72
     0
 73
     1
 93
        4
 10
1675.98738842
 20
-395.64820575
 10
1675.98738842
 20
-480.79130924
 10
1677.78738842
 20
-480.79130924
 10
1677.78738842
 20
-395.64820575
 97
        1
330
615
 75
     0
 76
     2
 52
0.0
 41
1.0
 77
     0
 78
    15
 53
0.0
 43
0.0
 44
0.0
 45
2.70000005
 46
4.9000001
 79
     2
 49
0.0
 49
-3.70000005
 53
0.0
 43
0.0
 44
0.0
 45
4.4000001
 46
4.80000019
 79
     2
 49
0.0
 49
-5.4000001
 53
0.0
 43
0.0
 44
0.0
 45
1.39999998
 46
4.5999999
 79
     2
 49
0.0
 49
-2.4000001
 53
0.0
 43
0.0
 44
0.0
 45
2.20000005
 46
4.19999981
 79
     2
 49
0.0
 49
-3.20000005
 53
0.0
 43
0.0
 44
0.0
 45
3.79999995
 46
4.0
 79
     2
 49
0.0
 49
-4.80000019
 53
0.0
 43
0.0
 44
0.0
 45
1.20000005
 46
3.79999995
 79
     2
 49
0.0
 49
-2.20000005
 53
0.0
 43
0.0
 44
0.0
 45
2.9000001
 46
3.5
 79
     2
 49
0.0
 49
-3.9000001
 53
0.0
 43
0.0
 44
0.0
 45
4.5999999
 46
3.4000001
 79
     2
 49
0.0
 49
-5.5999999
 53
0.0
 43
0.0
 44
0.0
 45
1.89999998
 46
2.9000001
 79
     2
 49
0.0
 49
-2.9000001
 53
0.0
 43
0.0
 44
0.0
 45
3.20000005
 46
2.79999995
 79
     2
 49
0.0
 49
-4.19999981
 53
0.0
 43
0.0
 44
0.0
 45
3.9000001
 46
2.4000001
 79
     2
 49
0.0
 49
-4.9000001
 53
0.0
 43
0.0
 44
0.0
 45
2.4000001
 46
2.0999999
 79
     2
 49
0.0
 49
-3.4000001
 53
0.0
 43
0.0
 44
0.0
 45
4.9000001
 46
2.0999999
 79
     2
 49
0.0
 49
-5.9000001
 53
0.0
 43
0.0
 44
0.0
 45
3.5999999
 46
1.5
 79
     2
 49
0.0
 49
-4.5999999
 53
0.0
 43
0.0
 44
0.0
 45
1.60000002
 46
1.39999998
 79
     2
 49
0.0
 49
-2.5999999
 47
0.775229
 98
        1
 10
0.0
 20
0.0
  0
LWPOLYLINE
  5
617
102
{ACAD_REACTORS
330
618
102
}
100
AcDbEntity
  8
Sc.1_5
 62
     9
  6
CONTINUOUS
100
AcDbPolyline
 90
        4
 70
     1
 43
0.0
 10
1762.48738697
 20
-481.17416725
 10
1648.48738657
 20
-481.17416725
 10
1648.48738657
 20
-505.17416725
 10
1762.48738697
 20
-505.17416725
  0
HATCH
  5
618
100
AcDbEntity
  8
Sc.1_5
 62
     9
  6
CONTINUOUS
100
AcDbHatch
 10
0.0
 20
0.0
 30
0.0
210
0.0
220
0.0
230
1.0
  2
Wood
 70
     0
 71
     1
 91
        1
 92
        7
 72
     0
 73
     1
 93
        4
 10
1762.48738697
 20
-481.17416725
 10
1648.48738657
 20
-481.17416725
 10
1648.48738657
 20
-505.17416725
 10
1762.48738697
 20
-505.17416725
 97
        1
330
617
 75
     0
 76
     2
 52
0.0
 41
1.0
 77
     0
 78
    66
 53
0.0
 43
0.0
 44
0.0
 45
0.0
 46
41.23109818
 79
     4
 49
8.24619961
 49
-12.36929989
 49
4.1230998
 49
-16.49239922
 53
0.0
 43
28.86170006
 44
1.03079998
 45
0.0
 46
41.23109818
 79
     2
 49
8.24619961
 49
-32.98479843
 53
0.0
 43
24.73859978
 44
3.09229994
 45
0.0
 46
41.23109818
 79
     2
 49
4.1230998
 49
-37.10800171
 53
0.0
 43
2.06159997
 44
4.1230998
 45
0.0
 46
41.23109818
 79
     4
 49
2.06159997
 49
-28.86170006
 49
2.06159997
 49
-8.24619961
 53
0.0
 43
16.49239922
 44
6.18470001
 45
0.0
 46
41.23109818
 79
     4
 49
8.24619961
 49
-12.36929989
 49
2.06159997
 49
-18.55400085
 53
0.0
 43
6.18470001
 44
7.21540022
 45
0.0
 46
41.23109818
 79
     2
 49
6.18470001
 49
-35.04639816
 53
0.0
 43
16.49239922
 44
8.24619961
 45
0.0
 46
41.23109818
 79
     2
 49
12.36929989
 49
-28.86170006
 53
0.0
 43
4.1230998
 44
9.27700043
 45
0.0
 46
41.23109818
 79
     2
 49
8.24619961
 49
-32.98479843
 53
0.0
 43
20.6154995
 44
10.30780029
 45
0.0
 46
41.23109818
 79
     2
 49
20.6154995
 49
-20.6154995
 53
0.0
 43
8.24619961
 44
12.36929989
 45
0.0
 46
41.23109818
 79
     4
 49
4.1230998
 49
-12.36929989
 49
8.24619961
 49
-16.49239922
 53
0.0
 43
37.10800171
 44
13.40009975
 45
0.0
 46
41.23109818
 79
     2
 49
8.24619961
 49
-32.98479843
 53
0.0
 43
28.86170006
 44
14.43089962
 45
0.0
 46
41.23109818
 79
     2
 49
4.1230998
 49
-37.10800171
 53
0.0
 43
20.6154995
 44
15.4616003
 45
0.0
 46
41.23109818
 79
     2
 49
4.1230998
 49
-37.10800171
 53
0.0
 43
0.0
 44
16.49239922
 45
0.0
 46
41.23109818
 79
     2
 49
8.24619961
 49
-32.98479843
 53
0.0
 43
20.6154995
 44
17.52319908
 45
0.0
 46
41.23109818
 79
     2
 49
8.24619961
 49
-32.98479843
 53
0.0
 43
20.6154995
 44
19.58480072
 45
0.0
 46
41.23109818
 79
     4
 49
8.24619961
 49
-8.24619961
 49
8.24619961
 49
-16.49239922
 53
0.0
 43
12.36929989
 44
21.64629936
 45
0.0
 46
41.23109818
 79
     4
 49
4.1230998
 49
-20.6154995
 49
8.24619961
 49
-8.24619961
 53
0.0
 43
20.6154995
 44
22.67709923
 45
0.0
 46
41.23109818
 79
     2
 49
12.36929989
 49
-28.86170006
 53
0.0
 43
20.6154995
 44
24.73859978
 45
0.0
 46
41.23109818
 79
     2
 49
8.24619961
 49
-32.98479843
 53
0.0
 43
4.1230998
 44
25.76939964
 45
0.0
 46
41.23109818
 79
     4
 49
12.36929989
 49
-16.49239922
 49
4.1230998
 49
-8.24619961
 53
0.0
 43
4.1230998
 44
27.83099937
 45
0.0
 46
41.23109818
 79
     2
 49
20.6154995
 49
-20.6154995
 53
0.0
 43
28.86170006
 44
28.86170006
 45
0.0
 46
41.23109818
 79
     2
 49
4.1230998
 49
-37.10800171
 53
0.0
 43
16.49239922
 44
29.89249992
 45
0.0
 46
41.23109818
 79
     2
 49
8.24619961
 49
-32.98479843
 53
0.0
 43
8.24619961
 44
30.92329979
 45
0.0
 46
41.23109818
 79
     4
 49
4.1230998
 49
-16.49239922
 49
4.1230998
 49
-16.49239922
 53
0.0
 43
4.1230998
 44
31.95409966
 45
0.0
 46
41.23109818
 79
     4
 49
4.1230998
 49
-12.36929989
 49
8.24619961
 49
-16.49239922
 53
0.0
 43
12.36929989
 44
32.98479843
 45
0.0
 46
41.23109818
 79
     4
 49
4.1230998
 49
-20.6154995
 49
4.1230998
 49
-12.36929989
 53
0.0
 43
20.6154995
 44
34.0155983
 45
0.0
 46
41.23109818
 79
     2
 49
12.36929989
 49
-28.86170006
 53
0.0
 43
4.1230998
 44
36.07720184
 45
0.0
 46
41.23109818
 79
     2
 49
8.24619961
 49
-32.98479843
 53
0.0
 43
24.73859978
 44
37.10800171
 45
0.0
 46
41.23109818
 79
     2
 49
4.1230998
 49
-37.10800171
 53
0.0
 43
32.98479843
 44
38.13869858
 45
0.0
 46
41.23109818
 79
     2
 49
4.1230998
 49
-37.10800171
 53
14.03619957
 43
28.86170006
 44
3.09229994
 45
-41.23105626
 46
3.1589938600973E-05
 79
     2
 49
4.24679995
 49
-165.75320435
 53
14.03619957
 43
32.98479843
 44
12.36929989
 45
-41.23105626
 46
3.1589938600973E-05
 79
     2
 49
4.24679995
 49
-165.75320435
 53
14.03619957
 43
28.86170006
 44
37.10800171
 45
-41.23105626
 46
3.1589938600973E-05
 79
     2
 49
4.24679995
 49
-165.75320435
 53
14.03619957
 43
16.49239922
 44
21.64629936
 45
-41.23105626
 46
3.1589938600973E-05
 79
     2
 49
4.24679995
 49
-165.75320435
 53
14.03619957
 43
24.73859978
 44
27.83099937
 45
-41.23105626
 46
3.1589938600973E-05
 79
     2
 49
4.24679995
 49
-165.75320435
 53
14.03619957
 43
28.86170006
 44
24.73859978
 45
-41.23105626
 46
3.1589938600973E-05
 79
     2
 49
4.24679995
 49
-165.75320435
 53
14.03619957
 43
8.24619961
 44
31.95409966
 45
-41.23105626
 46
3.1589938600973E-05
 79
     2
 49
4.24679995
 49
-165.75320435
 53
14.03619957
 43
24.73859978
 44
29.89249992
 45
-41.23105626
 46
3.1589938600973E-05
 79
     2
 49
4.24679995
 49
-165.75320435
 53
14.03619957
 43
32.98479843
 44
14.43089962
 45
-41.23105626
 46
3.1589938600973E-05
 79
     2
 49
8.49359989
 49
-161.50639343
 53
14.03619957
 43
28.86170006
 44
17.52319908
 45
-41.23105626
 46
3.1589938600973E-05
 79
     2
 49
8.49359989
 49
-161.50639343
 53
14.03619957
 43
28.86170006
 44
19.58480072
 45
-41.23105626
 46
3.1589938600973E-05
 79
     2
 49
8.49359989
 49
-161.50639343
 53
165.96380615
 43
16.49239922
 44
6.18470001
 45
-41.23105626
 46
-3.5707624025605E-05
 79
     4
 49
4.24679995
 49
-8.49359989
 49
4.24679995
 49
-153.01280212
 53
165.96380615
 43
8.24619961
 44
12.36929989
 45
-41.23105626
 46
-3.5707624025605E-05
 79
     2
 49
4.24679995
 49
-165.75320435
 53
165.96380615
 43
8.24619961
 44
30.92329979
 45
-41.23105626
 46
-3.5707624025605E-05
 79
     2
 49
8.49359989
 49
-161.50639343
 53
194.03619385
 43
28.86170006
 44
1.03079998
 45
41.23105626
 46
-3.5707624036263E-05
 79
     2
 49
4.24679995
 49
-165.75320435
 53
345.9637146
 43
37.10800171
 44
1.03079998
 45
41.23105626
 46
-3.0175342796923E-05
 79
     2
 49
4.24679995
 49
-165.75320435
 53
345.9637146
 43
24.73859978
 44
15.4616003
 45
41.23105626
 46
-3.0175342796923E-05
 79
     2
 49
4.24679995
 49
-165.75320435
 53
345.9637146
 43
32.98479843
 44
22.67709923
 45
41.23105626
 46
-3.0175342796923E-05
 79
     2
 49
4.24679995
 49
-165.75320435
 53
345.9637146
 43
16.49239922
 44
25.76939964
 45
41.23105626
 46
-3.0175342796923E-05
 79
     2
 49
4.24679995
 49
-165.75320435
 53
345.9637146
 43
12.36929989
 44
30.92329979
 45
41.23105626
 46
-3.0175342796923E-05
 79
     2
 49
4.24679995
 49
-165.75320435
 53
345.9637146
 43
16.49239922
 44
32.98479843
 45
41.23105626
 46
-3.0175342796923E-05
 79
     2
 49
4.24679995
 49
-165.75320435
 53
345.9637146
 43
16.49239922
 44
25.76939964
 45
41.23105626
 46
-3.0175342796923E-05
 79
     2
 49
4.24679995
 49
-165.75320435
 53
345.9637146
 43
28.86170006
 44
31.95409966
 45
41.23105626
 46
-3.0175342796923E-05
 79
     2
 49
16.98719978
 49
-153.01280212
 53
345.9637146
 43
4.1230998
 44
4.1230998
 45
41.23105626
 46
-3.0175342796923E-05
 79
     2
 49
16.98719978
 49
-153.01280212
 53
345.9637146
 43
8.24619961
 44
7.21540022
 45
41.23105626
 46
-3.0175342796923E-05
 79
     2
 49
16.98719978
 49
-153.01280212
 53
345.9637146
 43
12.36929989
 44
9.27700043
 45
41.23105626
 46
-3.0175342796923E-05
 79
     4
 49
4.24679995
 49
-8.49359989
 49
8.49359989
 49
-148.76600647
 53
345.9637146
 43
12.36929989
 44
12.36929989
 45
41.23105626
 46
-3.0175342796923E-05
 79
     4
 49
8.49359989
 49
-8.49359989
 49
8.49359989
 49
-144.51919556
 53
345.9637146
 43
8.24619961
 44
16.49239922
 45
41.23105626
 46
-3.0175342796923E-05
 79
     2
 49
16.98719978
 49
-153.01280212
 53
345.9637146
 43
4.1230998
 44
19.58480072
 45
41.23105626
 46
-3.0175342796923E-05
 79
     2
 49
16.98719978
 49
-153.01280212
 53
345.9637146
 43
4.1230998
 44
21.64629936
 45
41.23105626
 46
-3.0175342796923E-05
 79
     2
 49
16.98719978
 49
-153.01280212
 53
345.9637146
 43
32.98479843
 44
34.0155983
 45
41.23105626
 46
-3.0175342796923E-05
 79
     2
 49
4.24679995
 49
-165.75320435
 53
345.96380615
 43
37.10800171
 44
38.13869858
 45
41.23105626
 46
3.5707624002512E-05
 79
     2
 49
8.49359989
 49
-161.50639343
 53
345.96380615
 43
12.36929989
 44
36.07720184
 45
41.23105626
 46
3.5707624002512E-05
 79
     2
 49
8.49359989
 49
-161.50639343
 53
345.9637146
 43
8.24619961
 44
0.0
 45
41.23105626
 46
-3.0175342796923E-05
 79
     2
 49
16.98719978
 49
-153.01280212
 53
345.9637146
 43
32.98479843
 44
28.86170006
 45
41.23105626
 46
-3.0175342796923E-05
 79
     2
 49
12.74040031
 49
-157.25959778
 53
345.9637146
 43
37.10800171
 44
25.76939964
 45
41.23105626
 46
-3.0175342796923E-05
 79
     2
 49
25.48080063
 49
-144.51919556
 47
0.775229
 98
        1
 10
0.0
 20
0.0
  0
3DFACE
  5
619
102
{ACAD_REACTORS
330
61A
102
}
100
AcDbEntity
  8
Sc.1_5
 62
     7
  6
CONTINUOUS
370
    20
100
AcDbFace
 70
     0
 10
1762.4873867
 20
-480.79130924
 30
548.63999023
 11
1762.4873867
 21
-476.79130924
 31
548.63999023
 12
1678.28084006
 22
-476.79130924
 32
548.63999023
 13
1678.28084006
 23
-480.79130924
 33
548.63999023
  0
HATCH
  5
61A
100
AcDbEntity
  8
Sc.1_5
 62
     9
  6
CONTINUOUS
100
AcDbHatch
 10
0.0
 20
0.0
 30
0.0
210
0.0
220
0.0
230
1.0
  2
ANSI31
 70
     0
 71
     1
 91
        1
 92
        7
 72
     0
 73
     1
 93
        4
 10
1762.4873867
 20
-480.79130924
 10
1762.4873867
 20
-476.79130924
 10
1678.28084006
 20
-476.79130924
 10
1678.28084006
 20
-480.79130924
 97
        1
330
619
 75
     0
 76
     2
 52
135.0
 41
0.62992521
 77
     0
 78
     1
 53
0.0
 43
0.0
 44
1.0
 45
0.0
 46
2.0
 79
     0
 47
0.775229
 98
        1
 10
0.0
 20
0.0
  0
LWPOLYLINE
  5
61B
100
AcDbEntity
  8
Sc.1_1
 62
     7
  6
DASHDOT
370
     5
100
AcDbPolyline
 90
        4
 70
     1
 43
0.0
 10
1604.1442253
 20
-634.93497044
 10
1636.04729741
 20
-634.93497044
 10
1636.04729741
 20
-618.93796344
 10
1604.1442253
 20
-618.93796344
  0
LWPOLYLINE
  5
61C
100
AcDbEntity
  8
LEGEND
 62
     5
  6
CONTINUOUS
370
    -3
100
AcDbPolyline
 90
        4
 70
     1
 43
0.0
 10
1635.72952177
 20
-635.56861917
 10
1693.54487601
 20
-635.56861917
 10
1693.54487601
 20
-618.30625768
 10
1635.72952177
 20
-618.30625768
  0
LWPOLYLINE
  5
61D
100
AcDbEntity
  8
LEGEND
 62
     5
  6
CONTINUOUS
370
    -3
100
AcDbPolyline
 90
        4
 70
     1
 43
0.0
 10
1693.54487601
 20
-635.56861917
 10
1766.93702756
 20
-635.56861917
 10
1766.93702756
 20
-618.30625768
 10
1693.54487601
 20
-618.30625768
  0
LWPOLYLINE
  5
61E
100
AcDbEntity
  8
LEGEND
 62
     5
  6
CONTINUOUS
370
    -3
100
AcDbPolyline
 90
        4
 70
     1
 43
0.0
 10
1766.93702756
 20
-635.56861917
 10
1801.46102669
 20
-635.56861917
 10
1801.46102669
 20
-626.93743842
 10
1766.93702756
 20
-626.93743842
  0
LWPOLYLINE
  5
61F
100
AcDbEntity
  8
LEGEND
 62
     5
  6
CONTINUOUS
370
    -3
100
AcDbPolyline
 90
        4
 70
     1
 43
0.0
 10
1766.93702756
 20
-626.93743842
 10
1781.84527623
 20
-626.93743842
 10
1781.84527623
 20
-618.30625768
 10
1766.93702756
 20
-618.30625768
  0
LWPOLYLINE
  5
620
100
AcDbEntity
  8
LEGEND
 62
     5
  6
CONTINUOUS
370
    -3
100
AcDbPolyline
 90
        4
 70
     1
 43
0.0
 10
1604.46102669
 20
-635.56861917
 10
1801.46102669
 20
-635.56861917
 10
1801.46102669
 20
-364.56861917
 10
1604.46102669
 20
-364.56861917
  0
LWPOLYLINE
  5
621
100
AcDbEntity
  8
LEGEND
 62
     5
  6
CONTINUOUS
370
    -3
100
AcDbPolyline
 90
        4
 70
     1
 43
0.0
 10
1781.84527623
 20
-626.93743842
 10
1801.46102669
 20
-626.93743842
 10
1801.46102669
 20
-618.30625768
 10
1781.84527623
 20
-618.30625768
  0
LWPOLYLINE
  5
622
100
AcDbEntity
  8
LEGEND
 62
     5
  6
CONTINUOUS
370
    -3
100
AcDbPolyline
 90
        4
 70
     1
 43
0.0
 10
1604.46102669
 20
-635.56861917
 10
1635.72952177
 20
-635.56861917
 10
1635.72952177
 20
-618.30625768
 10
1604.46102669
 20
-618.30625768
  0
3DFACE
  5
623
100
AcDbEntity
  8
Sc.1_5
 62
     9
  6
CONTINUOUS
370
    20
100
AcDbFace
 70
     0
 10
1675.48738842
 20
-471.79130924
 30
548.63999023
 11
1675.48738842
 21
-395.64820575
 31
548.63999023
 12
1647.48748811
 22
-395.64820575
 32
548.63999023
 13
1647.48748811
 23
-471.79130924
 33
548.63999023
  0
INSERT
  5
624
100
AcDbEntity
  8
Sc.1_5
 62
     0
370
    20
100
AcDbBlockReference
  2
*X1739
 10
0.0
 20
0.0
 30
0.0
  0
3DFACE
  5
625
100
AcDbEntity
  8
Sc.1_5
 62
     9
  6
CONTINUOUS
370
    20
100
AcDbFace
 70
     0
 10
1675.48738657
 20
-515.29119418
 30
548.63999023
 11
1762.48738721
 21
-515.29122143
 31
548.63999023
 12
1762.48738709
 22
-505.29122143
 32
548.63999023
 13
1675.48738657
 23
-505.29122143
 33
548.63999023
  0
INSERT
  5
626
100
AcDbEntity
  8
Sc.1_5
 62
     0
370
    20
100
AcDbBlockReference
  2
*X1740
 10
0.0
 20
0.0
 30
0.0
  0
LWPOLYLINE
  5
627
100
AcDbEntity
  8
Sc.1_5
 62
     7
  6
CONTINUOUS
370
    20
100
AcDbPolyline
 90
        8
 70
     1
 43
0.0
 38
548.63999023
 39
-548.63999023
 10
1647.48738616
 20
-505.79119527
 10
1660.50723397
 20
-505.7911947
 10
1660.50723458
 20
-508.79122147
 10
1670.50723458
 20
-508.79122147
 10
1670.50723458
 20
-505.79122143
 10
1675.48738657
 20
-505.79119404
 10
1675.48738697
 20
-514.79119418
 10
1647.48738655
 20
-514.7911954
  0
INSERT
  5
628
100
AcDbEntity
  8
Sc.1_5
 62
     0
370
    20
100
AcDbBlockReference
  2
*X1741
 10
0.0
 20
0.0
 30
0.0
  0
3DFACE
  5
629
100
AcDbEntity
  8
Sc.1_5
 62
     7
  6
CONTINUOUS
370
    20
100
AcDbFace
 70
     0
 10
1647.48738616
 20
-471.79131033
 30
548.63999023
 11
1647.48738655
 21
-480.79131046
 31
548.63999023
 12
1675.48738697
 22
-480.79130924
 32
548.63999023
 13
1675.48738657
 23
-471.7913091
 33
548.63999023
  0
INSERT
  5
62A
100
AcDbEntity
  8
Sc.1_5
 62
     0
370
    20
100
AcDbBlockReference
  2
*X1760
 10
0.0
 20
0.0
 30
0.0
  0
LINE
  5
62B
100
AcDbEntity
  8
Sc.1_5
 62
     7
  6
CONTINUOUS
100
AcDbLine
 10
1652.03748803
 20
-395.64820575
 30
0.0
 11
1654.53748807
 21
-390.64820568
 31
0.0
  0
LINE
  5
62C
100
AcDbEntity
  8
Sc.1_5
 62
     7
  6
CONTINUOUS
100
AcDbLine
 10
1654.53748807
 20
-390.64820568
 30
0.0
 11
1659.53748815
 21
-400.64820583
 31
0.0
  0
LINE
  5
62D
100
AcDbEntity
  8
Sc.1_5
 62
     7
  6
CONTINUOUS
100
AcDbLine
 10
1659.53748815
 20
-400.64820583
 30
0.0
 11
1662.03748818
 21
-395.64820575
 31
0.0
  0
LINE
  5
62E
100
AcDbEntity
  8
Sc.1_5
 62
     7
  6
CONTINUOUS
100
AcDbLine
 10
1662.03748818
 20
-395.64820575
 30
0.0
 11
1681.98778023
 21
-395.64820575
 31
0.0
  0
LINE
  5
62F
100
AcDbEntity
  8
Sc.1_5
 62
     7
  6
CONTINUOUS
100
AcDbLine
 10
1632.02511596
 20
-395.64820575
 30
0.0
 11
1652.03748803
 21
-395.64820575
 31
0.0
  0
LINE
  5
630
100
AcDbEntity
  8
Sc.1_5
 62
     7
  6
CONTINUOUS
370
    20
100
AcDbLine
 10
1647.48748811
 20
-395.64820575
 30
548.63999023
 11
1647.48748811
 21
-471.79130924
 31
548.63999023
  0
LINE
  5
631
100
AcDbEntity
  8
Sc.1_5
 62
     7
  6
CONTINUOUS
370
    20
100
AcDbLine
 10
1675.48738657
 20
-471.7913091
 30
548.63999023
 11
1675.48738657
 21
-395.64820575
 31
548.63999023
  0
LWPOLYLINE
  5
632
100
AcDbEntity
  8
Sc.1_5
 62
     7
  6
CONTINUOUS
370
    20
100
AcDbPolyline
 90
        3
 70
     0
 43
0.0
 38
548.63999023
 10
1648.48738657
 20
-481.17416725
 10
1648.48738657
 20
-505.17416725
 10
1762.48738697
 20
-505.17416725
  0
LWPOLYLINE
  5
633
100
AcDbEntity
  8
Sc.1_5
 62
     7
  6
CONTINUOUS
370
    20
100
AcDbPolyline
 90
        4
 70
     0
 43
0.0
 38
548.63999023
 10
1762.4873868
 20
-481.14730007
 10
1762.4873868
 20
-481.17416725
 10
1648.48738657
 20
-481.17416725
 10
1762.4873868
 20
-481.17416725
  0
LINE
  5
634
100
AcDbEntity
  8
Sc.1_5
 62
     7
  6
CONTINUOUS
100
AcDbLine
 10
1762.48738691
 20
-489.7911941
 30
0.0
 11
1767.48738701
 21
-492.29119408
 31
0.0
  0
LINE
  5
635
100
AcDbEntity
  8
Sc.1_5
 62
     7
  6
CONTINUOUS
100
AcDbLine
 10
1767.48738701
 20
-492.29119408
 30
0.0
 11
1757.48738692
 21
-497.29119427
 31
0.0
  0
LINE
  5
636
100
AcDbEntity
  8
Sc.1_5
 62
     7
  6
CONTINUOUS
100
AcDbLine
 10
1757.48738692
 20
-497.29119427
 30
0.0
 11
1762.48738703
 21
-499.79119425
 31
0.0
  0
LINE
  5
637
100
AcDbEntity
  8
Sc.1_5
 62
     7
  6
CONTINUOUS
100
AcDbLine
 10
1762.4873867
 20
-472.50340603
 30
0.0
 11
1762.48738691
 21
-489.7911941
 31
0.0
  0
LINE
  5
638
100
AcDbEntity
  8
Sc.1_5
 62
     7
  6
CONTINUOUS
100
AcDbLine
 10
1762.48738703
 20
-499.79119425
 30
0.0
 11
1762.48738726
 21
-519.01048784
 31
0.0
  0
LINE
  5
639
100
AcDbEntity
  8
Sc.1_5
 62
     7
  6
CONTINUOUS
 48
0.5
370
    -3
100
AcDbLine
 10
1709.18799977
 20
-559.55703037
 30
500.0
 11
1667.10898883
 21
-559.55703037
 31
500.0
  0
INSERT
  5
63A
100
AcDbEntity
  8
Sc.1_5
 62
     7
  6
CONTINUOUS
370
    -3
100
AcDbBlockReference
  2
CDWK_EXTR_2
 10
1667.10898883
 20
-559.55703037
 30
500.0
 41
1.0
 42
1.0
 43
1.0
  0
LINE
  5
63B
100
AcDbEntity
  8
Sc.1_5
 62
     7
  6
CONTINUOUS
 48
0.5
370
    -3
100
AcDbLine
 10
1709.86849676
 20
-521.97199381
 30
500.0
 11
1696.85557357
 21
-513.09598816
 31
500.0
  0
INSERT
  5
63C
100
AcDbEntity
  8
Sc.1_5
 62
     7
  6
CONTINUOUS
370
    -3
100
AcDbBlockReference
  2
CDWK_EXTR_2
 10
1696.85557357
 20
-513.09598816
 30
500.0
 41
1.0
 42
1.0
 43
1.0
 50
325.70243
  0
LINE
  5
63D
100
AcDbEntity
  8
Sc.1_5
 62
     7
  6
CONTINUOUS
 48
0.5
370
    -3
100
AcDbLine
 10
1709.65744
 20
-530.72153462
 30
500.0
 11
1672.22397236
 21
-511.84160106
 31
500.0
  0
INSERT
  5
63E
100
AcDbEntity
  8
Sc.1_5
 62
     7
  6
CONTINUOUS
370
    -3
100
AcDbBlockReference
  2
CDWK_EXTR_2
 10
1672.22397236
 20
-511.84160106
 30
500.0
 41
1.0
 42
1.0
 43
1.0
 50
333.2354623
  0
LINE
  5
63F
100
AcDbEntity
  8
Sc.1_5
 62
     7
  6
CONTINUOUS
 48
0.5
370
    -3
100
AcDbLine
 10
1709.18799977
 20
-469.65095306
 30
500.0
 11
1686.9212101
 21
-484.54197154
 31
500.0
  0
INSERT
  5
640
100
AcDbEntity
  8
Sc.1_5
 62
     7
  6
CONTINUOUS
370
    -3
100
AcDbBlockReference
  2
CDWK_EXTR_2
 10
1686.9212101
 20
-484.54197154
 30
500.0
 41
1.0
 42
1.0
 43
1.0
 50
33.77280916
  0
LINE
  5
641
100
AcDbEntity
  8
Sc.1_5
 62
     7
  6
CONTINUOUS
 48
0.5
370
    -3
100
AcDbLine
 10
1709.8188379
 20
-544.02120914
 30
500.0
 11
1668.00497725
 21
-515.37141758
 31
500.0
  0
INSERT
  5
642
100
AcDbEntity
  8
Sc.1_5
 62
     7
  6
CONTINUOUS
370
    -3
100
AcDbBlockReference
  2
CDWK_EXTR_2
 10
1668.00497725
 20
-515.37141758
 30
500.0
 41
1.0
 42
1.0
 43
1.0
 50
325.58205168
  0
LINE
  5
643
100
AcDbEntity
  8
Sc.1_5
 62
     7
  6
CONTINUOUS
 48
0.5
370
    -3
100
AcDbLine
 10
1709.18799977
 20
-421.03754952
 30
500.0
 11
1667.10898883
 21
-421.03754952
 31
500.0
  0
INSERT
  5
644
100
AcDbEntity
  8
Sc.1_5
 62
     7
  6
CONTINUOUS
370
    -3
100
AcDbBlockReference
  2
CDWK_EXTR_2
 10
1667.10898883
 20
-421.03754952
 30
500.0
 41
1.0
 42
1.0
 43
1.0
  0
LWPOLYLINE
  5
645
100
AcDbEntity
  8
Sc.1_5
 62
     7
  6
CONTINUOUS
370
    20
100
AcDbPolyline
 90
        4
 70
     0
 43
0.0
 38
548.63999023
 10
1647.48738697
 20
-585.08647044
 10
1647.48738697
 20
-515.79119418
 10
1687.48733852
 20
-515.79119418
 10
1687.48733852
 20
-585.08647044
  0
LWPOLYLINE
  5
646
100
AcDbEntity
  8
Sc.1_5
 62
     9
  6
CONTINUOUS
100
AcDbPolyline
 90
        4
 70
     1
 43
0.0
 10
1670.21696586
 20
-507.79122146
 10
1660.94531587
 20
-507.79122146
 10
1660.94531587
 20
-508.79122147
 10
1670.21696586
 20
-508.79122147
  0
LWPOLYLINE
  5
647
100
AcDbEntity
  8
Sc.1_5
 62
     9
  6
CONTINUOUS
100
AcDbPolyline
 90
        4
 70
     1
 43
0.0
 10
1667.54575375
 20
-505.79122143
 10
1663.54575369
 20
-505.79122143
 10
1663.54575369
 20
-507.79122146
 10
1667.54575375
 20
-507.79122146
  0
LWPOLYLINE
  5
648
100
AcDbEntity
  8
Sc.1_5
 62
     9
  6
CONTINUOUS
100
AcDbPolyline
 90
        4
 70
     1
 43
0.0
 10
1666.68738698
 20
-508.79122147
 10
1666.68738698
 20
-535.88185778
 10
1664.28738695
 20
-535.88185778
 10
1664.28738695
 20
-508.79122147
  0
LINE
  5
649
100
AcDbEntity
  8
Sc.1_5
 62
     9
  6
CONTINUOUS
100
AcDbLine
 10
1664.49590102
 20
-505.79122143
 30
0.0
 11
1664.49590102
 21
-507.79122146
 31
0.0
  0
LINE
  5
64A
100
AcDbEntity
  8
Sc.1_5
 62
     9
  6
CONTINUOUS
100
AcDbLine
 10
1666.56258648
 20
-505.79122143
 30
0.0
 11
1666.56258648
 21
-507.79122146
 31
0.0
  0
LINE
  5
64B
100
AcDbEntity
  8
Sc.1_5
 62
     9
  6
CONTINUOUS
100
AcDbLine
 10
1664.28738695
 20
-535.88185778
 30
0.0
 11
1666.68738698
 21
-535.32777411
 31
0.0
  0
LINE
  5
64C
100
AcDbEntity
  8
Sc.1_5
 62
     9
  6
CONTINUOUS
100
AcDbLine
 10
1664.28738695
 20
-535.35802695
 30
0.0
 11
1666.68738698
 21
-534.80394328
 31
0.0
  0
LINE
  5
64D
100
AcDbEntity
  8
Sc.1_5
 62
     9
  6
CONTINUOUS
100
AcDbLine
 10
1664.28738695
 20
-534.88185776
 30
0.0
 11
1666.68738698
 21
-534.3277741
 31
0.0
  0
LINE
  5
64E
100
AcDbEntity
  8
Sc.1_5
 62
     9
  6
CONTINUOUS
100
AcDbLine
 10
1664.28738695
 20
-534.23392662
 30
0.0
 11
1666.68738698
 21
-533.67984295
 31
0.0
  0
LINE
  5
64F
100
AcDbEntity
  8
Sc.1_5
 62
     9
  6
CONTINUOUS
100
AcDbLine
 10
1664.28738695
 20
-533.73611076
 30
0.0
 11
1666.68738698
 21
-533.18202709
 31
0.0
  0
LINE
  5
650
100
AcDbEntity
  8
Sc.1_5
 62
     9
  6
CONTINUOUS
100
AcDbLine
 10
1664.28738695
 20
-533.28647063
 30
0.0
 11
1666.68738698
 21
-532.73238696
 31
0.0
  0
LINE
  5
651
100
AcDbEntity
  8
Sc.1_5
 62
     9
  6
CONTINUOUS
100
AcDbLine
 10
1664.28738695
 20
-532.70836189
 30
0.0
 11
1666.68738698
 21
-532.15427822
 31
0.0
  0
LINE
  5
652
100
AcDbEntity
  8
Sc.1_5
 62
     9
  6
CONTINUOUS
100
AcDbLine
 10
1664.28738695
 20
-532.2266046
 30
0.0
 11
1666.68738698
 21
-531.67252094
 31
0.0
  0
LINE
  5
653
100
AcDbEntity
  8
Sc.1_5
 62
     9
  6
CONTINUOUS
100
AcDbLine
 10
1664.28738695
 20
-531.88185772
 30
0.0
 11
1666.68738698
 21
-531.32777405
 31
0.0
  0
LINE
  5
654
100
AcDbEntity
  8
Sc.1_5
 62
     9
  6
CONTINUOUS
100
AcDbLine
 10
1664.28738695
 20
-531.31126576
 30
0.0
 11
1666.68738698
 21
-530.75718209
 31
0.0
  0
LINE
  5
655
100
AcDbEntity
  8
Sc.1_5
 62
     9
  6
CONTINUOUS
100
AcDbLine
 10
1664.28738695
 20
-530.8818577
 30
0.0
 11
1666.68738698
 21
-530.32777404
 31
0.0
  0
LINE
  5
656
100
AcDbEntity
  8
Sc.1_5
 62
     9
  6
CONTINUOUS
100
AcDbLine
 10
1664.28738695
 20
-530.38042361
 30
0.0
 11
1666.68738698
 21
-529.82633995
 31
0.0
  0
LINE
  5
657
100
AcDbEntity
  8
Sc.1_5
 62
     9
  6
CONTINUOUS
100
AcDbLine
 10
1664.28738695
 20
-529.88185769
 30
0.0
 11
1666.68738698
 21
-529.32777402
 31
0.0
  0
3DFACE
  5
658
100
AcDbEntity
  8
Sc.1_5
 62
     9
  6
CONTINUOUS
370
    20
100
AcDbFace
 70
     0
 10
1663.26250051
 20
-473.2927612
 30
548.63999023
 11
1662.26250051
 21
-473.2927612
 31
548.63999023
 12
1662.26250051
 22
-491.35686705
 32
548.63999023
 13
1663.26250051
 23
-491.16109358
 33
548.63999023
  0
LWPOLYLINE
  5
659
100
AcDbEntity
  8
Sc.1_5
 62
     9
  6
CONTINUOUS
370
    20
100
AcDbPolyline
 90
        8
 70
     1
 43
0.0
 38
510.0
 39
-510.0
 10
1663.76250051
 20
-490.038437
 10
1663.26250051
 20
-490.37148548
 10
1662.26250051
 20
-490.63251121
 10
1661.76250051
 20
-490.6955122
 10
1662.26250051
 20
-490.36246372
 10
1663.26250051
 20
-490.10143799
 10
1663.76250051
 20
-490.038437
 10
1661.76250051
 20
-490.6955122
  0
LWPOLYLINE
  5
65A
100
AcDbEntity
  8
Sc.1_5
 62
     9
  6
CONTINUOUS
370
    20
100
AcDbPolyline
 90
        8
 70
     1
 43
0.0
 38
510.0
 39
-510.0
 10
1663.76250051
 20
-488.80119939
 10
1663.26250051
 20
-489.13424787
 10
1662.26250051
 20
-489.3952736
 10
1661.76250051
 20
-489.45827459
 10
1662.26250051
 20
-489.12522611
 10
1663.26250051
 20
-488.86420038
 10
1663.76250051
 20
-488.80119939
 10
1661.76250051
 20
-489.45827459
  0
3DFACE
  5
65B
100
AcDbEntity
  8
Sc.1_5
 62
     9
  6
CONTINUOUS
370
    20
100
AcDbFace
 70
     0
 10
1660.96250051
 20
-471.9913091
 30
510.0
 11
1662.26322661
 21
-473.29203519
 31
510.0
 12
1663.26177446
 22
-473.29203514
 32
510.0
 13
1664.56250051
 23
-471.9913091
 33
510.0
  0
3DFACE
  5
65C
100
AcDbEntity
  8
Sc.1_5
 62
     9
  6
CONTINUOUS
370
    20
100
AcDbFace
 70
     0
 10
1660.96250051
 20
-471.9913091
 30
510.0
 11
1660.96250051
 21
-471.7913091
 31
510.0
 12
1664.56250051
 22
-471.7913091
 32
510.0
 13
1664.56250051
 23
-471.9913091
 33
510.0
  0
LWPOLYLINE
  5
65D
100
AcDbEntity
  8
Sc.1_5
 62
     9
  6
CADWORK_13
370
    -3
100
AcDbPolyline
 90
        4
 70
     0
 43
0.0
 38
510.0
 10
1663.26250051
 20
-471.7913091
 10
1663.06250051
 20
-472.61970414
 10
1662.46250051
 20
-472.61970414
 10
1662.26250051
 20
-471.7913091
  0
LINE
  5
65E
100
AcDbEntity
  8
Sc.1_5
 62
     9
  6
CADWORK_13
370
    -3
100
AcDbLine
 10
1662.76250051
 20
-472.61970414
 30
510.0
 11
1662.76250051
 21
-471.7913091
 31
510.0
  0
LWPOLYLINE
  5
65F
100
AcDbEntity
  8
Sc.1_5
 62
     9
  6
CONTINUOUS
370
    20
100
AcDbPolyline
 90
        8
 70
     1
 43
0.0
 38
510.0
 39
-510.0
 10
1663.76250051
 20
-487.56396178
 10
1663.26250051
 20
-487.89701026
 10
1662.26250051
 20
-488.15803598
 10
1661.76250051
 20
-488.22103698
 10
1662.26250051
 20
-487.8879885
 10
1663.26250051
 20
-487.62696277
 10
1663.76250051
 20
-487.56396178
 10
1661.76250051
 20
-488.22103698
  0
LWPOLYLINE
  5
660
100
AcDbEntity
  8
Sc.1_5
 62
     9
  6
CONTINUOUS
370
    20
100
AcDbPolyline
 90
        8
 70
     1
 43
0.0
 38
510.0
 39
-510.0
 10
1663.76250051
 20
-486.32672417
 10
1663.26250051
 20
-486.65977265
 10
1662.26250051
 20
-486.92079837
 10
1661.76250051
 20
-486.98379936
 10
1662.26250051
 20
-486.65075089
 10
1663.26250051
 20
-486.38972516
 10
1663.76250051
 20
-486.32672417
 10
1661.76250051
 20
-486.98379936
  0
LWPOLYLINE
  5
661
100
AcDbEntity
  8
Sc.1_5
 62
     9
  6
CONTINUOUS
370
    20
100
AcDbPolyline
 90
        8
 70
     1
 43
0.0
 38
510.0
 39
-510.0
 10
1663.76250051
 20
-485.08948656
 10
1663.26250051
 20
-485.42253503
 10
1662.26250051
 20
-485.68356076
 10
1661.76250051
 20
-485.74656175
 10
1662.26250051
 20
-485.41351327
 10
1663.26250051
 20
-485.15248755
 10
1663.76250051
 20
-485.08948656
 10
1661.76250051
 20
-485.74656175
  0
LWPOLYLINE
  5
662
100
AcDbEntity
  8
Sc.1_5
 62
     9
  6
CONTINUOUS
370
    20
100
AcDbPolyline
 90
        8
 70
     1
 43
0.0
 38
510.0
 39
-510.0
 10
1663.76250051
 20
-483.85224894
 10
1663.26250051
 20
-484.18529742
 10
1662.26250051
 20
-484.44632315
 10
1661.76250051
 20
-484.50932414
 10
1662.26250051
 20
-484.17627566
 10
1663.26250051
 20
-483.91524994
 10
1663.76250051
 20
-483.85224894
 10
1661.76250051
 20
-484.50932414
  0
LWPOLYLINE
  5
663
100
AcDbEntity
  8
Sc.1_5
 62
     9
  6
CONTINUOUS
370
    20
100
AcDbPolyline
 90
        8
 70
     1
 43
0.0
 38
510.0
 39
-510.0
 10
1663.76250051
 20
-482.61501133
 10
1663.26250051
 20
-482.94805981
 10
1662.26250051
 20
-483.20908554
 10
1661.76250051
 20
-483.27208653
 10
1662.26250051
 20
-482.93903805
 10
1663.26250051
 20
-482.67801232
 10
1663.76250051
 20
-482.61501133
 10
1661.76250051
 20
-483.27208653
  0
LWPOLYLINE
  5
664
100
AcDbEntity
  8
Sc.1_5
 62
     9
  6
CONTINUOUS
370
    20
100
AcDbPolyline
 90
        8
 70
     1
 43
0.0
 38
510.0
 39
-510.0
 10
1663.76250051
 20
-481.37777372
 10
1663.26250051
 20
-481.7108222
 10
1662.26250051
 20
-481.97184793
 10
1661.76250051
 20
-482.03484892
 10
1662.26250051
 20
-481.70180044
 10
1663.26250051
 20
-481.44077471
 10
1663.76250051
 20
-481.37777372
 10
1661.76250051
 20
-482.03484892
  0
LWPOLYLINE
  5
665
100
AcDbEntity
  8
Sc.1_5
 62
     9
  6
CONTINUOUS
370
    20
100
AcDbPolyline
 90
        8
 70
     1
 43
0.0
 38
510.0
 39
-510.0
 10
1663.76250051
 20
-480.14053611
 10
1663.26250051
 20
-480.47358459
 10
1662.26250051
 20
-480.73461031
 10
1661.76250051
 20
-480.79761131
 10
1662.26250051
 20
-480.46456283
 10
1663.26250051
 20
-480.2035371
 10
1663.76250051
 20
-480.14053611
 10
1661.76250051
 20
-480.79761131
  0
LWPOLYLINE
  5
666
100
AcDbEntity
  8
Sc.1_5
 62
     9
  6
CONTINUOUS
370
    20
100
AcDbPolyline
 90
        8
 70
     1
 43
0.0
 38
510.0
 39
-510.0
 10
1663.76250051
 20
-478.9032985
 10
1663.26250051
 20
-479.23634698
 10
1662.26250051
 20
-479.4973727
 10
1661.76250051
 20
-479.56037369
 10
1662.26250051
 20
-479.22732522
 10
1663.26250051
 20
-478.96629949
 10
1663.76250051
 20
-478.9032985
 10
1661.76250051
 20
-479.56037369
  0
LWPOLYLINE
  5
667
100
AcDbEntity
  8
Sc.1_5
 62
     9
  6
CONTINUOUS
370
    20
100
AcDbPolyline
 90
        8
 70
     1
 43
0.0
 38
510.0
 39
-510.0
 10
1663.76250051
 20
-477.66606089
 10
1663.26250051
 20
-477.99910936
 10
1662.26250051
 20
-478.26013509
 10
1661.76250051
 20
-478.32313608
 10
1662.26250051
 20
-477.9900876
 10
1663.26250051
 20
-477.72906188
 10
1663.76250051
 20
-477.66606089
 10
1661.76250051
 20
-478.32313608
  0
LWPOLYLINE
  5
668
100
AcDbEntity
  8
Sc.1_5
 62
     9
  6
CONTINUOUS
370
    20
100
AcDbPolyline
 90
        8
 70
     1
 43
0.0
 38
510.0
 39
-510.0
 10
1663.76250051
 20
-476.42882327
 10
1663.26250051
 20
-476.76187175
 10
1662.26250051
 20
-477.02289748
 10
1661.76250051
 20
-477.08589847
 10
1662.26250051
 20
-476.75284999
 10
1663.26250051
 20
-476.49182427
 10
1663.76250051
 20
-476.42882327
 10
1661.76250051
 20
-477.08589847
  0
LWPOLYLINE
  5
669
100
AcDbEntity
  8
Sc.1_5
 62
     9
  6
CONTINUOUS
370
    20
100
AcDbPolyline
 90
        8
 70
     1
 43
0.0
 38
510.0
 39
-510.0
 10
1663.76250051
 20
-475.19158566
 10
1663.26250051
 20
-475.52463414
 10
1662.26250051
 20
-475.78565987
 10
1661.76250051
 20
-475.84866086
 10
1662.26250051
 20
-475.51561238
 10
1663.26250051
 20
-475.25458665
 10
1663.76250051
 20
-475.19158566
 10
1661.76250051
 20
-475.84866086
  0
LWPOLYLINE
  5
66A
100
AcDbEntity
  8
Sc.1_5
 62
     9
  6
CONTINUOUS
370
    20
100
AcDbPolyline
 90
        8
 70
     1
 43
0.0
 38
510.0
 39
-510.0
 10
1663.76250051
 20
-473.95434805
 10
1663.26250051
 20
-474.28739653
 10
1662.26250051
 20
-474.54842226
 10
1661.76250051
 20
-474.61142325
 10
1662.26250051
 20
-474.27837477
 10
1663.26250051
 20
-474.01734904
 10
1663.76250051
 20
-473.95434805
 10
1661.76250051
 20
-474.61142325
  0
LWPOLYLINE
  5
66B
100
AcDbEntity
  8
Sc.1_5
 62
     9
  6
CONTINUOUS
370
    20
100
AcDbPolyline
 90
        6
 70
     1
 43
0.0
 38
548.63999023
 39
-548.63999023
 10
1662.26250051
 20
-491.35686705
 10
1661.8964248
 20
-491.56344723
 10
1662.26250051
 20
-491.63101047
 10
1663.26250051
 20
-491.36598344
 10
1663.62442487
 20
-491.15803316
 10
1663.26250051
 20
-491.16109358
  0
LWPOLYLINE
  5
66C
100
AcDbEntity
  8
Sc.1_5
 62
     9
  6
CONTINUOUS
370
    20
100
AcDbPolyline
 90
        6
 70
     1
 43
0.0
 38
548.63999023
 39
-548.63999023
 10
1662.34407887
 20
-492.37432726
 10
1662.06957075
 20
-492.50941916
 10
1662.38950837
 20
-492.56638859
 10
1663.15224425
 20
-492.39204895
 10
1663.45127891
 20
-492.23906239
 10
1663.1767708
 20
-492.23906239
  0
LINE
  5
66D
100
AcDbEntity
  8
Sc.1_5
 62
     9
  6
CONTINUOUS
370
    -3
100
AcDbLine
 10
1661.8964248
 20
-491.56344723
 30
0.0
 11
1663.62442487
 21
-491.15803316
 31
0.0
  0
LINE
  5
66E
100
AcDbEntity
  8
Sc.1_5
 62
     9
  6
CONTINUOUS
370
    -3
100
AcDbLine
 10
1662.06957075
 20
-492.50941916
 30
0.0
 11
1663.45127891
 21
-492.23906239
 31
0.0
  0
3DFACE
  5
66F
100
AcDbEntity
  8
Sc.1_5
 62
     9
  6
CONTINUOUS
370
    20
100
AcDbFace
 70
     0
 10
1662.38950837
 20
-492.56638859
 30
548.63999023
 11
1662.76250051
 21
-493.45540838
 31
548.63999023
 12
1663.15224425
 22
-492.39204895
 32
548.63999023
 13
1663.15224425
 23
-492.39204895
 33
548.63999023
  0
3DFACE
  5
670
100
AcDbEntity
  8
Sc.1_5
 62
     9
  6
CONTINUOUS
370
    20
100
AcDbFace
 70
     0
 10
1662.26250051
 20
-491.63101047
 30
548.63999023
 11
1663.26250051
 21
-491.36598344
 31
548.63999023
 12
1663.1767708
 22
-492.23906239
 32
548.63999023
 13
1662.34407887
 23
-492.37432726
 33
548.63999023
  0
3DFACE
  5
671
100
AcDbEntity
  8
Sc.1_5
 62
     9
  6
CONTINUOUS
370
    20
100
AcDbFace
 70
     0
 10
1657.00863606
 20
-482.67561935
 30
548.63999023
 11
1656.00863606
 21
-482.67561935
 31
548.63999023
 12
1656.00863606
 22
-512.69265407
 32
548.63999023
 13
1657.00863606
 23
-512.4968806
 33
548.63999023
  0
LWPOLYLINE
  5
672
100
AcDbEntity
  8
Sc.1_5
 62
     9
  6
CONTINUOUS
370
    20
100
AcDbPolyline
 90
        9
 70
     1
 43
0.0
 38
548.63999023
 39
-548.63999023
 10
1656.00863606
 20
-512.96679749
 10
1657.00863606
 20
-512.70177045
 10
1656.92290635
 20
-513.57484941
 10
1656.89837981
 20
-513.72783597
 10
1656.50863606
 20
-514.7911954
 10
1656.13564392
 20
-513.9021756
 10
1656.09021443
 20
-513.71011428
 10
1656.00863606
 20
-512.96679749
 10
1657.00863606
 20
-512.70177045
  0
LWPOLYLINE
  5
673
100
AcDbEntity
  8
Sc.1_5
 62
     9
  6
CONTINUOUS
370
    20
100
AcDbPolyline
 90
        8
 70
     1
 43
0.0
 38
510.0
 39
-510.0
 10
1657.50863606
 20
-511.37422402
 10
1657.00863606
 20
-511.7072725
 10
1656.00863606
 20
-511.96829823
 10
1655.50863606
 20
-512.03129922
 10
1656.00863606
 20
-511.69825074
 10
1657.00863606
 20
-511.43722501
 10
1657.50863606
 20
-511.37422402
 10
1655.50863606
 20
-512.03129922
  0
LWPOLYLINE
  5
674
100
AcDbEntity
  8
Sc.1_5
 62
     9
  6
CONTINUOUS
370
    20
100
AcDbPolyline
 90
        8
 70
     1
 43
0.0
 38
510.0
 39
-510.0
 10
1657.50863606
 20
-510.13698641
 10
1657.00863606
 20
-510.47003489
 10
1656.00863606
 20
-510.73106061
 10
1655.50863606
 20
-510.79406161
 10
1656.00863606
 20
-510.46101313
 10
1657.00863606
 20
-510.1999874
 10
1657.50863606
 20
-510.13698641
 10
1655.50863606
 20
-510.79406161
  0
3DFACE
  5
675
100
AcDbEntity
  8
Sc.1_5
 62
     9
  6
CONTINUOUS
370
    20
100
AcDbFace
 70
     0
 10
1654.70863606
 20
-481.37416725
 30
510.0
 11
1656.00936217
 21
-482.67489333
 31
510.0
 12
1657.00791001
 22
-482.67489328
 32
510.0
 13
1658.30863606
 23
-481.37416725
 33
510.0
  0
3DFACE
  5
676
100
AcDbEntity
  8
Sc.1_5
 62
     9
  6
CONTINUOUS
370
    20
100
AcDbFace
 70
     0
 10
1654.70863606
 20
-481.37416725
 30
510.0
 11
1654.70863606
 21
-481.17416725
 31
510.0
 12
1658.30863606
 22
-481.17416725
 32
510.0
 13
1658.30863606
 23
-481.37416725
 33
510.0
  0
LWPOLYLINE
  5
677
100
AcDbEntity
  8
Sc.1_5
 62
     9
  6
CADWORK_13
370
    -3
100
AcDbPolyline
 90
        4
 70
     0
 43
0.0
 38
510.0
 10
1657.00863606
 20
-481.17416725
 10
1656.80863606
 20
-482.00256229
 10
1656.20863606
 20
-482.00256229
 10
1656.00863606
 20
-481.17416725
  0
LINE
  5
678
100
AcDbEntity
  8
Sc.1_5
 62
     9
  6
CADWORK_13
370
    -3
100
AcDbLine
 10
1656.50863606
 20
-482.00256229
 30
510.0
 11
1656.50863606
 21
-481.17416725
 31
510.0
  0
LWPOLYLINE
  5
679
100
AcDbEntity
  8
Sc.1_5
 62
     9
  6
CONTINUOUS
370
    20
100
AcDbPolyline
 90
        8
 70
     1
 43
0.0
 38
510.0
 39
-510.0
 10
1657.50863606
 20
-508.8997488
 10
1657.00863606
 20
-509.23279728
 10
1656.00863606
 20
-509.493823
 10
1655.50863606
 20
-509.55682399
 10
1656.00863606
 20
-509.22377552
 10
1657.00863606
 20
-508.96274979
 10
1657.50863606
 20
-508.8997488
 10
1655.50863606
 20
-509.55682399
  0
LWPOLYLINE
  5
67A
100
AcDbEntity
  8
Sc.1_5
 62
     9
  6
CONTINUOUS
370
    20
100
AcDbPolyline
 90
        8
 70
     1
 43
0.0
 38
510.0
 39
-510.0
 10
1657.50863606
 20
-507.66251119
 10
1657.00863606
 20
-507.99555966
 10
1656.00863606
 20
-508.25658539
 10
1655.50863606
 20
-508.31958638
 10
1656.00863606
 20
-507.98653791
 10
1657.00863606
 20
-507.72551218
 10
1657.50863606
 20
-507.66251119
 10
1655.50863606
 20
-508.31958638
  0
LWPOLYLINE
  5
67B
100
AcDbEntity
  8
Sc.1_5
 62
     9
  6
CONTINUOUS
370
    20
100
AcDbPolyline
 90
        8
 70
     1
 43
0.0
 38
510.0
 39
-510.0
 10
1657.50863606
 20
-506.42527357
 10
1657.00863606
 20
-506.75832205
 10
1656.00863606
 20
-507.01934778
 10
1655.50863606
 20
-507.08234877
 10
1656.00863606
 20
-506.74930029
 10
1657.00863606
 20
-506.48827457
 10
1657.50863606
 20
-506.42527357
 10
1655.50863606
 20
-507.08234877
  0
LWPOLYLINE
  5
67C
100
AcDbEntity
  8
Sc.1_5
 62
     9
  6
CONTINUOUS
370
    20
100
AcDbPolyline
 90
        8
 70
     1
 43
0.0
 38
510.0
 39
-510.0
 10
1657.50863606
 20
-505.18803596
 10
1657.00863606
 20
-505.52108444
 10
1656.00863606
 20
-505.78211017
 10
1655.50863606
 20
-505.84511116
 10
1656.00863606
 20
-505.51206268
 10
1657.00863606
 20
-505.25103695
 10
1657.50863606
 20
-505.18803596
 10
1655.50863606
 20
-505.84511116
  0
LWPOLYLINE
  5
67D
100
AcDbEntity
  8
Sc.1_5
 62
     9
  6
CONTINUOUS
370
    20
100
AcDbPolyline
 90
        8
 70
     1
 43
0.0
 38
510.0
 39
-510.0
 10
1657.50863606
 20
-503.95079835
 10
1657.00863606
 20
-504.28384683
 10
1656.00863606
 20
-504.54487256
 10
1655.50863606
 20
-504.60787355
 10
1656.00863606
 20
-504.27482507
 10
1657.00863606
 20
-504.01379934
 10
1657.50863606
 20
-503.95079835
 10
1655.50863606
 20
-504.60787355
  0
LWPOLYLINE
  5
67E
100
AcDbEntity
  8
Sc.1_5
 62
     9
  6
CONTINUOUS
370
    20
100
AcDbPolyline
 90
        8
 70
     1
 43
0.0
 38
510.0
 39
-510.0
 10
1657.50863606
 20
-502.71356074
 10
1657.00863606
 20
-503.04660922
 10
1656.00863606
 20
-503.30763494
 10
1655.50863606
 20
-503.37063594
 10
1656.00863606
 20
-503.03758746
 10
1657.00863606
 20
-502.77656173
 10
1657.50863606
 20
-502.71356074
 10
1655.50863606
 20
-503.37063594
  0
LWPOLYLINE
  5
67F
100
AcDbEntity
  8
Sc.1_5
 62
     9
  6
CONTINUOUS
370
    20
100
AcDbPolyline
 90
        8
 70
     1
 43
0.0
 38
510.0
 39
-510.0
 10
1657.50863606
 20
-501.47632313
 10
1657.00863606
 20
-501.80937161
 10
1656.00863606
 20
-502.07039733
 10
1655.50863606
 20
-502.13339832
 10
1656.00863606
 20
-501.80034985
 10
1657.00863606
 20
-501.53932412
 10
1657.50863606
 20
-501.47632313
 10
1655.50863606
 20
-502.13339832
  0
LWPOLYLINE
  5
680
100
AcDbEntity
  8
Sc.1_5
 62
     9
  6
CONTINUOUS
370
    20
100
AcDbPolyline
 90
        8
 70
     1
 43
0.0
 38
510.0
 39
-510.0
 10
1657.50863606
 20
-500.23908552
 10
1657.00863606
 20
-500.57213399
 10
1656.00863606
 20
-500.83315972
 10
1655.50863606
 20
-500.89616071
 10
1656.00863606
 20
-500.56311223
 10
1657.00863606
 20
-500.30208651
 10
1657.50863606
 20
-500.23908552
 10
1655.50863606
 20
-500.89616071
  0
LWPOLYLINE
  5
681
100
AcDbEntity
  8
Sc.1_5
 62
     9
  6
CONTINUOUS
370
    20
100
AcDbPolyline
 90
        8
 70
     1
 43
0.0
 38
510.0
 39
-510.0
 10
1657.50863606
 20
-499.0018479
 10
1657.00863606
 20
-499.33489638
 10
1656.00863606
 20
-499.59592211
 10
1655.50863606
 20
-499.6589231
 10
1656.00863606
 20
-499.32587462
 10
1657.00863606
 20
-499.0648489
 10
1657.50863606
 20
-499.0018479
 10
1655.50863606
 20
-499.6589231
  0
LWPOLYLINE
  5
682
100
AcDbEntity
  8
Sc.1_5
 62
     9
  6
CONTINUOUS
370
    20
100
AcDbPolyline
 90
        8
 70
     1
 43
0.0
 38
510.0
 39
-510.0
 10
1657.50863606
 20
-497.76461029
 10
1657.00863606
 20
-498.09765877
 10
1656.00863606
 20
-498.3586845
 10
1655.50863606
 20
-498.42168549
 10
1656.00863606
 20
-498.08863701
 10
1657.00863606
 20
-497.82761128
 10
1657.50863606
 20
-497.76461029
 10
1655.50863606
 20
-498.42168549
  0
LWPOLYLINE
  5
683
100
AcDbEntity
  8
Sc.1_5
 62
     9
  6
CONTINUOUS
370
    20
100
AcDbPolyline
 90
        8
 70
     1
 43
0.0
 38
510.0
 39
-510.0
 10
1657.50863606
 20
-496.52737268
 10
1657.00863606
 20
-496.86042116
 10
1656.00863606
 20
-497.12144689
 10
1655.50863606
 20
-497.18444788
 10
1656.00863606
 20
-496.8513994
 10
1657.00863606
 20
-496.59037367
 10
1657.50863606
 20
-496.52737268
 10
1655.50863606
 20
-497.18444788
  0
LWPOLYLINE
  5
684
100
AcDbEntity
  8
Sc.1_5
 62
     9
  6
CONTINUOUS
370
    20
100
AcDbPolyline
 90
        8
 70
     1
 43
0.0
 38
510.0
 39
-510.0
 10
1657.50863606
 20
-495.29013507
 10
1657.00863606
 20
-495.62318355
 10
1656.00863606
 20
-495.88420927
 10
1655.50863606
 20
-495.94721027
 10
1656.00863606
 20
-495.61416179
 10
1657.00863606
 20
-495.35313606
 10
1657.50863606
 20
-495.29013507
 10
1655.50863606
 20
-495.94721027
  0
LWPOLYLINE
  5
685
100
AcDbEntity
  8
Sc.1_5
 62
     9
  6
CONTINUOUS
370
    20
100
AcDbPolyline
 90
        8
 70
     1
 43
0.0
 38
510.0
 39
-510.0
 10
1657.50863606
 20
-494.05289746
 10
1657.00863606
 20
-494.38594594
 10
1656.00863606
 20
-494.64697166
 10
1655.50863606
 20
-494.70997265
 10
1656.00863606
 20
-494.37692418
 10
1657.00863606
 20
-494.11589845
 10
1657.50863606
 20
-494.05289746
 10
1655.50863606
 20
-494.70997265
  0
LWPOLYLINE
  5
686
100
AcDbEntity
  8
Sc.1_5
 62
     9
  6
CONTINUOUS
370
    20
100
AcDbPolyline
 90
        8
 70
     1
 43
0.0
 38
510.0
 39
-510.0
 10
1657.50863606
 20
-492.81565985
 10
1657.00863606
 20
-493.14870832
 10
1656.00863606
 20
-493.40973405
 10
1655.50863606
 20
-493.47273504
 10
1656.00863606
 20
-493.13968656
 10
1657.00863606
 20
-492.87866084
 10
1657.50863606
 20
-492.81565985
 10
1655.50863606
 20
-493.47273504
  0
LWPOLYLINE
  5
687
100
AcDbEntity
  8
Sc.1_5
 62
     9
  6
CONTINUOUS
370
    20
100
AcDbPolyline
 90
        8
 70
     1
 43
0.0
 38
510.0
 39
-510.0
 10
1657.50863606
 20
-491.57842223
 10
1657.00863606
 20
-491.91147071
 10
1656.00863606
 20
-492.17249644
 10
1655.50863606
 20
-492.23549743
 10
1656.00863606
 20
-491.90244895
 10
1657.00863606
 20
-491.64142323
 10
1657.50863606
 20
-491.57842223
 10
1655.50863606
 20
-492.23549743
  0
LWPOLYLINE
  5
688
100
AcDbEntity
  8
Sc.1_5
 62
     9
  6
CONTINUOUS
370
    20
100
AcDbPolyline
 90
        8
 70
     1
 43
0.0
 38
510.0
 39
-510.0
 10
1657.50863606
 20
-490.34118462
 10
1657.00863606
 20
-490.6742331
 10
1656.00863606
 20
-490.93525883
 10
1655.50863606
 20
-490.99825982
 10
1656.00863606
 20
-490.66521134
 10
1657.00863606
 20
-490.40418561
 10
1657.50863606
 20
-490.34118462
 10
1655.50863606
 20
-490.99825982
  0
LWPOLYLINE
  5
689
100
AcDbEntity
  8
Sc.1_5
 62
     9
  6
CONTINUOUS
370
    20
100
AcDbPolyline
 90
        8
 70
     1
 43
0.0
 38
510.0
 39
-510.0
 10
1657.50863606
 20
-489.10394701
 10
1657.00863606
 20
-489.43699549
 10
1656.00863606
 20
-489.69802122
 10
1655.50863606
 20
-489.76102221
 10
1656.00863606
 20
-489.42797373
 10
1657.00863606
 20
-489.166948
 10
1657.50863606
 20
-489.10394701
 10
1655.50863606
 20
-489.76102221
  0
LWPOLYLINE
  5
68A
100
AcDbEntity
  8
Sc.1_5
 62
     9
  6
CONTINUOUS
370
    20
100
AcDbPolyline
 90
        8
 70
     1
 43
0.0
 38
510.0
 39
-510.0
 10
1657.50863606
 20
-487.8667094
 10
1657.00863606
 20
-488.19975788
 10
1656.00863606
 20
-488.4607836
 10
1655.50863606
 20
-488.5237846
 10
1656.00863606
 20
-488.19073612
 10
1657.00863606
 20
-487.92971039
 10
1657.50863606
 20
-487.8667094
 10
1655.50863606
 20
-488.5237846
  0
LWPOLYLINE
  5
68B
100
AcDbEntity
  8
Sc.1_5
 62
     9
  6
CONTINUOUS
370
    20
100
AcDbPolyline
 90
        8
 70
     1
 43
0.0
 38
510.0
 39
-510.0
 10
1657.50863606
 20
-486.62947179
 10
1657.00863606
 20
-486.96252027
 10
1656.00863606
 20
-487.22354599
 10
1655.50863606
 20
-487.28654698
 10
1656.00863606
 20
-486.95349851
 10
1657.00863606
 20
-486.69247278
 10
1657.50863606
 20
-486.62947179
 10
1655.50863606
 20
-487.28654698
  0
LWPOLYLINE
  5
68C
100
AcDbEntity
  8
Sc.1_5
 62
     9
  6
CONTINUOUS
370
    20
100
AcDbPolyline
 90
        8
 70
     1
 43
0.0
 38
510.0
 39
-510.0
 10
1657.50863606
 20
-485.39223418
 10
1657.00863606
 20
-485.72528265
 10
1656.00863606
 20
-485.98630838
 10
1655.50863606
 20
-486.04930937
 10
1656.00863606
 20
-485.71626089
 10
1657.00863606
 20
-485.45523517
 10
1657.50863606
 20
-485.39223418
 10
1655.50863606
 20
-486.04930937
  0
LWPOLYLINE
  5
68D
100
AcDbEntity
  8
Sc.1_5
 62
     9
  6
CONTINUOUS
370
    20
100
AcDbPolyline
 90
        8
 70
     1
 43
0.0
 38
510.0
 39
-510.0
 10
1657.50863606
 20
-484.15499656
 10
1657.00863606
 20
-484.48804504
 10
1656.00863606
 20
-484.74907077
 10
1655.50863606
 20
-484.81207176
 10
1656.00863606
 20
-484.47902328
 10
1657.00863606
 20
-484.21799756
 10
1657.50863606
 20
-484.15499656
 10
1655.50863606
 20
-484.81207176
  0
LWPOLYLINE
  5
68E
100
AcDbEntity
  8
Sc.1_5
 62
     9
  6
CONTINUOUS
370
    20
100
AcDbPolyline
 90
        8
 70
     1
 43
0.0
 38
510.0
 39
-510.0
 10
1657.50863606
 20
-482.91775895
 10
1657.00863606
 20
-483.25080743
 10
1656.00863606
 20
-483.51183316
 10
1655.50863606
 20
-483.57483415
 10
1656.00863606
 20
-483.24178567
 10
1657.00863606
 20
-482.98075994
 10
1657.50863606
 20
-482.91775895
 10
1655.50863606
 20
-483.57483415
  0
LWPOLYLINE
  5
68F
100
AcDbEntity
  8
Sc.1_5
 62
     9
  6
CONTINUOUS
370
    20
100
AcDbPolyline
 90
        6
 70
     1
 43
0.0
 38
548.63999023
 39
-548.63999023
 10
1657.00863606
 20
-512.4968806
 10
1657.37056042
 20
-512.49382018
 10
1657.00863606
 20
-512.70177045
 10
1656.00863606
 20
-512.96679749
 10
1655.64256035
 20
-512.89923425
 10
1656.00863606
 20
-512.69265407
  0
LWPOLYLINE
  5
690
100
AcDbEntity
  8
Sc.1_5
 62
     9
  6
CONTINUOUS
370
    20
100
AcDbPolyline
 90
        6
 70
     1
 43
0.0
 38
548.63999023
 39
-548.63999023
 10
1656.09021443
 20
-513.71011428
 10
1655.81570631
 20
-513.84520618
 10
1656.13564392
 20
-513.9021756
 10
1656.89837981
 20
-513.72783597
 10
1657.19741447
 20
-513.57484941
 10
1656.92290635
 20
-513.57484941
  0
LINE
  5
691
100
AcDbEntity
  8
Sc.1_5
 62
     9
  6
CONTINUOUS
370
    -3
100
AcDbLine
 10
1655.64256035
 20
-512.89923425
 30
0.0
 11
1657.37056042
 21
-512.49382018
 31
0.0
  0
LINE
  5
692
100
AcDbEntity
  8
Sc.1_5
 62
     9
  6
CONTINUOUS
370
    -3
100
AcDbLine
 10
1655.81570631
 20
-513.84520618
 30
0.0
 11
1657.19741447
 21
-513.57484941
 31
0.0
  0
3DFACE
  5
693
100
AcDbEntity
  8
Sc.1_5
 62
     7
  6
CONTINUOUS
370
    20
100
AcDbFace
 70
     0
 10
1640.31248805
 20
-499.04119453
 30
548.63999023
 11
1644.31248811
 21
-499.04119418
 31
548.63999023
 12
1644.31248881
 22
-507.0411943
 32
548.63999023
 13
1640.31248875
 23
-507.04119465
 33
548.63999023
  0
INSERT
  5
694
100
AcDbEntity
  8
Sc.1_5
 62
     0
370
    20
100
AcDbBlockReference
  2
*X1776
 10
0.0
 20
0.0
 30
0.0
  0
3DFACE
  5
695
100
AcDbEntity
  8
Sc.1_5
 62
     7
  6
CONTINUOUS
370
    20
100
AcDbFace
 70
     0
 10
1640.31248805
 20
-403.04119453
 30
548.63999023
 11
1644.31248811
 21
-403.04119418
 31
548.63999023
 12
1644.31248881
 22
-411.0411943
 32
548.63999023
 13
1640.31248875
 23
-411.04119465
 33
548.63999023
  0
INSERT
  5
696
100
AcDbEntity
  8
Sc.1_5
 62
     0
370
    20
100
AcDbBlockReference
  2
*X1777
 10
0.0
 20
0.0
 30
0.0
  0
TEXT
  5
697
100
AcDbEntity
  8
Sc.1_5
 62
     7
370
    18
100
AcDbText
 10
1710.18976843
 20
-422.28754952
 30
0.0
 40
2.5
  1
Stud frame wall to NZS3604:2011
  7
TAHOMA
 50
0.0
 41
0.8
 51
0.0
100
AcDbText
  0
TEXT
  5
698
100
AcDbEntity
  8
Sc.1_5
 62
     7
370
    18
100
AcDbText
 10
1710.18976843
 20
-560.80703037
 30
0.0
 40
2.5
  1
Concrete or concrete blockwork perimeter wall
  7
TAHOMA
 50
0.0
 41
0.8
 51
0.0
100
AcDbText
  0
TEXT
  5
699
100
AcDbEntity
  8
Sc.1_5
 62
     7
370
    18
100
AcDbText
 10
1710.18976843
 20
-522.87925998
 30
0.0
 40
2.5
  1
Insulation as per thermal requirements
  7
TAHOMA
 50
0.0
 41
0.8
 51
0.0
100
AcDbText
  0
TEXT
  5
69A
100
AcDbEntity
  8
Sc.1_5
 62
     7
370
    18
100
AcDbText
 10
1710.18976843
 20
-531.64279451
 30
0.0
 40
2.5
  1
Timber plate,
  7
TAHOMA
 50
0.0
 41
0.8
 51
0.0
100
AcDbText
  0
TEXT
  5
69B
100
AcDbEntity
  8
Sc.1_5
 62
     7
370
    35
100
AcDbText
 10
1710.18976843
 20
-470.90095306
 30
0.0
 40
2.5
  1
Woodspan PLT floor panel
  7
TAHOMA
 50
0.0
 41
0.8
 51
0.0
100
AcDbText
  0
TEXT
  5
69C
100
AcDbEntity
  8
Sc.1_5
 62
     7
370
    18
100
AcDbText
 10
1710.18976843
 20
-475.15095306
 30
0.0
 40
2.5
  1
all fixings as per engineer's details
  7
TAHOMA
 50
0.0
 41
0.8
 51
0.0
100
AcDbText
  0
TEXT
  5
69D
100
AcDbEntity
  8
Sc.1_5
 62
     7
370
    18
100
AcDbText
 10
1710.18976843
 20
-535.89279451
 30
0.0
 40
2.5
  1
anchor bolts by engineer
  7
TAHOMA
 50
0.0
 41
0.8
 51
0.0
100
AcDbText
  0
TEXT
  5
69E
100
AcDbEntity
  8
Sc.1_5
 62
     7
370
    18
100
AcDbText
 10
1710.18976843
 20
-545.06941548
 30
0.0
 40
2.5
  1
Damp Proof Course (DPC)
  7
TAHOMA
 50
0.0
 41
0.8
 51
0.0
100
AcDbText
  0
TEXT
  5
69F
100
AcDbEntity
  8
LEGEND
 62
     7
370
    -3
100
AcDbText
 10
1782.84527623
 20
-620.90625768
 30
0.0
 40
1.60000002
  1
Date
  7
TAHOMA
 50
0.0
 41
1.0
 51
0.0
100
AcDbText
  0
TEXT
  5
6A0
100
AcDbEntity
  8
LEGEND
 62
     7
370
    -3
100
AcDbText
 10
1767.93702756
 20
-629.53743842
 30
0.0
 40
1.60000002
  1
Detail
  7
TAHOMA
 50
0.0
 41
1.0
 51
0.0
100
AcDbText
  0
TEXT
  5
6A1
100
AcDbEntity
  8
LEGEND
 62
     7
370
    18
100
AcDbText
 10
1771.3646428
 20
-625.34741029
 30
0.0
 40
2.79999995
  1
1.0
  7
TAHOMA
 50
0.0
 41
1.0
 51
0.0
100
AcDbText
  0
TEXT
  5
6A2
100
AcDbEntity
  8
LEGEND
 62
     7
370
    -3
100
AcDbText
 10
1767.93702756
 20
-620.90625768
 30
0.0
 40
1.60000002
  1
Version
  7
TAHOMA
 50
0.0
 41
1.0
 51
0.0
100
AcDbText
  0
TEXT
  5
6A3
100
AcDbEntity
  8
LEGEND
 62
     7
370
    18
100
AcDbText
 10
1695.94010079
 20
-625.48025768
 30
0.0
 40
4.0
  1
PLT to perimeter foundation
  7
TAHOMA
 50
0.0
 41
0.95
 51
0.0
100
AcDbText
  0
TEXT
  5
6A4
100
AcDbEntity
  8
LEGEND
 62
     7
370
    -3
100
AcDbText
 10
1636.99623625
 20
-620.90625768
 30
0.0
 40
1.60000002
  1
Phone:
  7
TAHOMA
 50
0.0
 41
1.0
 51
0.0
100
AcDbText
  0
TEXT
  5
6A5
100
AcDbEntity
  8
LEGEND
 62
     7
370
    -3
100
AcDbText
 10
1636.99623625
 20
-625.02704484
 30
0.0
 40
1.60000002
  1
Email:
  7
TAHOMA
 50
0.0
 41
1.0
 51
0.0
100
AcDbText
  0
TEXT
  5
6A6
100
AcDbEntity
  8
LEGEND
 62
     7
370
    -3
100
AcDbText
 10
1636.99623625
 20
-629.14783201
 30
0.0
 40
1.60000002
  1
Web:
  7
TAHOMA
 50
0.0
 41
1.0
 51
0.0
100
AcDbText
  0
TEXT
  5
6A7
100
AcDbEntity
  8
LEGEND
 62
     7
370
    18
100
AcDbText
 10
1646.89821722
 20
-621.70625768
 30
0.0
 40
2.4000001
  1
06 755 9000
  7
TAHOMA
 50
0.0
 41
1.0
 51
0.0
100
AcDbText
  0
TEXT
  5
6A8
100
AcDbEntity
  8
LEGEND
 62
     7
370
    18
100
AcDbText
 10
1646.89821722
 20
-625.82704484
 30
0.0
 40
2.4000001
  1
info@woodspan.co.nz
  7
TAHOMA
 50
0.0
 41
1.0
 51
0.0
100
AcDbText
  0
TEXT
  5
6A9
100
AcDbEntity
  8
LEGEND
 62
     7
370
    18
100
AcDbText
 10
1646.89821722
 20
-629.94783201
 30
0.0
 40
2.4000001
  1
www.woodspan.co.nz
  7
TAHOMA
 50
0.0
 41
1.0
 51
0.0
100
AcDbText
  0
TEXT
  5
6AA
100
AcDbEntity
  8
LEGEND
 62
     7
370
    18
100
AcDbText
 10
1636.94860197
 20
-634.06861917
 30
0.0
 40
2.4000001
  1
Connett Road, Bell Block, New Plymouth
  7
TAHOMA
 50
0.0
 41
1.0
 51
0.0
100
AcDbText
  0
TEXT
  5
6AB
100
AcDbEntity
  8
LEGEND
 62
     7
370
    18
100
AcDbText
 10
1783.9309257
 20
-625.14741029
 30
0.0
 40
2.4000001
  1
11.07.2019
  7
TAHOMA
 50
0.0
 41
1.0
 51
0.0
100
AcDbText
  0
TEXT
  5
6AC
100
AcDbEntity
  8
LEGEND
 62
     7
370
    18
100
AcDbText
 10
1775.96430393
 20
-633.08076497
 30
0.0
 40
4.0
  1

  7
TAHOMA
 50
0.0
 41
0.95
 51
0.0
100
AcDbText
  0
TEXT
  5
6AD
100
AcDbEntity
  8
LEGEND
 62
     7
370
    18
100
AcDbText
 10
1776.73000716
 20
-633.40384691
 30
0.0
 40
4.0
  1
PLT 1.1
  7
TAHOMA
 50
0.0
 41
0.95
 51
0.0
100
AcDbText
  0
TEXT
  5
6AE
100
AcDbEntity
  8
LEGEND
 62
     7
370
    18
100
AcDbText
 10
1688.57146122
 20
-615.94587079
 30
0.0
 40
2.4000001
  1
Indicative details only
  7
TAHOMA
 50
0.0
 41
1.0
 51
0.0
100
AcDbText
  0
ENDSEC
  0
SECTION
  2
OBJECTS
  0
DICTIONARY
  5
1
100
AcDbDictionary
  3
ACAD_GROUP
350
2
  3
ACAD_MLINESTYLE
350
3
  0
DICTIONARY
  5
2
102
{CDWK_REACTORS
330
1
102
}
100
AcDbDictionary
  0
DICTIONARY
  5
3
102
{CDWK_REACTORS
330
1
102
}
100
AcDbDictionary
  3
STANDARD
350
4
  0
MLINESTYLE
  5
4
102
{CDWK_REACTORS
330
3
102
}
100
AcDbMlineStyle
  2
STANDARD
 70
     0
  3

 62
     0
 51
90.0
 52
90.0
 71
     2
 49
0.5
 62
   256
  6
BYLAYER
 49
-0.5
 62
   256
  6
BYLAYER
  0
ENDSEC
  0
EOF
