  0
SECTION
  2
HEADER
  9
$ACADVER
  1
AC1014
  9
$DWGCODEPAGE
  3
ANSI_1252
  9
$INSBASE
 10
0.0
 20
0.0
 30
0.0
  9
$EXTMIN
 10
1846.28363772
 20
-635.56861917
  9
$EXTMAX
 10
2043.60043911
 20
-364.56861917
  9
$LIMMIN
 10
1846.28363772
 20
-635.56861917
  9
$LIMMAX
 10
2043.60043911
 20
-364.56861917
  9
$ORTHOMODE
 70
     0
  9
$REGENMODE
 70
     1
  9
$FILLMODE
 70
     1
  9
$QTEXTMODE
 70
     0
  9
$MIRRTEXT
 70
     1
  9
$DRAGMODE
 70
     2
  9
$LTSCALE
 40
1.0
  9
$OSMODE
 70
     0
  9
$ATTMODE
 70
     1
  9
$TEXTSIZE
 40
3.5
  9
$TRACEWID
 40
1.0
  9
$TEXTSTYLE
  7
STANDARD
  9
$CLAYER
  8
0
  9
$CELTYPE
  6
BYLAYER
  9
$CECOLOR
 62
   256
  9
$DIMSCALE
 40
1.0
  9
$DIMASZ
 40
2.0
  9
$DIMEXO
 40
5.0
  9
$DIMDLI
 40
10.0
  9
$DIMRND
 40
0.0
  9
$DIMDLE
 40
2.0
  9
$DIMEXE
 40
2.0
  9
$DIMTP
 40
0.0
  9
$DIMTM
 40
0.0
  9
$DIMTXT
 40
2.1
  9
$DIMCEN
 40
1.5
  9
$DIMTSZ
 40
0.0
  9
$DIMTOL
 70
     0
  9
$DIMLIM
 70
     0
  9
$DIMTIH
 70
     1
  9
$DIMTOH
 70
     0
  9
$DIMSE1
 70
     0
  9
$DIMSE2
 70
     0
  9
$DIMTAD
 70
     1
  9
$DIMZIN
 70
     8
  9
$DIMBLK
  1

  9
$DIMASO
 70
     1
  9
$DIMSHO
 70
     1
  9
$DIMPOST
  1

  9
$DIMAPOST
  1

  9
$DIMALT
 70
     0
  9
$DIMALTD
 70
     2
  9
$DIMALTF
 40
25.4
  9
$DIMLFAC
 40
1.0
  9
$DIMTOFL
 70
     0
  9
$DIMTVP
 40
0.0
  9
$DIMTIX
 70
     0
  9
$DIMSOXD
 70
     0
  9
$DIMSAH
 70
     0
  9
$DIMBLK1
  1

  9
$DIMBLK2
  1

  9
$DIMSTYLE
  2
*UNNAMED
  9
$DIMCLRD
 70
     5
  9
$DIMCLRE
 70
     5
  9
$DIMCLRT
 70
     5
  9
$DIMTFAC
 40
1.0
  9
$DIMGAP
 40
0.09
  9
$DIMUNIT
 70
     2
  9
$LUNITS
 70
     2
  9
$LUPREC
 70
     6
  9
$AXISMODE
 70
     0
  9
$AXISUNIT
 10
0.0
 20
0.0
  9
$SKETCHINC
 40
0.1
  9
$FILLETRAD
 40
0.0
  9
$AUNITS
 70
     0
  9
$AUPREC
 70
     0
  9
$MENU
  1
ACAD
  9
$ELEVATION
 40
0.0
  9
$PELEVATION
 40
0.0
  9
$THICKNESS
 40
0.0
  9
$LIMCHECK
 70
     0
  9
$BLIPMODE
 70
     1
  9
$CHAMFERA
 40
0.0
  9
$CHAMFERB
 40
0.0
  9
$SKPOLY
 70
     1
  9
$TDCREATE
 40
2458675.0000000000
  9
$TDUPDATE
 40
2458675.0000000000
  9
$TDINDWG
 40
0.0
  9
$TDUSRTIMER
 40
0.0
  9
$USRTIMER
 70
     1
  9
$ANGBASE
 50
0.0
  9
$ANGDIR
 70
     0
  9
$PDMODE
 70
     0
  9
$PDSIZE
 40
0.0
  9
$PLINEWID
 40
0.0
  9
$COORDS
 70
     2
  9
$SPLFRAME
 70
     0
  9
$SPLINETYPE
 70
     6
  9
$SPLINESEGS
 70
     8
  9
$ATTDIA
 70
     1
  9
$ATTREQ
 70
     1
  9
$HANDLING
 70
     1
  9
$HANDSEED
  5
     641
  9
$SURFTAB1
 70
     6
  9
$SURFTAB2
 70
     6
  9
$SURFTYPE
 70
     6
  9
$SURFU
 70
     6
  9
$SURFV
 70
     6
  9
$UCSNAME
  2

  9
$UCSORG
 10
0.0
 20
0.0
 30
0.0
  9
$UCSXDIR
 10
1.0
 20
0.0
 30
0.0
  9
$UCSYDIR
 10
0.0
 20
1.0
 30
0.0
  9
$PUCSNAME
  2

  9
$PUCSORG
 10
0.0
 20
0.0
 30
0.0
  9
$PUCSXDIR
 10
1.0
 20
0.0
 30
0.0
  9
$PUCSYDIR
 10
0.0
 20
1.0
 30
0.0
  9
$USERI1
 70
     0
  9
$USERI2
 70
     0
  9
$USERI3
 70
     0
  9
$USERI4
 70
     0
  9
$USERI5
 70
     0
  9
$USERR1
 40
0.0
  9
$USERR2
 40
0.0
  9
$USERR3
 40
0.0
  9
$USERR4
 40
0.0
  9
$USERR5
 40
0.0
  9
$WORLDVIEW
 70
     1
  9
$SHADEDGE
 70
     3
  9
$SHADEDIF
 70
    70
  9
$TILEMODE
 70
     1
  9
$MAXACTVP
 70
    16
  9
$PINSBASE
 10
0.0
 20
0.0
 30
0.0
  9
$PLIMCHECK
 70
     0
  9
$PEXTMIN
 10
1.0000000000000E+20
 20
1.0000000000000E+20
 30
1.0000000000000E+20
  9
$PEXTMAX
 10
-1.0000000000000E+20
 20
-1.0000000000000E+20
 30
-1.0000000000000E+20
  9
$PLIMMIN
 10
0.0
 20
0.0
  9
$UNITMODE
 70
     0
  9
$VISRETAIN
 70
     0
  9
$MEASUREMENT
 70
     1
  0
ENDSEC
  0
SECTION
  2
TABLES
  0
TABLE
  2
VPORT
  5
1B2
100
AcDbSymbolTable
 70
     1
  0
ENDTAB
  0
TABLE
  2
STYLE
  5
1B3
100
AcDbSymbolTable
 70
     3
  0
STYLE
  5
1B4
100
AcDbSymbolTableRecord
100
AcDbTextStyleTableRecord
  2
STANDARD
 70
     0
 40
0.0
 41
1.0
 50
0.0
 71
     0
 42
3.5
  3
MONOTXT
  4

  0
STYLE
  5
1B5
100
AcDbSymbolTableRecord
100
AcDbTextStyleTableRecord
  2
SYMAP
 70
     0
 40
0.0
 41
1.0
 50
0.0
 71
     0
 42
3.5
  3
SYMAP
  4

  0
STYLE
  5
1B6
100
AcDbSymbolTableRecord
100
AcDbTextStyleTableRecord
  2
CADWORK1
 70
     0
 40
0.0
 41
1.0
 50
0.0
 71
     0
 42
3.5
  3
MONOTXT
  4

  0
STYLE
  5
1B7
100
AcDbSymbolTableRecord
100
AcDbTextStyleTableRecord
  2
MONOTXT
 70
     0
 40
0.0
 41
1.0
 50
0.0
 71
     0
 42
3.5
  3
MONOTXT
  4

  0
STYLE
  5
1B8
100
AcDbSymbolTableRecord
100
AcDbTextStyleTableRecord
  2
TAHOMA
 70
     0
 40
0.0
 41
1.0
 50
0.0
 71
     0
 42
3.5
  3

  4

1001
ACAD
1000
Tahoma
1071
        0
  0
ENDTAB
  0
TABLE
  2
LTYPE
  5
1B9
100
AcDbSymbolTable
 70
    15
  0
LTYPE
  5
1BA
100
AcDbSymbolTableRecord
100
AcDbLinetypeTableRecord
  2
BYBLOCK
 70
    64
  3

 72
    65
 73
     0
 40
0.0
  0
LTYPE
  5
1BB
100
AcDbSymbolTableRecord
100
AcDbLinetypeTableRecord
  2
BYLAYER
 70
    64
  3

 72
    65
 73
     0
 40
0.0
  0
LTYPE
  5
1BC
100
AcDbSymbolTableRecord
100
AcDbLinetypeTableRecord
  2
CONTINUOUS
 70
    64
  3
Solid line
 72
    65
 73
     0
 40
0.0
  0
LTYPE
  5
1BD
100
AcDbSymbolTableRecord
100
AcDbLinetypeTableRecord
  2
DOT2
 70
    64
  3
...............................................
 72
    65
 73
     2
 40
1.25
 49
0.0
 74
     0
 49
-1.25
 74
     0
  0
LTYPE
  5
1BE
100
AcDbSymbolTableRecord
100
AcDbLinetypeTableRecord
  2
CADWORK_13
 70
    64
  3
13 =======================================
 72
    65
 73
     2
 40
4.0
 49
2.0
 74
     0
 49
-2.0
 74
     0
  0
LTYPE
  5
1BF
100
AcDbSymbolTableRecord
100
AcDbLinetypeTableRecord
  2
DASHED
 70
    64
  3
__ __ __ __ __ __ __ __ __ __ __ __ __ __ __ __
 72
    65
 73
     2
 40
7.5
 49
5.0
 74
     0
 49
-2.5
 74
     0
  0
LTYPE
  5
1C0
100
AcDbSymbolTableRecord
100
AcDbLinetypeTableRecord
  2
DASHDOT
 70
    64
  3
 __ . __ . __ . __ . __ . __ . __ . __ . __ . __
 72
    65
 73
     4
 40
10.0
 49
5.0
 74
     0
 49
-2.5
 74
     0
 49
0.0
 74
     0
 49
-2.5
 74
     0
  0
LTYPE
  5
1C1
100
AcDbSymbolTableRecord
100
AcDbLinetypeTableRecord
  2
CADWORK_16
 70
    64
  3
--´\,----´\,----´\,----´\,----´\,----´\,----´\,--
 72
    65
 73
     5
 40
17.0
 49
2.0
 74
     0
 49
0.0
 74
     2
 75
     0
340
1B4
 46
6.0
 50
170.0
 44
3.01999998
 45
5.57999992
  9
|
 49
-2.0999999
 74
     2
 75
     0
340
1B4
 46
12.0
 50
10.0
 44
-2.9000001
 45
-6.5999999
  9
|
 49
-2.0999999
 74
     2
 75
     0
340
1B4
 46
6.0
 50
170.0
 44
1.96000004
 45
-0.36000001
  9
|
 49
10.80000019
 74
     0
  0
LTYPE
  5
1C2
100
AcDbSymbolTableRecord
100
AcDbLinetypeTableRecord
  2
CADWORK_15
 70
    64
  3
15 =======================================
 72
    65
 73
     0
 40
0.0
  0
LTYPE
  5
1C3
100
AcDbSymbolTableRecord
100
AcDbLinetypeTableRecord
  2
DAL
 70
    64
  3
Solid line (for MAPS)
 72
    65
 73
     0
 40
0.0
  0
LTYPE
  5
1C4
100
AcDbSymbolTableRecord
100
AcDbLinetypeTableRecord
  2
MUR
 70
    64
  3
Solid line (for MAPS)
 72
    65
 73
     0
 40
0.0
  0
LTYPE
  5
1C5
100
AcDbSymbolTableRecord
100
AcDbLinetypeTableRecord
  2
SOM
 70
    64
  3
Solid line (for MAPS)
 72
    65
 73
     0
 40
0.0
  0
LTYPE
  5
1C6
100
AcDbSymbolTableRecord
100
AcDbLinetypeTableRecord
  2
COL
 70
    64
  3
Solid line (for MAPS)
 72
    65
 73
     0
 40
0.0
  0
LTYPE
  5
1C7
100
AcDbSymbolTableRecord
100
AcDbLinetypeTableRecord
  2
LGN
 70
    64
  3
Solid line (for MAPS)
 72
    65
 73
     0
 40
0.0
  0
LTYPE
  5
1C8
100
AcDbSymbolTableRecord
100
AcDbLinetypeTableRecord
  2
PNT
 70
    64
  3
Solid line (for MAPS)
 72
    65
 73
     0
 40
0.0
  0
ENDTAB
  0
TABLE
  2
LAYER
  5
1C9
100
AcDbSymbolTable
 70
    16
  0
LAYER
  5
1CA
100
AcDbSymbolTableRecord
100
AcDbLayerTableRecord
  2
0
 70
     0
 62
     1
  6
CONTINUOUS
370
    -3
  0
LAYER
  5
1CB
100
AcDbSymbolTableRecord
100
AcDbLayerTableRecord
  2
Standard
 70
     0
 62
     7
  6
CONTINUOUS
370
    -3
  0
LAYER
  5
1CC
100
AcDbSymbolTableRecord
100
AcDbLayerTableRecord
  2
Sc.1_1
 70
     0
 62
     7
  6
CONTINUOUS
370
    -3
  0
LAYER
  5
1CD
100
AcDbSymbolTableRecord
100
AcDbLayerTableRecord
  2
Sc.1_2
 70
     0
 62
     7
  6
CONTINUOUS
370
    -3
  0
LAYER
  5
1CE
100
AcDbSymbolTableRecord
100
AcDbLayerTableRecord
  2
Sc.1_5
 70
     0
 62
     7
  6
CONTINUOUS
370
    -3
  0
LAYER
  5
1CF
100
AcDbSymbolTableRecord
100
AcDbLayerTableRecord
  2
Sc.1_10
 70
     0
 62
     7
  6
CONTINUOUS
370
    -3
  0
LAYER
  5
1D0
100
AcDbSymbolTableRecord
100
AcDbLayerTableRecord
  2
Sc.1_20
 70
     0
 62
     7
  6
CONTINUOUS
370
    -3
  0
LAYER
  5
1D1
100
AcDbSymbolTableRecord
100
AcDbLayerTableRecord
  2
Sc.1_25
 70
     0
 62
     7
  6
CONTINUOUS
370
    -3
  0
LAYER
  5
1D2
100
AcDbSymbolTableRecord
100
AcDbLayerTableRecord
  2
Sc.1_33
 70
     0
 62
     7
  6
CONTINUOUS
370
    -3
  0
LAYER
  5
1D3
100
AcDbSymbolTableRecord
100
AcDbLayerTableRecord
  2
Sc.1_50
 70
     0
 62
     7
  6
CONTINUOUS
370
    -3
  0
LAYER
  5
1D4
100
AcDbSymbolTableRecord
100
AcDbLayerTableRecord
  2
Sc.1_75
 70
     0
 62
     7
  6
CONTINUOUS
370
    -3
  0
LAYER
  5
1D5
100
AcDbSymbolTableRecord
100
AcDbLayerTableRecord
  2
Sc.1_100
 70
     0
 62
     7
  6
CONTINUOUS
370
    -3
  0
LAYER
  5
1D6
100
AcDbSymbolTableRecord
100
AcDbLayerTableRecord
  2
Sc.1_200
 70
     0
 62
     7
  6
CONTINUOUS
370
    -3
  0
LAYER
  5
1D7
100
AcDbSymbolTableRecord
100
AcDbLayerTableRecord
  2
Sc.1_500
 70
     0
 62
     7
  6
CONTINUOUS
370
    -3
  0
LAYER
  5
1D8
100
AcDbSymbolTableRecord
100
AcDbLayerTableRecord
  2
Sc.1_1000
 70
     0
 62
     7
  6
CONTINUOUS
370
    -3
  0
LAYER
  5
1D9
100
AcDbSymbolTableRecord
100
AcDbLayerTableRecord
  2
Laser frames
 70
     0
 62
     7
  6
CONTINUOUS
370
    18
  0
LAYER
  5
1DA
100
AcDbSymbolTableRecord
100
AcDbLayerTableRecord
  2
LEGEND
 70
     0
 62
     7
  6
CONTINUOUS
370
    -3
  0
ENDTAB
  0
TABLE
  2
VIEW
  5
1DB
100
AcDbSymbolTable
 70
     0
  0
ENDTAB
  0
TABLE
  2
UCS
  5
1DC
100
AcDbSymbolTable
 70
     0
  0
ENDTAB
  0
TABLE
  2
APPID
  5
1DD
100
AcDbSymbolTable
 70
     1
  0
APPID
  5
1DE
100
AcDbSymbolTableRecord
100
AcDbRegAppTableRecord
  2
ACAD
 70
     0
  0
ENDTAB
  0
TABLE
  2
DIMSTYLE
  5
1DF
100
AcDbSymbolTable
 70
     0
  0
ENDTAB
  0
TABLE
  2
BLOCK_RECORD
  5
1E0
100
AcDbSymbolTable
 70
     0
  0
BLOCK_RECORD
  5
1E1
100
AcDbSymbolTableRecord
100
AcDbBlockTableRecord
  2
*MODEL_SPACE
  0
BLOCK_RECORD
  5
1E2
100
AcDbSymbolTableRecord
100
AcDbBlockTableRecord
  2
*PAPER_SPACE
  0
BLOCK_RECORD
  5
1E3
100
AcDbSymbolTableRecord
100
AcDbBlockTableRecord
  2
CDWK_EXTR_0
  0
BLOCK_RECORD
  5
1E4
100
AcDbSymbolTableRecord
100
AcDbBlockTableRecord
  2
CDWK_EXTR_1D
  0
BLOCK_RECORD
  5
1E5
100
AcDbSymbolTableRecord
100
AcDbBlockTableRecord
  2
CDWK_EXTR_1G
  0
BLOCK_RECORD
  5
1E6
100
AcDbSymbolTableRecord
100
AcDbBlockTableRecord
  2
CDWK_EXTR_2
  0
BLOCK_RECORD
  5
1E7
100
AcDbSymbolTableRecord
100
AcDbBlockTableRecord
  2
CDWK_EXTR_3
  0
BLOCK_RECORD
  5
1E8
100
AcDbSymbolTableRecord
100
AcDbBlockTableRecord
  2
CDWK_EXTR_4
  0
BLOCK_RECORD
  5
1E9
100
AcDbSymbolTableRecord
100
AcDbBlockTableRecord
  2
CDWK_PTTYP0
  0
BLOCK_RECORD
  5
1EA
100
AcDbSymbolTableRecord
100
AcDbBlockTableRecord
  2
*X1837
  0
BLOCK_RECORD
  5
1EB
100
AcDbSymbolTableRecord
100
AcDbBlockTableRecord
  2
*X1838
  0
BLOCK_RECORD
  5
1EC
100
AcDbSymbolTableRecord
100
AcDbBlockTableRecord
  2
*X1839
  0
BLOCK_RECORD
  5
1ED
100
AcDbSymbolTableRecord
100
AcDbBlockTableRecord
  2
*X1840
  0
BLOCK_RECORD
  5
1EE
100
AcDbSymbolTableRecord
100
AcDbBlockTableRecord
  2
*X1841
  0
BLOCK_RECORD
  5
1EF
100
AcDbSymbolTableRecord
100
AcDbBlockTableRecord
  2
*X1844
  0
BLOCK_RECORD
  5
1F0
100
AcDbSymbolTableRecord
100
AcDbBlockTableRecord
  2
*X1851
  0
ENDTAB
  0
ENDSEC
  0
SECTION
  2
BLOCKS
  0
BLOCK
  5
1F1
100
AcDbEntity
  8
0
100
AcDbBlockBegin
  2
*MODEL_SPACE
 70
     0
 10
0.0
 20
0.0
 30
0.0
  3
*MODEL_SPACE
  1

  0
ENDBLK
  5
1F2
100
AcDbEntity
100
AcDbBlockEnd
  0
BLOCK
  5
1F3
100
AcDbEntity
  8
0
100
AcDbBlockBegin
  2
*PAPER_SPACE
 70
     0
 10
0.0
 20
0.0
 30
0.0
  3
*PAPER_SPACE
  1

  0
ENDBLK
  5
1F4
100
AcDbEntity
100
AcDbBlockEnd
  0
BLOCK
  5
1F5
100
AcDbEntity
  8
0
100
AcDbBlockBegin
  2
CDWK_EXTR_0
 70
     0
 10
0.0
 20
0.0
 30
0.0
  3
CDWK_EXTR_0
  1

  4
Cadwork line-extremity
  0
LINE
  5
1F6
100
AcDbEntity
  8
0
 62
     0
370
    -2
100
AcDbLine
 10
0.0
 20
0.0
 30
0.0
 11
2.0
 21
0.5
 31
0.0
  0
LINE
  5
1F7
100
AcDbEntity
  8
0
 62
     0
370
    -2
100
AcDbLine
 10
0.0
 20
0.0
 30
0.0
 11
2.0
 21
-0.5
 31
0.0
  0
LINE
  5
1F8
100
AcDbEntity
  8
0
 62
     0
370
    -2
100
AcDbLine
 10
2.0
 20
0.5
 30
0.0
 11
2.0
 21
-0.5
 31
0.0
  0
ENDBLK
  5
1F9
100
AcDbEntity
100
AcDbBlockEnd
  0
BLOCK
  5
1FA
100
AcDbEntity
  8
0
100
AcDbBlockBegin
  2
CDWK_EXTR_1D
 70
     0
 10
0.0
 20
0.0
 30
0.0
  3
CDWK_EXTR_1D
  1

  4
Cadwork line-extremity
  0
LINE
  5
1FB
100
AcDbEntity
  8
0
 62
     0
370
    -2
100
AcDbLine
 10
0.0
 20
0.0
 30
0.0
 11
0.0
 21
1.0
 31
0.0
  0
LINE
  5
1FC
100
AcDbEntity
  8
0
 62
     0
370
    -2
100
AcDbLine
 10
0.0
 20
1.0
 30
0.0
 11
0.5
 21
1.5
 31
0.0
  0
LINE
  5
1FD
100
AcDbEntity
  8
0
 62
     0
370
    -2
100
AcDbLine
 10
0.5
 20
1.5
 30
0.0
 11
1.5
 21
1.5
 31
0.0
  0
ENDBLK
  5
1FE
100
AcDbEntity
100
AcDbBlockEnd
  0
BLOCK
  5
1FF
100
AcDbEntity
  8
0
100
AcDbBlockBegin
  2
CDWK_EXTR_1G
 70
     0
 10
0.0
 20
0.0
 30
0.0
  3
CDWK_EXTR_1G
  1

  4
Cadwork line-extremity
  0
LINE
  5
200
100
AcDbEntity
  8
0
 62
     0
370
    -2
100
AcDbLine
 10
0.0
 20
0.0
 30
0.0
 11
0.0
 21
-1.0
 31
0.0
  0
LINE
  5
201
100
AcDbEntity
  8
0
 62
     0
370
    -2
100
AcDbLine
 10
0.0
 20
-1.0
 30
0.0
 11
0.5
 21
-1.5
 31
0.0
  0
LINE
  5
202
100
AcDbEntity
  8
0
 62
     0
370
    -2
100
AcDbLine
 10
0.5
 20
-1.5
 30
0.0
 11
1.5
 21
-1.5
 31
0.0
  0
ENDBLK
  5
203
100
AcDbEntity
100
AcDbBlockEnd
  0
BLOCK
  5
204
100
AcDbEntity
  8
0
100
AcDbBlockBegin
  2
CDWK_EXTR_2
 70
     0
 10
0.0
 20
0.0
 30
0.0
  3
CDWK_EXTR_2
  1

  4
Cadwork line-extremity
  0
SOLID
  5
205
100
AcDbEntity
  8
0
 62
     0
100
AcDbTrace
 10
0.0
 20
0.0
 11
2.0
 21
0.5
 12
2.0
 22
-0.5
 13
2.0
 23
-0.5
  0
ENDBLK
  5
206
100
AcDbEntity
100
AcDbBlockEnd
  0
BLOCK
  5
207
100
AcDbEntity
  8
0
100
AcDbBlockBegin
  2
CDWK_EXTR_3
 70
     0
 10
0.0
 20
0.0
 30
0.0
  3
CDWK_EXTR_3
  1

  4
Cadwork line-extremity
  0
SOLID
  5
208
100
AcDbEntity
  8
0
 62
     0
100
AcDbTrace
 10
0.0
 20
0.0
 11
2.0
 21
0.5
 12
2.0
 22
-0.5
 13
2.0
 23
-0.5
  0
LINE
  5
209
100
AcDbEntity
  8
0
 62
     0
370
    -2
100
AcDbLine
 10
0.0
 20
1.0
 30
0.0
 11
0.0
 21
-1.0
 31
0.0
  0
ENDBLK
  5
20A
100
AcDbEntity
100
AcDbBlockEnd
  0
BLOCK
  5
20B
100
AcDbEntity
  8
0
100
AcDbBlockBegin
  2
CDWK_EXTR_4
 70
     0
 10
0.0
 20
0.0
 30
0.0
  3
CDWK_EXTR_4
  1

  4
Cadwork line-extremity
  0
HATCH
  5
20C
100
AcDbEntity
  8
0
 62
     0
370
    -2
100
AcDbHatch
 10
0.0
 20
0.0
 30
0.0
210
0.0
220
0.0
230
1.0
  2
SOLID
 70
     1
 71
     0
 91
        1
 92
        1
 93
        1
 72
     2
 10
0.0
 20
0.0
 40
0.5
 50
0.0
 51
360.0
 73
     1
 97
        0
 75
     0
 76
     1
 98
        1
 10
0.0
 20
0.0
  0
ENDBLK
  5
20D
100
AcDbEntity
100
AcDbBlockEnd
  0
BLOCK
  5
20E
100
AcDbEntity
  8
0
100
AcDbBlockBegin
  2
CDWK_PTTYP0
 70
     0
 10
0.0
 20
0.0
 30
0.0
  3
CDWK_PTTYP0
  1

  4
Cadwork point
  0
POINT
  5
20F
100
AcDbEntity
  8
0
 62
     0
100
AcDbPoint
 10
0.0
 20
0.0
 30
0.0
  0
ENDBLK
  5
210
100
AcDbEntity
100
AcDbBlockEnd
  0
BLOCK
  5
211
100
AcDbEntity
  8
Sc.1_5
100
AcDbBlockBegin
  2
*X1837
 70
     1
 10
0.0
 20
0.0
 30
0.0
  3
*X1837
  1

  4
Cadwork hatch
  0
LINE
  5
212
100
AcDbEntity
  8
Sc.1_5
 62
     9
  6
CONTINUOUS
370
    -2
100
AcDbLine
 10
1889.55028527
 20
-471.79130972
 30
0.0
 11
1917.5504001
 21
-480.79129959
 31
0.0
  0
LINE
  5
213
100
AcDbEntity
  8
Sc.1_5
 62
     9
  6
CONTINUOUS
370
    -2
100
AcDbLine
 10
1889.55028527
 20
-480.79129959
 30
0.0
 11
1917.5504001
 21
-471.79130972
 31
0.0
  0
ENDBLK
  5
214
100
AcDbEntity
100
AcDbBlockEnd
  0
BLOCK
  5
215
100
AcDbEntity
  8
Sc.1_5
100
AcDbBlockBegin
  2
*X1838
 70
     1
 10
0.0
 20
0.0
 30
0.0
  3
*X1838
  1

  4
Cadwork hatch
  0
LINE
  5
216
100
AcDbEntity
  8
Sc.1_5
 62
     9
  6
CONTINUOUS
370
    -2
100
AcDbLine
 10
1894.0503296
 20
-553.17418002
 30
0.0
 11
1903.05028654
 21
-505.17415722
 31
0.0
  0
LINE
  5
217
100
AcDbEntity
  8
Sc.1_5
 62
     9
  6
CONTINUOUS
370
    -2
100
AcDbLine
 10
1903.05028654
 20
-553.17418002
 30
0.0
 11
1894.0503296
 21
-505.17415722
 31
0.0
  0
ENDBLK
  5
218
100
AcDbEntity
100
AcDbBlockEnd
  0
BLOCK
  5
219
100
AcDbEntity
  8
Sc.1_5
100
AcDbBlockBegin
  2
*X1839
 70
     1
 10
0.0
 20
0.0
 30
0.0
  3
*X1839
  1

  4
Cadwork hatch
  0
LINE
  5
21A
100
AcDbEntity
  8
Sc.1_5
 62
     9
  6
CONTINUOUS
370
    -2
100
AcDbLine
 10
1925.05038617
 20
-553.17418002
 30
0.0
 11
1934.05034311
 21
-505.17415722
 31
0.0
  0
LINE
  5
21B
100
AcDbEntity
  8
Sc.1_5
 62
     9
  6
CONTINUOUS
370
    -2
100
AcDbLine
 10
1934.05034311
 20
-553.17418002
 30
0.0
 11
1925.05038617
 21
-505.17415722
 31
0.0
  0
ENDBLK
  5
21C
100
AcDbEntity
100
AcDbBlockEnd
  0
BLOCK
  5
21D
100
AcDbEntity
  8
Sc.1_5
100
AcDbBlockBegin
  2
*X1840
 70
     1
 10
0.0
 20
0.0
 30
0.0
  3
*X1840
  1

  4
Cadwork hatch
  0
LINE
  5
21E
100
AcDbEntity
  8
Sc.1_5
 62
     9
  6
CONTINUOUS
370
    -2
100
AcDbLine
 10
1882.37550363
 20
-499.04120862
 30
0.0
 11
1886.37542596
 21
-507.04118498
 31
0.0
  0
LINE
  5
21F
100
AcDbEntity
  8
Sc.1_5
 62
     9
  6
CONTINUOUS
370
    -2
100
AcDbLine
 10
1886.37542596
 20
-499.04120862
 30
0.0
 11
1882.37550363
 21
-507.04118498
 31
0.0
  0
ENDBLK
  5
220
100
AcDbEntity
100
AcDbBlockEnd
  0
BLOCK
  5
221
100
AcDbEntity
  8
Sc.1_5
100
AcDbBlockBegin
  2
*X1841
 70
     1
 10
0.0
 20
0.0
 30
0.0
  3
*X1841
  1

  4
Cadwork hatch
  0
LINE
  5
222
100
AcDbEntity
  8
Sc.1_5
 62
     9
  6
CONTINUOUS
370
    -2
100
AcDbLine
 10
1882.37550363
 20
-403.04119594
 30
0.0
 11
1886.37542596
 21
-411.04120523
 31
0.0
  0
LINE
  5
223
100
AcDbEntity
  8
Sc.1_5
 62
     9
  6
CONTINUOUS
370
    -2
100
AcDbLine
 10
1886.37542596
 20
-403.04119594
 30
0.0
 11
1882.37550363
 21
-411.04120523
 31
0.0
  0
ENDBLK
  5
224
100
AcDbEntity
100
AcDbBlockEnd
  0
BLOCK
  5
225
100
AcDbEntity
  8
Sc.1_5
100
AcDbBlockBegin
  2
*X1844
 70
     1
 10
0.0
 20
0.0
 30
0.0
  3
*X1844
  1

  4
Cadwork hatch
  0
LINE
  5
226
100
AcDbEntity
  8
Sc.1_5
 62
     9
  6
CONTINUOUS
370
    -2
100
AcDbLine
 10
1889.55044003
 20
-471.79130924
 30
0.0
 11
1889.55044003
 21
-471.16635989
 31
0.0
  0
LINE
  5
227
100
AcDbEntity
  8
Sc.1_5
 62
     9
  6
CONTINUOUS
370
    -2
100
AcDbLine
 10
1889.55044003
 20
-467.74960772
 30
0.0
 11
1889.55044003
 21
-466.49970902
 31
0.0
  0
LINE
  5
228
100
AcDbEntity
  8
Sc.1_5
 62
     9
  6
CONTINUOUS
370
    -2
100
AcDbLine
 10
1889.55044003
 20
-463.08295684
 30
0.0
 11
1889.55044003
 21
-461.83305815
 31
0.0
  0
LINE
  5
229
100
AcDbEntity
  8
Sc.1_5
 62
     9
  6
CONTINUOUS
370
    -2
100
AcDbLine
 10
1889.55044003
 20
-458.41630597
 30
0.0
 11
1889.55044003
 21
-457.16640727
 31
0.0
  0
LINE
  5
22A
100
AcDbEntity
  8
Sc.1_5
 62
     9
  6
CONTINUOUS
370
    -2
100
AcDbLine
 10
1889.55044003
 20
-453.7496551
 30
0.0
 11
1889.55044003
 21
-452.4997564
 31
0.0
  0
LINE
  5
22B
100
AcDbEntity
  8
Sc.1_5
 62
     9
  6
CONTINUOUS
370
    -2
100
AcDbLine
 10
1889.55044003
 20
-449.08300423
 30
0.0
 11
1889.55044003
 21
-447.83310553
 31
0.0
  0
LINE
  5
22C
100
AcDbEntity
  8
Sc.1_5
 62
     9
  6
CONTINUOUS
370
    -2
100
AcDbLine
 10
1889.55044003
 20
-444.41635336
 30
0.0
 11
1889.55044003
 21
-443.16645466
 31
0.0
  0
LINE
  5
22D
100
AcDbEntity
  8
Sc.1_5
 62
     9
  6
CONTINUOUS
370
    -2
100
AcDbLine
 10
1889.55044003
 20
-439.74970249
 30
0.0
 11
1889.55044003
 21
-438.49980379
 31
0.0
  0
LINE
  5
22E
100
AcDbEntity
  8
Sc.1_5
 62
     9
  6
CONTINUOUS
370
    -2
100
AcDbLine
 10
1889.55044003
 20
-435.08305162
 30
0.0
 11
1889.55044003
 21
-433.83315292
 31
0.0
  0
LINE
  5
22F
100
AcDbEntity
  8
Sc.1_5
 62
     9
  6
CONTINUOUS
370
    -2
100
AcDbLine
 10
1889.55044003
 20
-430.41640074
 30
0.0
 11
1889.55044003
 21
-429.16650205
 31
0.0
  0
LINE
  5
230
100
AcDbEntity
  8
Sc.1_5
 62
     9
  6
CONTINUOUS
370
    -2
100
AcDbLine
 10
1889.55044003
 20
-425.74974987
 30
0.0
 11
1889.55044003
 21
-424.49985117
 31
0.0
  0
LINE
  5
231
100
AcDbEntity
  8
Sc.1_5
 62
     9
  6
CONTINUOUS
370
    -2
100
AcDbLine
 10
1889.55044003
 20
-421.083099
 30
0.0
 11
1889.55044003
 21
-419.8332003
 31
0.0
  0
LINE
  5
232
100
AcDbEntity
  8
Sc.1_5
 62
     9
  6
CONTINUOUS
370
    -2
100
AcDbLine
 10
1889.55044003
 20
-416.41644813
 30
0.0
 11
1889.55044003
 21
-415.16654943
 31
0.0
  0
LINE
  5
233
100
AcDbEntity
  8
Sc.1_5
 62
     9
  6
CONTINUOUS
370
    -2
100
AcDbLine
 10
1889.55044003
 20
-411.74979726
 30
0.0
 11
1889.55044003
 21
-410.49989856
 31
0.0
  0
LINE
  5
234
100
AcDbEntity
  8
Sc.1_5
 62
     9
  6
CONTINUOUS
370
    -2
100
AcDbLine
 10
1889.55044003
 20
-407.08314639
 30
0.0
 11
1889.55044003
 21
-405.83324769
 31
0.0
  0
LINE
  5
235
100
AcDbEntity
  8
Sc.1_5
 62
     9
  6
CONTINUOUS
370
    -2
100
AcDbLine
 10
1889.55044003
 20
-402.41649552
 30
0.0
 11
1889.55044003
 21
-401.16659682
 31
0.0
  0
LINE
  5
236
100
AcDbEntity
  8
Sc.1_5
 62
     9
  6
CONTINUOUS
370
    -2
100
AcDbLine
 10
1889.55044003
 20
-397.74984464
 30
0.0
 11
1889.55044003
 21
-396.49994595
 31
0.0
  0
LINE
  5
237
100
AcDbEntity
  8
Sc.1_5
 62
     9
  6
CONTINUOUS
370
    -2
100
AcDbLine
 10
1913.64098228
 20
-467.12465845
 30
0.0
 11
1912.88368863
 21
-467.12465845
 31
0.0
  0
LINE
  5
238
100
AcDbEntity
  8
Sc.1_5
 62
     9
  6
CONTINUOUS
370
    -2
100
AcDbLine
 10
1913.64098228
 20
-457.79135954
 30
0.0
 11
1912.88368863
 21
-457.79135954
 31
0.0
  0
LINE
  5
239
100
AcDbEntity
  8
Sc.1_5
 62
     9
  6
CONTINUOUS
370
    -2
100
AcDbLine
 10
1913.64098228
 20
-448.45806064
 30
0.0
 11
1912.88368863
 21
-448.45806064
 31
0.0
  0
LINE
  5
23A
100
AcDbEntity
  8
Sc.1_5
 62
     9
  6
CONTINUOUS
370
    -2
100
AcDbLine
 10
1913.64098228
 20
-439.12476173
 30
0.0
 11
1912.88368863
 21
-439.12476173
 31
0.0
  0
LINE
  5
23B
100
AcDbEntity
  8
Sc.1_5
 62
     9
  6
CONTINUOUS
370
    -2
100
AcDbLine
 10
1913.64098228
 20
-429.79146283
 30
0.0
 11
1912.88368863
 21
-429.79146283
 31
0.0
  0
LINE
  5
23C
100
AcDbEntity
  8
Sc.1_5
 62
     9
  6
CONTINUOUS
370
    -2
100
AcDbLine
 10
1913.64098228
 20
-420.45816392
 30
0.0
 11
1912.88368863
 21
-420.45816392
 31
0.0
  0
LINE
  5
23D
100
AcDbEntity
  8
Sc.1_5
 62
     9
  6
CONTINUOUS
370
    -2
100
AcDbLine
 10
1913.64098228
 20
-411.12486502
 30
0.0
 11
1912.88368863
 21
-411.12486502
 31
0.0
  0
LINE
  5
23E
100
AcDbEntity
  8
Sc.1_5
 62
     9
  6
CONTINUOUS
370
    -2
100
AcDbLine
 10
1913.64098228
 20
-401.79156611
 30
0.0
 11
1912.88368863
 21
-401.79156611
 31
0.0
  0
LINE
  5
23F
100
AcDbEntity
  8
Sc.1_5
 62
     9
  6
CONTINUOUS
370
    -2
100
AcDbLine
 10
1894.21709082
 20
-471.79130824
 30
0.0
 11
1893.45979717
 21
-471.79130824
 31
0.0
  0
LINE
  5
240
100
AcDbEntity
  8
Sc.1_5
 62
     9
  6
CONTINUOUS
370
    -2
100
AcDbLine
 10
1894.21709082
 20
-462.45800933
 30
0.0
 11
1893.45979717
 21
-462.45800933
 31
0.0
  0
LINE
  5
241
100
AcDbEntity
  8
Sc.1_5
 62
     9
  6
CONTINUOUS
370
    -2
100
AcDbLine
 10
1894.21709082
 20
-453.12471043
 30
0.0
 11
1893.45979717
 21
-453.12471043
 31
0.0
  0
LINE
  5
242
100
AcDbEntity
  8
Sc.1_5
 62
     9
  6
CONTINUOUS
370
    -2
100
AcDbLine
 10
1894.21709082
 20
-443.79141152
 30
0.0
 11
1893.45979717
 21
-443.79141152
 31
0.0
  0
LINE
  5
243
100
AcDbEntity
  8
Sc.1_5
 62
     9
  6
CONTINUOUS
370
    -2
100
AcDbLine
 10
1894.21709082
 20
-434.45811262
 30
0.0
 11
1893.45979717
 21
-434.45811262
 31
0.0
  0
LINE
  5
244
100
AcDbEntity
  8
Sc.1_5
 62
     9
  6
CONTINUOUS
370
    -2
100
AcDbLine
 10
1894.21709082
 20
-425.12481371
 30
0.0
 11
1893.45979717
 21
-425.12481371
 31
0.0
  0
LINE
  5
245
100
AcDbEntity
  8
Sc.1_5
 62
     9
  6
CONTINUOUS
370
    -2
100
AcDbLine
 10
1894.21709082
 20
-415.7915148
 30
0.0
 11
1893.45979717
 21
-415.7915148
 31
0.0
  0
LINE
  5
246
100
AcDbEntity
  8
Sc.1_5
 62
     9
  6
CONTINUOUS
370
    -2
100
AcDbLine
 10
1894.21709082
 20
-406.4582159
 30
0.0
 11
1893.45979717
 21
-406.4582159
 31
0.0
  0
LINE
  5
247
100
AcDbEntity
  8
Sc.1_5
 62
     9
  6
CONTINUOUS
370
    -2
100
AcDbLine
 10
1894.21709082
 20
-397.12491699
 30
0.0
 11
1893.45979717
 21
-397.12491699
 31
0.0
  0
LINE
  5
248
100
AcDbEntity
  8
Sc.1_5
 62
     9
  6
CONTINUOUS
370
    -2
100
AcDbLine
 10
1911.88264195
 20
-467.2358879
 30
0.0
 11
1895.21813982
 21
-471.68008144
 31
0.0
  0
LINE
  5
249
100
AcDbEntity
  8
Sc.1_5
 62
     9
  6
CONTINUOUS
370
    -2
100
AcDbLine
 10
1911.88265795
 20
-457.90259089
 30
0.0
 11
1895.21815583
 21
-462.34678443
 31
0.0
  0
LINE
  5
24A
100
AcDbEntity
  8
Sc.1_5
 62
     9
  6
CONTINUOUS
370
    -2
100
AcDbLine
 10
1911.88267396
 20
-448.56929389
 30
0.0
 11
1895.21817183
 21
-453.01348743
 31
0.0
  0
LINE
  5
24B
100
AcDbEntity
  8
Sc.1_5
 62
     9
  6
CONTINUOUS
370
    -2
100
AcDbLine
 10
1911.88268997
 20
-439.23599688
 30
0.0
 11
1895.21818784
 21
-443.68019042
 31
0.0
  0
LINE
  5
24C
100
AcDbEntity
  8
Sc.1_5
 62
     9
  6
CONTINUOUS
370
    -2
100
AcDbLine
 10
1911.88270597
 20
-429.90269987
 30
0.0
 11
1895.21820385
 21
-434.34689342
 31
0.0
  0
LINE
  5
24D
100
AcDbEntity
  8
Sc.1_5
 62
     9
  6
CONTINUOUS
370
    -2
100
AcDbLine
 10
1911.88272198
 20
-420.56940287
 30
0.0
 11
1895.21821985
 21
-425.01359641
 31
0.0
  0
LINE
  5
24E
100
AcDbEntity
  8
Sc.1_5
 62
     9
  6
CONTINUOUS
370
    -2
100
AcDbLine
 10
1911.88273799
 20
-411.23610586
 30
0.0
 11
1895.21823586
 21
-415.6802994
 31
0.0
  0
LINE
  5
24F
100
AcDbEntity
  8
Sc.1_5
 62
     9
  6
CONTINUOUS
370
    -2
100
AcDbLine
 10
1911.88275399
 20
-401.90280886
 30
0.0
 11
1895.21825187
 21
-406.3470024
 31
0.0
  0
LINE
  5
250
100
AcDbEntity
  8
Sc.1_5
 62
     9
  6
CONTINUOUS
370
    -2
100
AcDbLine
 10
1900.33851555
 20
-395.64820575
 30
0.0
 11
1895.21826787
 21
-397.01370539
 31
0.0
  0
LINE
  5
251
100
AcDbEntity
  8
Sc.1_5
 62
     9
  6
CONTINUOUS
370
    -2
100
AcDbLine
 10
1911.88264195
 20
-467.01343167
 30
0.0
 11
1895.21813982
 21
-462.56923813
 31
0.0
  0
LINE
  5
252
100
AcDbEntity
  8
Sc.1_5
 62
     9
  6
CONTINUOUS
370
    -2
100
AcDbLine
 10
1911.88262594
 20
-457.68013467
 30
0.0
 11
1895.21812381
 21
-453.23594112
 31
0.0
  0
LINE
  5
253
100
AcDbEntity
  8
Sc.1_5
 62
     9
  6
CONTINUOUS
370
    -2
100
AcDbLine
 10
1911.88260993
 20
-448.34683766
 30
0.0
 11
1895.21810781
 21
-443.90264412
 31
0.0
  0
LINE
  5
254
100
AcDbEntity
  8
Sc.1_5
 62
     9
  6
CONTINUOUS
370
    -2
100
AcDbLine
 10
1911.88259392
 20
-439.01354065
 30
0.0
 11
1895.2180918
 21
-434.56934711
 31
0.0
  0
LINE
  5
255
100
AcDbEntity
  8
Sc.1_5
 62
     9
  6
CONTINUOUS
370
    -2
100
AcDbLine
 10
1911.88257792
 20
-429.68024365
 30
0.0
 11
1895.21807579
 21
-425.23605011
 31
0.0
  0
LINE
  5
256
100
AcDbEntity
  8
Sc.1_5
 62
     9
  6
CONTINUOUS
370
    -2
100
AcDbLine
 10
1911.88256191
 20
-420.34694664
 30
0.0
 11
1895.21805979
 21
-415.9027531
 31
0.0
  0
LINE
  5
257
100
AcDbEntity
  8
Sc.1_5
 62
     9
  6
CONTINUOUS
370
    -2
100
AcDbLine
 10
1911.8825459
 20
-411.01364963
 30
0.0
 11
1895.21804378
 21
-406.56945609
 31
0.0
  0
LINE
  5
258
100
AcDbEntity
  8
Sc.1_5
 62
     9
  6
CONTINUOUS
370
    -2
100
AcDbLine
 10
1911.8825299
 20
-401.68035263
 30
0.0
 11
1895.21802777
 21
-397.23615909
 31
0.0
  0
LINE
  5
259
100
AcDbEntity
  8
Sc.1_5
 62
     9
  6
CONTINUOUS
370
    -2
100
AcDbLine
 10
1917.55033942
 20
-471.16635989
 30
0.0
 11
1917.21657229
 21
-469.94254714
 31
0.0
  0
LINE
  5
25A
100
AcDbEntity
  8
Sc.1_5
 62
     9
  6
CONTINUOUS
370
    -2
100
AcDbLine
 10
1917.55033942
 20
-461.83306036
 30
0.0
 11
1917.21657254
 21
-460.60924853
 31
0.0
  0
LINE
  5
25B
100
AcDbEntity
  8
Sc.1_5
 62
     9
  6
CONTINUOUS
370
    -2
100
AcDbLine
 10
1917.55033942
 20
-452.49976083
 30
0.0
 11
1917.21657279
 21
-451.27594991
 31
0.0
  0
LINE
  5
25C
100
AcDbEntity
  8
Sc.1_5
 62
     9
  6
CONTINUOUS
370
    -2
100
AcDbLine
 10
1917.55033942
 20
-443.1664613
 30
0.0
 11
1917.21657304
 21
-441.9426513
 31
0.0
  0
LINE
  5
25D
100
AcDbEntity
  8
Sc.1_5
 62
     9
  6
CONTINUOUS
370
    -2
100
AcDbLine
 10
1917.55033942
 20
-433.83316177
 30
0.0
 11
1917.21657329
 21
-432.60935269
 31
0.0
  0
LINE
  5
25E
100
AcDbEntity
  8
Sc.1_5
 62
     9
  6
CONTINUOUS
370
    -2
100
AcDbLine
 10
1917.55033942
 20
-424.49986224
 30
0.0
 11
1917.21657354
 21
-423.27605407
 31
0.0
  0
LINE
  5
25F
100
AcDbEntity
  8
Sc.1_5
 62
     9
  6
CONTINUOUS
370
    -2
100
AcDbLine
 10
1917.55033942
 20
-415.16656271
 30
0.0
 11
1917.21657379
 21
-413.94275546
 31
0.0
  0
LINE
  5
260
100
AcDbEntity
  8
Sc.1_5
 62
     9
  6
CONTINUOUS
370
    -2
100
AcDbLine
 10
1917.55033942
 20
-405.83326318
 30
0.0
 11
1917.21657404
 21
-404.60945685
 31
0.0
  0
LINE
  5
261
100
AcDbEntity
  8
Sc.1_5
 62
     9
  6
CONTINUOUS
370
    -2
100
AcDbLine
 10
1917.55033942
 20
-396.49996365
 30
0.0
 11
1917.3180418
 21
-395.64820575
 31
0.0
  0
LINE
  5
262
100
AcDbEntity
  8
Sc.1_5
 62
     9
  6
CONTINUOUS
370
    -2
100
AcDbLine
 10
1917.55033792
 20
-463.08295997
 30
0.0
 11
1917.21657096
 21
-464.30677277
 31
0.0
  0
LINE
  5
263
100
AcDbEntity
  8
Sc.1_5
 62
     9
  6
CONTINUOUS
370
    -2
100
AcDbLine
 10
1917.55033643
 20
-453.74966136
 30
0.0
 11
1917.21656947
 21
-454.97347416
 31
0.0
  0
LINE
  5
264
100
AcDbEntity
  8
Sc.1_5
 62
     9
  6
CONTINUOUS
370
    -2
100
AcDbLine
 10
1917.55033494
 20
-444.41636275
 30
0.0
 11
1917.21656797
 21
-445.64017554
 31
0.0
  0
LINE
  5
265
100
AcDbEntity
  8
Sc.1_5
 62
     9
  6
CONTINUOUS
370
    -2
100
AcDbLine
 10
1917.55033345
 20
-435.08306414
 30
0.0
 11
1917.21656648
 21
-436.30687693
 31
0.0
  0
LINE
  5
266
100
AcDbEntity
  8
Sc.1_5
 62
     9
  6
CONTINUOUS
370
    -2
100
AcDbLine
 10
1917.55033195
 20
-425.74976552
 30
0.0
 11
1917.21656499
 21
-426.97357832
 31
0.0
  0
LINE
  5
267
100
AcDbEntity
  8
Sc.1_5
 62
     9
  6
CONTINUOUS
370
    -2
100
AcDbLine
 10
1917.55033046
 20
-416.41646691
 30
0.0
 11
1917.21656349
 21
-417.64027971
 31
0.0
  0
LINE
  5
268
100
AcDbEntity
  8
Sc.1_5
 62
     9
  6
CONTINUOUS
370
    -2
100
AcDbLine
 10
1917.55032897
 20
-407.0831683
 30
0.0
 11
1917.216562
 21
-408.30698109
 31
0.0
  0
LINE
  5
269
100
AcDbEntity
  8
Sc.1_5
 62
     9
  6
CONTINUOUS
370
    -2
100
AcDbLine
 10
1917.55032747
 20
-397.74986969
 30
0.0
 11
1917.21656051
 21
-398.97368248
 31
0.0
  0
LINE
  5
26A
100
AcDbEntity
  8
Sc.1_5
 62
     9
  6
CONTINUOUS
370
    -2
100
AcDbLine
 10
1889.88420615
 20
-468.97342176
 30
0.0
 11
1889.55043911
 21
-467.74960932
 31
0.0
  0
LINE
  5
26B
100
AcDbEntity
  8
Sc.1_5
 62
     9
  6
CONTINUOUS
370
    -2
100
AcDbLine
 10
1889.8842064
 20
-459.64012314
 30
0.0
 11
1889.55043927
 21
-458.41631039
 31
0.0
  0
LINE
  5
26C
100
AcDbEntity
  8
Sc.1_5
 62
     9
  6
CONTINUOUS
370
    -2
100
AcDbLine
 10
1889.88420665
 20
-450.30682453
 30
0.0
 11
1889.55043952
 21
-449.08301178
 31
0.0
  0
LINE
  5
26D
100
AcDbEntity
  8
Sc.1_5
 62
     9
  6
CONTINUOUS
370
    -2
100
AcDbLine
 10
1889.8842069
 20
-440.97352592
 30
0.0
 11
1889.55043977
 21
-439.74971317
 31
0.0
  0
LINE
  5
26E
100
AcDbEntity
  8
Sc.1_5
 62
     9
  6
CONTINUOUS
370
    -2
100
AcDbLine
 10
1889.88420715
 20
-431.64022731
 30
0.0
 11
1889.55044002
 21
-430.41641456
 31
0.0
  0
LINE
  5
26F
100
AcDbEntity
  8
Sc.1_5
 62
     9
  6
CONTINUOUS
370
    -2
100
AcDbLine
 10
1889.8842074
 20
-422.30692869
 30
0.0
 11
1889.55044027
 21
-421.08311594
 31
0.0
  0
LINE
  5
270
100
AcDbEntity
  8
Sc.1_5
 62
     9
  6
CONTINUOUS
370
    -2
100
AcDbLine
 10
1889.88420765
 20
-412.97363008
 30
0.0
 11
1889.55044052
 21
-411.74981733
 31
0.0
  0
LINE
  5
271
100
AcDbEntity
  8
Sc.1_5
 62
     9
  6
CONTINUOUS
370
    -2
100
AcDbLine
 10
1889.8842079
 20
-403.64033147
 30
0.0
 11
1889.55044077
 21
-402.41651872
 31
0.0
  0
LINE
  5
272
100
AcDbEntity
  8
Sc.1_5
 62
     9
  6
CONTINUOUS
370
    -2
100
AcDbLine
 10
1889.55043911
 20
-401.16661848
 30
0.0
 11
1889.88420541
 21
-399.94280877
 31
0.0
  0
LINE
  5
273
100
AcDbEntity
  8
Sc.1_5
 62
     9
  6
CONTINUOUS
370
    -2
100
AcDbLine
 10
1889.55043911
 20
-410.49991801
 30
0.0
 11
1889.88420566
 21
-409.27610739
 31
0.0
  0
LINE
  5
274
100
AcDbEntity
  8
Sc.1_5
 62
     9
  6
CONTINUOUS
370
    -2
100
AcDbLine
 10
1889.55043911
 20
-419.83321754
 30
0.0
 11
1889.88420591
 21
-418.609406
 31
0.0
  0
LINE
  5
275
100
AcDbEntity
  8
Sc.1_5
 62
     9
  6
CONTINUOUS
370
    -2
100
AcDbLine
 10
1889.55043911
 20
-429.16651707
 30
0.0
 11
1889.88420616
 21
-427.94270461
 31
0.0
  0
LINE
  5
276
100
AcDbEntity
  8
Sc.1_5
 62
     9
  6
CONTINUOUS
370
    -2
100
AcDbLine
 10
1889.55043928
 20
-438.49981597
 30
0.0
 11
1889.88420641
 21
-437.27600322
 31
0.0
  0
LINE
  5
277
100
AcDbEntity
  8
Sc.1_5
 62
     9
  6
CONTINUOUS
370
    -2
100
AcDbLine
 10
1889.55043953
 20
-447.83311459
 30
0.0
 11
1889.88420666
 21
-446.60930184
 31
0.0
  0
LINE
  5
278
100
AcDbEntity
  8
Sc.1_5
 62
     9
  6
CONTINUOUS
370
    -2
100
AcDbLine
 10
1889.55043978
 20
-457.1664132
 30
0.0
 11
1889.88420691
 21
-455.94260045
 31
0.0
  0
LINE
  5
279
100
AcDbEntity
  8
Sc.1_5
 62
     9
  6
CONTINUOUS
370
    -2
100
AcDbLine
 10
1889.55044003
 20
-466.49971181
 30
0.0
 11
1889.88420716
 21
-465.27589906
 31
0.0
  0
LINE
  5
27A
100
AcDbEntity
  8
Sc.1_5
 62
     9
  6
CONTINUOUS
370
    -2
100
AcDbLine
 10
1917.21657221
 20
-469.9425486
 30
0.0
 11
1916.58957723
 21
-468.89755696
 31
0.0
  0
LINE
  5
27B
100
AcDbEntity
  8
Sc.1_5
 62
     9
  6
CONTINUOUS
370
    -2
100
AcDbLine
 10
1917.21657215
 20
-460.60924808
 30
0.0
 11
1916.58957717
 21
-459.56425644
 31
0.0
  0
LINE
  5
27C
100
AcDbEntity
  8
Sc.1_5
 62
     9
  6
CONTINUOUS
370
    -2
100
AcDbLine
 10
1917.21657209
 20
-451.27594756
 30
0.0
 11
1916.58957711
 21
-450.23095593
 31
0.0
  0
LINE
  5
27D
100
AcDbEntity
  8
Sc.1_5
 62
     9
  6
CONTINUOUS
370
    -2
100
AcDbLine
 10
1917.21657203
 20
-441.94264705
 30
0.0
 11
1916.58957704
 21
-440.89765541
 31
0.0
  0
LINE
  5
27E
100
AcDbEntity
  8
Sc.1_5
 62
     9
  6
CONTINUOUS
370
    -2
100
AcDbLine
 10
1917.21657197
 20
-432.60934653
 30
0.0
 11
1916.58957698
 21
-431.56435489
 31
0.0
  0
LINE
  5
27F
100
AcDbEntity
  8
Sc.1_5
 62
     9
  6
CONTINUOUS
370
    -2
100
AcDbLine
 10
1917.2165719
 20
-423.27604601
 30
0.0
 11
1916.58957692
 21
-422.23105437
 31
0.0
  0
LINE
  5
280
100
AcDbEntity
  8
Sc.1_5
 62
     9
  6
CONTINUOUS
370
    -2
100
AcDbLine
 10
1917.21657184
 20
-413.94274549
 30
0.0
 11
1916.58957686
 21
-412.89775385
 31
0.0
  0
LINE
  5
281
100
AcDbEntity
  8
Sc.1_5
 62
     9
  6
CONTINUOUS
370
    -2
100
AcDbLine
 10
1917.21657178
 20
-404.60944497
 30
0.0
 11
1916.5895768
 21
-403.56445333
 31
0.0
  0
LINE
  5
282
100
AcDbEntity
  8
Sc.1_5
 62
     9
  6
CONTINUOUS
370
    -2
100
AcDbLine
 10
1917.2165729
 20
-464.31367403
 30
0.0
 11
1916.58957784
 21
-465.35866563
 31
0.0
  0
LINE
  5
283
100
AcDbEntity
  8
Sc.1_5
 62
     9
  6
CONTINUOUS
370
    -2
100
AcDbLine
 10
1917.21657358
 20
-454.98037351
 30
0.0
 11
1916.58957853
 21
-456.02536511
 31
0.0
  0
LINE
  5
284
100
AcDbEntity
  8
Sc.1_5
 62
     9
  6
CONTINUOUS
370
    -2
100
AcDbLine
 10
1917.21657426
 20
-445.64707299
 30
0.0
 11
1916.58957921
 21
-446.69206459
 31
0.0
  0
LINE
  5
285
100
AcDbEntity
  8
Sc.1_5
 62
     9
  6
CONTINUOUS
370
    -2
100
AcDbLine
 10
1917.21657495
 20
-436.31377247
 30
0.0
 11
1916.58957989
 21
-437.35876407
 31
0.0
  0
LINE
  5
286
100
AcDbEntity
  8
Sc.1_5
 62
     9
  6
CONTINUOUS
370
    -2
100
AcDbLine
 10
1917.21657563
 20
-426.98047196
 30
0.0
 11
1916.58958058
 21
-428.02546355
 31
0.0
  0
LINE
  5
287
100
AcDbEntity
  8
Sc.1_5
 62
     9
  6
CONTINUOUS
370
    -2
100
AcDbLine
 10
1917.21657631
 20
-417.64717144
 30
0.0
 11
1916.58958126
 21
-418.69216303
 31
0.0
  0
LINE
  5
288
100
AcDbEntity
  8
Sc.1_5
 62
     9
  6
CONTINUOUS
370
    -2
100
AcDbLine
 10
1917.216577
 20
-408.31387092
 30
0.0
 11
1916.58958194
 21
-409.35886251
 31
0.0
  0
LINE
  5
289
100
AcDbEntity
  8
Sc.1_5
 62
     9
  6
CONTINUOUS
370
    -2
100
AcDbLine
 10
1917.21657768
 20
-398.9805704
 30
0.0
 11
1916.58958263
 21
-400.025562
 31
0.0
  0
LINE
  5
28A
100
AcDbEntity
  8
Sc.1_5
 62
     9
  6
CONTINUOUS
370
    -2
100
AcDbLine
 10
1890.51120356
 20
-470.01841155
 30
0.0
 11
1889.88420858
 21
-468.97341991
 31
0.0
  0
LINE
  5
28B
100
AcDbEntity
  8
Sc.1_5
 62
     9
  6
CONTINUOUS
370
    -2
100
AcDbLine
 10
1890.5112035
 20
-460.68511103
 30
0.0
 11
1889.88420852
 21
-459.64011939
 31
0.0
  0
LINE
  5
28C
100
AcDbEntity
  8
Sc.1_5
 62
     9
  6
CONTINUOUS
370
    -2
100
AcDbLine
 10
1890.51120344
 20
-451.35181051
 30
0.0
 11
1889.88420845
 21
-450.30681887
 31
0.0
  0
LINE
  5
28D
100
AcDbEntity
  8
Sc.1_5
 62
     9
  6
CONTINUOUS
370
    -2
100
AcDbLine
 10
1890.51120337
 20
-442.01850999
 30
0.0
 11
1889.88420839
 21
-440.97351835
 31
0.0
  0
LINE
  5
28E
100
AcDbEntity
  8
Sc.1_5
 62
     9
  6
CONTINUOUS
370
    -2
100
AcDbLine
 10
1890.51120331
 20
-432.68520947
 30
0.0
 11
1889.88420833
 21
-431.64021783
 31
0.0
  0
LINE
  5
28F
100
AcDbEntity
  8
Sc.1_5
 62
     9
  6
CONTINUOUS
370
    -2
100
AcDbLine
 10
1890.51120325
 20
-423.35190895
 30
0.0
 11
1889.88420827
 21
-422.30691732
 31
0.0
  0
LINE
  5
290
100
AcDbEntity
  8
Sc.1_5
 62
     9
  6
CONTINUOUS
370
    -2
100
AcDbLine
 10
1890.51120319
 20
-414.01860844
 30
0.0
 11
1889.88420821
 21
-412.9736168
 31
0.0
  0
LINE
  5
291
100
AcDbEntity
  8
Sc.1_5
 62
     9
  6
CONTINUOUS
370
    -2
100
AcDbLine
 10
1890.51120313
 20
-404.68530792
 30
0.0
 11
1889.88420814
 21
-403.64031628
 31
0.0
  0
LINE
  5
292
100
AcDbEntity
  8
Sc.1_5
 62
     9
  6
CONTINUOUS
370
    -2
100
AcDbLine
 10
1889.88420658
 20
-399.94279418
 30
0.0
 11
1890.51120157
 21
-398.89780255
 31
0.0
  0
LINE
  5
293
100
AcDbEntity
  8
Sc.1_5
 62
     9
  6
CONTINUOUS
370
    -2
100
AcDbLine
 10
1889.88420652
 20
-409.2760947
 30
0.0
 11
1890.5112015
 21
-408.23110306
 31
0.0
  0
LINE
  5
294
100
AcDbEntity
  8
Sc.1_5
 62
     9
  6
CONTINUOUS
370
    -2
100
AcDbLine
 10
1889.88420646
 20
-418.60939522
 30
0.0
 11
1890.51120144
 21
-417.56440358
 31
0.0
  0
LINE
  5
295
100
AcDbEntity
  8
Sc.1_5
 62
     9
  6
CONTINUOUS
370
    -2
100
AcDbLine
 10
1889.8842064
 20
-427.94269574
 30
0.0
 11
1890.51120138
 21
-426.8977041
 31
0.0
  0
LINE
  5
296
100
AcDbEntity
  8
Sc.1_5
 62
     9
  6
CONTINUOUS
370
    -2
100
AcDbLine
 10
1889.88420634
 20
-437.27599626
 30
0.0
 11
1890.51120132
 21
-436.23100462
 31
0.0
  0
LINE
  5
297
100
AcDbEntity
  8
Sc.1_5
 62
     9
  6
CONTINUOUS
370
    -2
100
AcDbLine
 10
1889.88420627
 20
-446.60929678
 30
0.0
 11
1890.51120126
 21
-445.56430514
 31
0.0
  0
LINE
  5
298
100
AcDbEntity
  8
Sc.1_5
 62
     9
  6
CONTINUOUS
370
    -2
100
AcDbLine
 10
1889.88420621
 20
-455.94259729
 30
0.0
 11
1890.51120119
 21
-454.89760566
 31
0.0
  0
LINE
  5
299
100
AcDbEntity
  8
Sc.1_5
 62
     9
  6
CONTINUOUS
370
    -2
100
AcDbLine
 10
1889.88420615
 20
-465.27589781
 30
0.0
 11
1890.51120113
 21
-464.23090618
 31
0.0
  0
LINE
  5
29A
100
AcDbEntity
  8
Sc.1_5
 62
     9
  6
CONTINUOUS
370
    -2
100
AcDbLine
 10
1916.58957605
 20
-468.89755881
 30
0.0
 11
1915.85676068
 21
-468.16474343
 31
0.0
  0
LINE
  5
29B
100
AcDbEntity
  8
Sc.1_5
 62
     9
  6
CONTINUOUS
370
    -2
100
AcDbLine
 10
1916.58957605
 20
-459.56425745
 30
0.0
 11
1915.85676068
 21
-458.83144207
 31
0.0
  0
LINE
  5
29C
100
AcDbEntity
  8
Sc.1_5
 62
     9
  6
CONTINUOUS
370
    -2
100
AcDbLine
 10
1916.58957605
 20
-450.23095608
 30
0.0
 11
1915.85676068
 21
-449.4981407
 31
0.0
  0
LINE
  5
29D
100
AcDbEntity
  8
Sc.1_5
 62
     9
  6
CONTINUOUS
370
    -2
100
AcDbLine
 10
1916.58957605
 20
-440.89765471
 30
0.0
 11
1915.85676068
 21
-440.16483933
 31
0.0
  0
LINE
  5
29E
100
AcDbEntity
  8
Sc.1_5
 62
     9
  6
CONTINUOUS
370
    -2
100
AcDbLine
 10
1916.58957605
 20
-431.56435334
 30
0.0
 11
1915.85676068
 21
-430.83153797
 31
0.0
  0
LINE
  5
29F
100
AcDbEntity
  8
Sc.1_5
 62
     9
  6
CONTINUOUS
370
    -2
100
AcDbLine
 10
1916.58957605
 20
-422.23105198
 30
0.0
 11
1915.85676068
 21
-421.4982366
 31
0.0
  0
LINE
  5
2A0
100
AcDbEntity
  8
Sc.1_5
 62
     9
  6
CONTINUOUS
370
    -2
100
AcDbLine
 10
1916.58957605
 20
-412.89775061
 30
0.0
 11
1915.85676068
 21
-412.16493523
 31
0.0
  0
LINE
  5
2A1
100
AcDbEntity
  8
Sc.1_5
 62
     9
  6
CONTINUOUS
370
    -2
100
AcDbLine
 10
1916.58957605
 20
-403.56444924
 30
0.0
 11
1915.85676068
 21
-402.83163387
 31
0.0
  0
LINE
  5
2A2
100
AcDbEntity
  8
Sc.1_5
 62
     9
  6
CONTINUOUS
370
    -2
100
AcDbLine
 10
1916.58957605
 20
-465.3517583
 30
0.0
 11
1915.85676068
 21
-466.08457367
 31
0.0
  0
LINE
  5
2A3
100
AcDbEntity
  8
Sc.1_5
 62
     9
  6
CONTINUOUS
370
    -2
100
AcDbLine
 10
1916.58957605
 20
-456.01845693
 30
0.0
 11
1915.85676068
 21
-456.75127231
 31
0.0
  0
LINE
  5
2A4
100
AcDbEntity
  8
Sc.1_5
 62
     9
  6
CONTINUOUS
370
    -2
100
AcDbLine
 10
1916.58957605
 20
-446.68515556
 30
0.0
 11
1915.85676068
 21
-447.41797094
 31
0.0
  0
LINE
  5
2A5
100
AcDbEntity
  8
Sc.1_5
 62
     9
  6
CONTINUOUS
370
    -2
100
AcDbLine
 10
1916.58957605
 20
-437.3518542
 30
0.0
 11
1915.85676068
 21
-438.08466957
 31
0.0
  0
LINE
  5
2A6
100
AcDbEntity
  8
Sc.1_5
 62
     9
  6
CONTINUOUS
370
    -2
100
AcDbLine
 10
1916.58957605
 20
-428.01855283
 30
0.0
 11
1915.85676068
 21
-428.75136821
 31
0.0
  0
LINE
  5
2A7
100
AcDbEntity
  8
Sc.1_5
 62
     9
  6
CONTINUOUS
370
    -2
100
AcDbLine
 10
1916.58957605
 20
-418.68525146
 30
0.0
 11
1915.85676068
 21
-419.41806684
 31
0.0
  0
LINE
  5
2A8
100
AcDbEntity
  8
Sc.1_5
 62
     9
  6
CONTINUOUS
370
    -2
100
AcDbLine
 10
1916.58957605
 20
-409.3519501
 30
0.0
 11
1915.85676068
 21
-410.08476547
 31
0.0
  0
LINE
  5
2A9
100
AcDbEntity
  8
Sc.1_5
 62
     9
  6
CONTINUOUS
370
    -2
100
AcDbLine
 10
1916.58957605
 20
-400.01864873
 30
0.0
 11
1915.85676068
 21
-400.75146411
 31
0.0
  0
LINE
  5
2AA
100
AcDbEntity
  8
Sc.1_5
 62
     9
  6
CONTINUOUS
370
    -2
100
AcDbLine
 10
1891.2440161
 20
-470.751225
 30
0.0
 11
1890.51120072
 21
-470.01840962
 31
0.0
  0
LINE
  5
2AB
100
AcDbEntity
  8
Sc.1_5
 62
     9
  6
CONTINUOUS
370
    -2
100
AcDbLine
 10
1891.2440161
 20
-461.41792363
 30
0.0
 11
1890.51120072
 21
-460.68510826
 31
0.0
  0
LINE
  5
2AC
100
AcDbEntity
  8
Sc.1_5
 62
     9
  6
CONTINUOUS
370
    -2
100
AcDbLine
 10
1891.2440161
 20
-452.08462227
 30
0.0
 11
1890.51120072
 21
-451.35180689
 31
0.0
  0
LINE
  5
2AD
100
AcDbEntity
  8
Sc.1_5
 62
     9
  6
CONTINUOUS
370
    -2
100
AcDbLine
 10
1891.2440161
 20
-442.7513209
 30
0.0
 11
1890.51120072
 21
-442.01850552
 31
0.0
  0
LINE
  5
2AE
100
AcDbEntity
  8
Sc.1_5
 62
     9
  6
CONTINUOUS
370
    -2
100
AcDbLine
 10
1891.2440161
 20
-433.41801953
 30
0.0
 11
1890.51120072
 21
-432.68520416
 31
0.0
  0
LINE
  5
2AF
100
AcDbEntity
  8
Sc.1_5
 62
     9
  6
CONTINUOUS
370
    -2
100
AcDbLine
 10
1891.2440161
 20
-424.08471817
 30
0.0
 11
1890.51120072
 21
-423.35190279
 31
0.0
  0
LINE
  5
2B0
100
AcDbEntity
  8
Sc.1_5
 62
     9
  6
CONTINUOUS
370
    -2
100
AcDbLine
 10
1891.2440161
 20
-414.7514168
 30
0.0
 11
1890.51120072
 21
-414.01860142
 31
0.0
  0
LINE
  5
2B1
100
AcDbEntity
  8
Sc.1_5
 62
     9
  6
CONTINUOUS
370
    -2
100
AcDbLine
 10
1891.2440161
 20
-405.41811543
 30
0.0
 11
1890.51120072
 21
-404.68530006
 31
0.0
  0
LINE
  5
2B2
100
AcDbEntity
  8
Sc.1_5
 62
     9
  6
CONTINUOUS
370
    -2
100
AcDbLine
 10
1891.2440161
 20
-396.08481407
 30
0.0
 11
1890.80740778
 21
-395.64820575
 31
0.0
  0
LINE
  5
2B3
100
AcDbEntity
  8
Sc.1_5
 62
     9
  6
CONTINUOUS
370
    -2
100
AcDbLine
 10
1890.51120356
 20
-398.89779812
 30
0.0
 11
1891.24401894
 21
-398.16498274
 31
0.0
  0
LINE
  5
2B4
100
AcDbEntity
  8
Sc.1_5
 62
     9
  6
CONTINUOUS
370
    -2
100
AcDbLine
 10
1890.51120356
 20
-408.23109949
 30
0.0
 11
1891.24401894
 21
-407.49828411
 31
0.0
  0
LINE
  5
2B5
100
AcDbEntity
  8
Sc.1_5
 62
     9
  6
CONTINUOUS
370
    -2
100
AcDbLine
 10
1890.51120356
 20
-417.56440086
 30
0.0
 11
1891.24401894
 21
-416.83158548
 31
0.0
  0
LINE
  5
2B6
100
AcDbEntity
  8
Sc.1_5
 62
     9
  6
CONTINUOUS
370
    -2
100
AcDbLine
 10
1890.51120356
 20
-426.89770222
 30
0.0
 11
1891.24401894
 21
-426.16488685
 31
0.0
  0
LINE
  5
2B7
100
AcDbEntity
  8
Sc.1_5
 62
     9
  6
CONTINUOUS
370
    -2
100
AcDbLine
 10
1890.51120356
 20
-436.23100359
 30
0.0
 11
1891.24401894
 21
-435.49818821
 31
0.0
  0
LINE
  5
2B8
100
AcDbEntity
  8
Sc.1_5
 62
     9
  6
CONTINUOUS
370
    -2
100
AcDbLine
 10
1890.51120356
 20
-445.56430496
 30
0.0
 11
1891.24401894
 21
-444.83148958
 31
0.0
  0
LINE
  5
2B9
100
AcDbEntity
  8
Sc.1_5
 62
     9
  6
CONTINUOUS
370
    -2
100
AcDbLine
 10
1890.51120356
 20
-454.89760632
 30
0.0
 11
1891.24401894
 21
-454.16479095
 31
0.0
  0
LINE
  5
2BA
100
AcDbEntity
  8
Sc.1_5
 62
     9
  6
CONTINUOUS
370
    -2
100
AcDbLine
 10
1890.51120356
 20
-464.23090769
 30
0.0
 11
1891.24401894
 21
-463.49809231
 31
0.0
  0
LINE
  5
2BB
100
AcDbEntity
  8
Sc.1_5
 62
     9
  6
CONTINUOUS
370
    -2
100
AcDbLine
 10
1915.85676268
 20
-468.1647426
 30
0.0
 11
1914.95229295
 21
-467.56176279
 31
0.0
  0
LINE
  5
2BC
100
AcDbEntity
  8
Sc.1_5
 62
     9
  6
CONTINUOUS
370
    -2
100
AcDbLine
 10
1915.85676163
 20
-458.83144234
 30
0.0
 11
1914.95229189
 21
-458.22846252
 31
0.0
  0
LINE
  5
2BD
100
AcDbEntity
  8
Sc.1_5
 62
     9
  6
CONTINUOUS
370
    -2
100
AcDbLine
 10
1915.85676057
 20
-449.49814207
 30
0.0
 11
1914.95229084
 21
-448.89516225
 31
0.0
  0
LINE
  5
2BE
100
AcDbEntity
  8
Sc.1_5
 62
     9
  6
CONTINUOUS
370
    -2
100
AcDbLine
 10
1915.85675951
 20
-440.1648418
 30
0.0
 11
1914.95228978
 21
-439.56186199
 31
0.0
  0
LINE
  5
2BF
100
AcDbEntity
  8
Sc.1_5
 62
     9
  6
CONTINUOUS
370
    -2
100
AcDbLine
 10
1915.85675846
 20
-430.83154154
 30
0.0
 11
1914.95228872
 21
-430.22856172
 31
0.0
  0
LINE
  5
2C0
100
AcDbEntity
  8
Sc.1_5
 62
     9
  6
CONTINUOUS
370
    -2
100
AcDbLine
 10
1915.8567574
 20
-421.49824127
 30
0.0
 11
1914.95228767
 21
-420.89526145
 31
0.0
  0
LINE
  5
2C1
100
AcDbEntity
  8
Sc.1_5
 62
     9
  6
CONTINUOUS
370
    -2
100
AcDbLine
 10
1915.85675634
 20
-412.164941
 30
0.0
 11
1914.95228661
 21
-411.56196119
 31
0.0
  0
LINE
  5
2C2
100
AcDbEntity
  8
Sc.1_5
 62
     9
  6
CONTINUOUS
370
    -2
100
AcDbLine
 10
1915.85675529
 20
-402.83164074
 30
0.0
 11
1914.95228555
 21
-402.22866092
 31
0.0
  0
LINE
  5
2C3
100
AcDbEntity
  8
Sc.1_5
 62
     9
  6
CONTINUOUS
370
    -2
100
AcDbLine
 10
1915.85676436
 20
-466.08457561
 30
0.0
 11
1914.95229459
 21
-466.68755536
 31
0.0
  0
LINE
  5
2C4
100
AcDbEntity
  8
Sc.1_5
 62
     9
  6
CONTINUOUS
370
    -2
100
AcDbLine
 10
1915.85676604
 20
-456.75127534
 30
0.0
 11
1914.95229627
 21
-457.35425509
 31
0.0
  0
LINE
  5
2C5
100
AcDbEntity
  8
Sc.1_5
 62
     9
  6
CONTINUOUS
370
    -2
100
AcDbLine
 10
1915.85676772
 20
-447.41797507
 30
0.0
 11
1914.95229794
 21
-448.02095483
 31
0.0
  0
LINE
  5
2C6
100
AcDbEntity
  8
Sc.1_5
 62
     9
  6
CONTINUOUS
370
    -2
100
AcDbLine
 10
1915.85676939
 20
-438.08467481
 30
0.0
 11
1914.95229962
 21
-438.68765456
 31
0.0
  0
LINE
  5
2C7
100
AcDbEntity
  8
Sc.1_5
 62
     9
  6
CONTINUOUS
370
    -2
100
AcDbLine
 10
1915.85677107
 20
-428.75137454
 30
0.0
 11
1914.9523013
 21
-429.35435429
 31
0.0
  0
LINE
  5
2C8
100
AcDbEntity
  8
Sc.1_5
 62
     9
  6
CONTINUOUS
370
    -2
100
AcDbLine
 10
1915.85677275
 20
-419.41807427
 30
0.0
 11
1914.95230298
 21
-420.02105403
 31
0.0
  0
LINE
  5
2C9
100
AcDbEntity
  8
Sc.1_5
 62
     9
  6
CONTINUOUS
370
    -2
100
AcDbLine
 10
1915.85677443
 20
-410.08477401
 30
0.0
 11
1914.95230466
 21
-410.68775376
 31
0.0
  0
LINE
  5
2CA
100
AcDbEntity
  8
Sc.1_5
 62
     9
  6
CONTINUOUS
370
    -2
100
AcDbLine
 10
1915.85677611
 20
-400.75147374
 30
0.0
 11
1914.95230633
 21
-401.35445349
 31
0.0
  0
LINE
  5
2CB
100
AcDbEntity
  8
Sc.1_5
 62
     9
  6
CONTINUOUS
370
    -2
100
AcDbLine
 10
1892.14848749
 20
-471.35420559
 30
0.0
 11
1891.24401776
 21
-470.75122578
 31
0.0
  0
LINE
  5
2CC
100
AcDbEntity
  8
Sc.1_5
 62
     9
  6
CONTINUOUS
370
    -2
100
AcDbLine
 10
1892.14848643
 20
-462.02090533
 30
0.0
 11
1891.2440167
 21
-461.41792551
 31
0.0
  0
LINE
  5
2CD
100
AcDbEntity
  8
Sc.1_5
 62
     9
  6
CONTINUOUS
370
    -2
100
AcDbLine
 10
1892.14848537
 20
-452.68760506
 30
0.0
 11
1891.24401564
 21
-452.08462524
 31
0.0
  0
LINE
  5
2CE
100
AcDbEntity
  8
Sc.1_5
 62
     9
  6
CONTINUOUS
370
    -2
100
AcDbLine
 10
1892.14848432
 20
-443.35430479
 30
0.0
 11
1891.24401459
 21
-442.75132498
 31
0.0
  0
LINE
  5
2CF
100
AcDbEntity
  8
Sc.1_5
 62
     9
  6
CONTINUOUS
370
    -2
100
AcDbLine
 10
1892.14848326
 20
-434.02100453
 30
0.0
 11
1891.24401353
 21
-433.41802471
 31
0.0
  0
LINE
  5
2D0
100
AcDbEntity
  8
Sc.1_5
 62
     9
  6
CONTINUOUS
370
    -2
100
AcDbLine
 10
1892.1484822
 20
-424.68770426
 30
0.0
 11
1891.24401247
 21
-424.08472444
 31
0.0
  0
LINE
  5
2D1
100
AcDbEntity
  8
Sc.1_5
 62
     9
  6
CONTINUOUS
370
    -2
100
AcDbLine
 10
1892.14848115
 20
-415.35440399
 30
0.0
 11
1891.24401142
 21
-414.75142418
 31
0.0
  0
LINE
  5
2D2
100
AcDbEntity
  8
Sc.1_5
 62
     9
  6
CONTINUOUS
370
    -2
100
AcDbLine
 10
1892.14848009
 20
-406.02110373
 30
0.0
 11
1891.24401036
 21
-405.41812391
 31
0.0
  0
LINE
  5
2D3
100
AcDbEntity
  8
Sc.1_5
 62
     9
  6
CONTINUOUS
370
    -2
100
AcDbLine
 10
1892.14847904
 20
-396.68780346
 30
0.0
 11
1891.2440093
 21
-396.08482364
 31
0.0
  0
LINE
  5
2D4
100
AcDbEntity
  8
Sc.1_5
 62
     9
  6
CONTINUOUS
370
    -2
100
AcDbLine
 10
1891.24402349
 20
-398.16498995
 30
0.0
 11
1892.14849323
 21
-397.56201013
 31
0.0
  0
LINE
  5
2D5
100
AcDbEntity
  8
Sc.1_5
 62
     9
  6
CONTINUOUS
370
    -2
100
AcDbLine
 10
1891.24402244
 20
-407.49829021
 30
0.0
 11
1892.14849217
 21
-406.8953104
 31
0.0
  0
LINE
  5
2D6
100
AcDbEntity
  8
Sc.1_5
 62
     9
  6
CONTINUOUS
370
    -2
100
AcDbLine
 10
1891.24402138
 20
-416.83159048
 30
0.0
 11
1892.14849111
 21
-416.22861067
 31
0.0
  0
LINE
  5
2D7
100
AcDbEntity
  8
Sc.1_5
 62
     9
  6
CONTINUOUS
370
    -2
100
AcDbLine
 10
1891.24402032
 20
-426.16489075
 30
0.0
 11
1892.14849006
 21
-425.56191093
 31
0.0
  0
LINE
  5
2D8
100
AcDbEntity
  8
Sc.1_5
 62
     9
  6
CONTINUOUS
370
    -2
100
AcDbLine
 10
1891.24401927
 20
-435.49819102
 30
0.0
 11
1892.148489
 21
-434.8952112
 31
0.0
  0
LINE
  5
2D9
100
AcDbEntity
  8
Sc.1_5
 62
     9
  6
CONTINUOUS
370
    -2
100
AcDbLine
 10
1891.24401821
 20
-444.83149128
 30
0.0
 11
1892.14848794
 21
-444.22851147
 31
0.0
  0
LINE
  5
2DA
100
AcDbEntity
  8
Sc.1_5
 62
     9
  6
CONTINUOUS
370
    -2
100
AcDbLine
 10
1891.24401715
 20
-454.16479155
 30
0.0
 11
1892.14848689
 21
-453.56181173
 31
0.0
  0
LINE
  5
2DB
100
AcDbEntity
  8
Sc.1_5
 62
     9
  6
CONTINUOUS
370
    -2
100
AcDbLine
 10
1891.2440161
 20
-463.49809182
 30
0.0
 11
1892.14848583
 21
-462.895112
 31
0.0
  0
LINE
  5
2DC
100
AcDbEntity
  8
Sc.1_5
 62
     9
  6
CONTINUOUS
370
    -2
100
AcDbLine
 10
1914.95229313
 20
-467.56176201
 30
0.0
 11
1913.64098226
 21
-467.12465831
 31
0.0
  0
LINE
  5
2DD
100
AcDbEntity
  8
Sc.1_5
 62
     9
  6
CONTINUOUS
370
    -2
100
AcDbLine
 10
1914.95229266
 20
-458.22846108
 30
0.0
 11
1913.6409818
 21
-457.79135738
 31
0.0
  0
LINE
  5
2DE
100
AcDbEntity
  8
Sc.1_5
 62
     9
  6
CONTINUOUS
370
    -2
100
AcDbLine
 10
1914.95229219
 20
-448.89516015
 30
0.0
 11
1913.64098133
 21
-448.45805646
 31
0.0
  0
LINE
  5
2DF
100
AcDbEntity
  8
Sc.1_5
 62
     9
  6
CONTINUOUS
370
    -2
100
AcDbLine
 10
1914.95229172
 20
-439.56185922
 30
0.0
 11
1913.64098086
 21
-439.12475553
 31
0.0
  0
LINE
  5
2E0
100
AcDbEntity
  8
Sc.1_5
 62
     9
  6
CONTINUOUS
370
    -2
100
AcDbLine
 10
1914.95229126
 20
-430.22855829
 30
0.0
 11
1913.64098039
 21
-429.7914546
 31
0.0
  0
LINE
  5
2E1
100
AcDbEntity
  8
Sc.1_5
 62
     9
  6
CONTINUOUS
370
    -2
100
AcDbLine
 10
1914.95229079
 20
-420.89525736
 30
0.0
 11
1913.64097992
 21
-420.45815367
 31
0.0
  0
LINE
  5
2E2
100
AcDbEntity
  8
Sc.1_5
 62
     9
  6
CONTINUOUS
370
    -2
100
AcDbLine
 10
1914.95229032
 20
-411.56195643
 30
0.0
 11
1913.64097946
 21
-411.12485274
 31
0.0
  0
LINE
  5
2E3
100
AcDbEntity
  8
Sc.1_5
 62
     9
  6
CONTINUOUS
370
    -2
100
AcDbLine
 10
1914.95228985
 20
-402.22865551
 30
0.0
 11
1913.64097899
 21
-401.79155181
 31
0.0
  0
LINE
  5
2E4
100
AcDbEntity
  8
Sc.1_5
 62
     9
  6
CONTINUOUS
370
    -2
100
AcDbLine
 10
1914.9522936
 20
-466.68755554
 30
0.0
 11
1913.64098273
 21
-467.12465923
 31
0.0
  0
LINE
  5
2E5
100
AcDbEntity
  8
Sc.1_5
 62
     9
  6
CONTINUOUS
370
    -2
100
AcDbLine
 10
1914.95229406
 20
-457.35425461
 30
0.0
 11
1913.6409832
 21
-457.7913583
 31
0.0
  0
LINE
  5
2E6
100
AcDbEntity
  8
Sc.1_5
 62
     9
  6
CONTINUOUS
370
    -2
100
AcDbLine
 10
1914.95229453
 20
-448.02095368
 30
0.0
 11
1913.64098367
 21
-448.45805737
 31
0.0
  0
LINE
  5
2E7
100
AcDbEntity
  8
Sc.1_5
 62
     9
  6
CONTINUOUS
370
    -2
100
AcDbLine
 10
1914.952295
 20
-438.68765275
 30
0.0
 11
1913.64098414
 21
-439.12475645
 31
0.0
  0
LINE
  5
2E8
100
AcDbEntity
  8
Sc.1_5
 62
     9
  6
CONTINUOUS
370
    -2
100
AcDbLine
 10
1914.95229547
 20
-429.35435182
 30
0.0
 11
1913.6409846
 21
-429.79145552
 31
0.0
  0
LINE
  5
2E9
100
AcDbEntity
  8
Sc.1_5
 62
     9
  6
CONTINUOUS
370
    -2
100
AcDbLine
 10
1914.95229594
 20
-420.02105089
 30
0.0
 11
1913.64098507
 21
-420.45815459
 31
0.0
  0
LINE
  5
2EA
100
AcDbEntity
  8
Sc.1_5
 62
     9
  6
CONTINUOUS
370
    -2
100
AcDbLine
 10
1914.9522964
 20
-410.68774996
 30
0.0
 11
1913.64098554
 21
-411.12485366
 31
0.0
  0
LINE
  5
2EB
100
AcDbEntity
  8
Sc.1_5
 62
     9
  6
CONTINUOUS
370
    -2
100
AcDbLine
 10
1914.95229687
 20
-401.35444903
 30
0.0
 11
1913.64098601
 21
-401.79155273
 31
0.0
  0
LINE
  5
2EC
100
AcDbEntity
  8
Sc.1_5
 62
     9
  6
CONTINUOUS
370
    -2
100
AcDbLine
 10
1893.45979717
 20
-471.79130924
 30
0.0
 11
1892.1484863
 21
-471.35420554
 31
0.0
  0
LINE
  5
2ED
100
AcDbEntity
  8
Sc.1_5
 62
     9
  6
CONTINUOUS
370
    -2
100
AcDbLine
 10
1893.4597967
 20
-462.45800831
 30
0.0
 11
1892.14848584
 21
-462.02090461
 31
0.0
  0
LINE
  5
2EE
100
AcDbEntity
  8
Sc.1_5
 62
     9
  6
CONTINUOUS
370
    -2
100
AcDbLine
 10
1893.45979623
 20
-453.12470738
 30
0.0
 11
1892.14848537
 21
-452.68760368
 31
0.0
  0
LINE
  5
2EF
100
AcDbEntity
  8
Sc.1_5
 62
     9
  6
CONTINUOUS
370
    -2
100
AcDbLine
 10
1893.45979576
 20
-443.79140645
 30
0.0
 11
1892.1484849
 21
-443.35430275
 31
0.0
  0
LINE
  5
2F0
100
AcDbEntity
  8
Sc.1_5
 62
     9
  6
CONTINUOUS
370
    -2
100
AcDbLine
 10
1893.4597953
 20
-434.45810552
 30
0.0
 11
1892.14848443
 21
-434.02100182
 31
0.0
  0
LINE
  5
2F1
100
AcDbEntity
  8
Sc.1_5
 62
     9
  6
CONTINUOUS
370
    -2
100
AcDbLine
 10
1893.45979483
 20
-425.12480459
 30
0.0
 11
1892.14848396
 21
-424.68770089
 31
0.0
  0
LINE
  5
2F2
100
AcDbEntity
  8
Sc.1_5
 62
     9
  6
CONTINUOUS
370
    -2
100
AcDbLine
 10
1893.45979436
 20
-415.79150366
 30
0.0
 11
1892.1484835
 21
-415.35439997
 31
0.0
  0
LINE
  5
2F3
100
AcDbEntity
  8
Sc.1_5
 62
     9
  6
CONTINUOUS
370
    -2
100
AcDbLine
 10
1893.45979389
 20
-406.45820273
 30
0.0
 11
1892.14848303
 21
-406.02109904
 31
0.0
  0
LINE
  5
2F4
100
AcDbEntity
  8
Sc.1_5
 62
     9
  6
CONTINUOUS
370
    -2
100
AcDbLine
 10
1893.45979342
 20
-397.1249018
 30
0.0
 11
1892.14848256
 21
-396.68779811
 31
0.0
  0
LINE
  5
2F5
100
AcDbEntity
  8
Sc.1_5
 62
     9
  6
CONTINUOUS
370
    -2
100
AcDbLine
 10
1892.14849076
 20
-397.56200772
 30
0.0
 11
1893.45980163
 21
-397.12490402
 31
0.0
  0
LINE
  5
2F6
100
AcDbEntity
  8
Sc.1_5
 62
     9
  6
CONTINUOUS
370
    -2
100
AcDbLine
 10
1892.1484903
 20
-406.89530865
 30
0.0
 11
1893.45980116
 21
-406.45820495
 31
0.0
  0
LINE
  5
2F7
100
AcDbEntity
  8
Sc.1_5
 62
     9
  6
CONTINUOUS
370
    -2
100
AcDbLine
 10
1892.14848983
 20
-416.22860958
 30
0.0
 11
1893.45980069
 21
-415.79150588
 31
0.0
  0
LINE
  5
2F8
100
AcDbEntity
  8
Sc.1_5
 62
     9
  6
CONTINUOUS
370
    -2
100
AcDbLine
 10
1892.14848936
 20
-425.56191051
 30
0.0
 11
1893.45980022
 21
-425.12480681
 31
0.0
  0
LINE
  5
2F9
100
AcDbEntity
  8
Sc.1_5
 62
     9
  6
CONTINUOUS
370
    -2
100
AcDbLine
 10
1892.14848889
 20
-434.89521144
 30
0.0
 11
1893.45979976
 21
-434.45810774
 31
0.0
  0
LINE
  5
2FA
100
AcDbEntity
  8
Sc.1_5
 62
     9
  6
CONTINUOUS
370
    -2
100
AcDbLine
 10
1892.14848842
 20
-444.22851237
 30
0.0
 11
1893.45979929
 21
-443.79140867
 31
0.0
  0
LINE
  5
2FB
100
AcDbEntity
  8
Sc.1_5
 62
     9
  6
CONTINUOUS
370
    -2
100
AcDbLine
 10
1892.14848796
 20
-453.5618133
 30
0.0
 11
1893.45979882
 21
-453.1247096
 31
0.0
  0
LINE
  5
2FC
100
AcDbEntity
  8
Sc.1_5
 62
     9
  6
CONTINUOUS
370
    -2
100
AcDbLine
 10
1892.14848749
 20
-462.89511423
 30
0.0
 11
1893.45979835
 21
-462.45801053
 31
0.0
  0
LINE
  5
2FD
100
AcDbEntity
  8
Sc.1_5
 62
     9
  6
CONTINUOUS
370
    -2
100
AcDbLine
 10
1912.88367989
 20
-467.12465808
 30
0.0
 11
1911.88263066
 21
-467.01343034
 31
0.0
  0
LINE
  5
2FE
100
AcDbEntity
  8
Sc.1_5
 62
     9
  6
CONTINUOUS
370
    -2
100
AcDbLine
 10
1912.88366849
 20
-457.79135881
 30
0.0
 11
1911.88261925
 21
-457.68013107
 31
0.0
  0
LINE
  5
2FF
100
AcDbEntity
  8
Sc.1_5
 62
     9
  6
CONTINUOUS
370
    -2
100
AcDbLine
 10
1912.88365708
 20
-448.45805954
 30
0.0
 11
1911.88260785
 21
-448.34683179
 31
0.0
  0
LINE
  5
300
100
AcDbEntity
  8
Sc.1_5
 62
     9
  6
CONTINUOUS
370
    -2
100
AcDbLine
 10
1912.88364568
 20
-439.12476027
 30
0.0
 11
1911.88259644
 21
-439.01353252
 31
0.0
  0
LINE
  5
301
100
AcDbEntity
  8
Sc.1_5
 62
     9
  6
CONTINUOUS
370
    -2
100
AcDbLine
 10
1912.88363427
 20
-429.791461
 30
0.0
 11
1911.88258503
 21
-429.68023325
 31
0.0
  0
LINE
  5
302
100
AcDbEntity
  8
Sc.1_5
 62
     9
  6
CONTINUOUS
370
    -2
100
AcDbLine
 10
1912.88362286
 20
-420.45816172
 30
0.0
 11
1911.88257363
 21
-420.34693398
 31
0.0
  0
LINE
  5
303
100
AcDbEntity
  8
Sc.1_5
 62
     9
  6
CONTINUOUS
370
    -2
100
AcDbLine
 10
1912.88361146
 20
-411.12486245
 30
0.0
 11
1911.88256222
 21
-411.01363471
 31
0.0
  0
LINE
  5
304
100
AcDbEntity
  8
Sc.1_5
 62
     9
  6
CONTINUOUS
370
    -2
100
AcDbLine
 10
1912.88360005
 20
-401.79156318
 30
0.0
 11
1911.88255082
 21
-401.68033543
 31
0.0
  0
LINE
  5
305
100
AcDbEntity
  8
Sc.1_5
 62
     9
  6
CONTINUOUS
370
    -2
100
AcDbLine
 10
1912.8836913
 20
-467.12466112
 30
0.0
 11
1911.88264206
 21
-467.23588887
 31
0.0
  0
LINE
  5
306
100
AcDbEntity
  8
Sc.1_5
 62
     9
  6
CONTINUOUS
370
    -2
100
AcDbLine
 10
1912.88370271
 20
-457.79136185
 30
0.0
 11
1911.88265347
 21
-457.90258959
 31
0.0
  0
LINE
  5
307
100
AcDbEntity
  8
Sc.1_5
 62
     9
  6
CONTINUOUS
370
    -2
100
AcDbLine
 10
1912.88371411
 20
-448.45806258
 30
0.0
 11
1911.88266487
 21
-448.56929032
 31
0.0
  0
LINE
  5
308
100
AcDbEntity
  8
Sc.1_5
 62
     9
  6
CONTINUOUS
370
    -2
100
AcDbLine
 10
1912.88372552
 20
-439.1247633
 30
0.0
 11
1911.88267628
 21
-439.23599105
 31
0.0
  0
LINE
  5
309
100
AcDbEntity
  8
Sc.1_5
 62
     9
  6
CONTINUOUS
370
    -2
100
AcDbLine
 10
1912.88373692
 20
-429.79146403
 30
0.0
 11
1911.88268769
 21
-429.90269178
 31
0.0
  0
LINE
  5
30A
100
AcDbEntity
  8
Sc.1_5
 62
     9
  6
CONTINUOUS
370
    -2
100
AcDbLine
 10
1912.88374833
 20
-420.45816476
 30
0.0
 11
1911.88269909
 21
-420.56939251
 31
0.0
  0
LINE
  5
30B
100
AcDbEntity
  8
Sc.1_5
 62
     9
  6
CONTINUOUS
370
    -2
100
AcDbLine
 10
1912.88375974
 20
-411.12486549
 30
0.0
 11
1911.8827105
 21
-411.23609323
 31
0.0
  0
LINE
  5
30C
100
AcDbEntity
  8
Sc.1_5
 62
     9
  6
CONTINUOUS
370
    -2
100
AcDbLine
 10
1912.88377114
 20
-401.79156622
 30
0.0
 11
1911.8827219
 21
-401.90279396
 31
0.0
  0
LINE
  5
30D
100
AcDbEntity
  8
Sc.1_5
 62
     9
  6
CONTINUOUS
370
    -2
100
AcDbLine
 10
1894.21697969
 20
-397.12491506
 30
0.0
 11
1895.21802895
 21
-397.23614254
 31
0.0
  0
LINE
  5
30E
100
AcDbEntity
  8
Sc.1_5
 62
     9
  6
CONTINUOUS
370
    -2
100
AcDbLine
 10
1894.21699358
 20
-406.45821433
 30
0.0
 11
1895.21804284
 21
-406.56944181
 31
0.0
  0
LINE
  5
30F
100
AcDbEntity
  8
Sc.1_5
 62
     9
  6
CONTINUOUS
370
    -2
100
AcDbLine
 10
1894.21700747
 20
-415.79151361
 30
0.0
 11
1895.21805674
 21
-415.90274108
 31
0.0
  0
LINE
  5
310
100
AcDbEntity
  8
Sc.1_5
 62
     9
  6
CONTINUOUS
370
    -2
100
AcDbLine
 10
1894.21702136
 20
-425.12481288
 30
0.0
 11
1895.21807063
 21
-425.23604036
 31
0.0
  0
LINE
  5
311
100
AcDbEntity
  8
Sc.1_5
 62
     9
  6
CONTINUOUS
370
    -2
100
AcDbLine
 10
1894.21703525
 20
-434.45811215
 30
0.0
 11
1895.21808452
 21
-434.56933963
 31
0.0
  0
LINE
  5
312
100
AcDbEntity
  8
Sc.1_5
 62
     9
  6
CONTINUOUS
370
    -2
100
AcDbLine
 10
1894.21704914
 20
-443.79141142
 30
0.0
 11
1895.21809841
 21
-443.9026389
 31
0.0
  0
LINE
  5
313
100
AcDbEntity
  8
Sc.1_5
 62
     9
  6
CONTINUOUS
370
    -2
100
AcDbLine
 10
1894.21706304
 20
-453.12471069
 30
0.0
 11
1895.2181123
 21
-453.23593817
 31
0.0
  0
LINE
  5
314
100
AcDbEntity
  8
Sc.1_5
 62
     9
  6
CONTINUOUS
370
    -2
100
AcDbLine
 10
1894.21707693
 20
-462.45800997
 30
0.0
 11
1895.21812619
 21
-462.56923744
 31
0.0
  0
LINE
  5
315
100
AcDbEntity
  8
Sc.1_5
 62
     9
  6
CONTINUOUS
370
    -2
100
AcDbLine
 10
1894.21718207
 20
-397.12491506
 30
0.0
 11
1895.2182313
 21
-397.01368732
 31
0.0
  0
LINE
  5
316
100
AcDbEntity
  8
Sc.1_5
 62
     9
  6
CONTINUOUS
370
    -2
100
AcDbLine
 10
1894.21717066
 20
-406.45821433
 30
0.0
 11
1895.2182199
 21
-406.34698659
 31
0.0
  0
LINE
  5
317
100
AcDbEntity
  8
Sc.1_5
 62
     9
  6
CONTINUOUS
370
    -2
100
AcDbLine
 10
1894.21715925
 20
-415.79151361
 30
0.0
 11
1895.21820849
 21
-415.68028586
 31
0.0
  0
LINE
  5
318
100
AcDbEntity
  8
Sc.1_5
 62
     9
  6
CONTINUOUS
370
    -2
100
AcDbLine
 10
1894.21714785
 20
-425.12481288
 30
0.0
 11
1895.21819708
 21
-425.01358513
 31
0.0
  0
LINE
  5
319
100
AcDbEntity
  8
Sc.1_5
 62
     9
  6
CONTINUOUS
370
    -2
100
AcDbLine
 10
1894.21713644
 20
-434.45811215
 30
0.0
 11
1895.21818568
 21
-434.3468844
 31
0.0
  0
LINE
  5
31A
100
AcDbEntity
  8
Sc.1_5
 62
     9
  6
CONTINUOUS
370
    -2
100
AcDbLine
 10
1894.21712504
 20
-443.79141142
 30
0.0
 11
1895.21817427
 21
-443.68018368
 31
0.0
  0
LINE
  5
31B
100
AcDbEntity
  8
Sc.1_5
 62
     9
  6
CONTINUOUS
370
    -2
100
AcDbLine
 10
1894.21711363
 20
-453.12471069
 30
0.0
 11
1895.21816287
 21
-453.01348295
 31
0.0
  0
LINE
  5
31C
100
AcDbEntity
  8
Sc.1_5
 62
     9
  6
CONTINUOUS
370
    -2
100
AcDbLine
 10
1894.21710222
 20
-462.45800997
 30
0.0
 11
1895.21815146
 21
-462.34678222
 31
0.0
  0
LINE
  5
31D
100
AcDbEntity
  8
Sc.1_5
 62
     9
  6
CONTINUOUS
370
    -2
100
AcDbLine
 10
1894.21709082
 20
-471.79130924
 30
0.0
 11
1895.21814005
 21
-471.68008149
 31
0.0
  0
ENDBLK
  5
31E
100
AcDbEntity
100
AcDbBlockEnd
  0
BLOCK
  5
31F
100
AcDbEntity
  8
Sc.1_5
100
AcDbBlockBegin
  2
*X1851
 70
     1
 10
0.0
 20
0.0
 30
0.0
  3
*X1851
  1

  4
Cadwork hatch
  0
LINE
  5
320
100
AcDbEntity
  8
Sc.1_5
 62
     9
  6
CONTINUOUS
370
    -2
100
AcDbLine
 10
2000.73176751
 20
-505.29122143
 30
0.0
 11
2000.94018279
 21
-505.29122149
 31
0.0
  0
LINE
  5
321
100
AcDbEntity
  8
Sc.1_5
 62
     9
  6
CONTINUOUS
370
    -2
100
AcDbLine
 10
2002.16045515
 20
-505.29122188
 30
0.0
 11
2002.60684891
 21
-505.29122202
 31
0.0
  0
LINE
  5
322
100
AcDbEntity
  8
Sc.1_5
 62
     9
  6
CONTINUOUS
370
    -2
100
AcDbLine
 10
2003.82712127
 20
-505.2912224
 30
0.0
 11
2004.27351503
 21
-505.29122254
 31
0.0
  0
LINE
  5
323
100
AcDbEntity
  8
Sc.1_5
 62
     9
  6
CONTINUOUS
370
    -2
100
AcDbLine
 10
1935.71700449
 20
-513.89499145
 30
0.0
 11
1935.71700458
 21
-513.62452861
 31
0.0
  0
LINE
  5
324
100
AcDbEntity
  8
Sc.1_5
 62
     9
  6
CONTINUOUS
370
    -2
100
AcDbLine
 10
1939.05033572
 20
-513.8949925
 30
0.0
 11
1939.05033581
 21
-513.62452965
 31
0.0
  0
LINE
  5
325
100
AcDbEntity
  8
Sc.1_5
 62
     9
  6
CONTINUOUS
370
    -2
100
AcDbLine
 10
1942.38366695
 20
-513.89499354
 30
0.0
 11
1942.38366703
 21
-513.6245307
 31
0.0
  0
LINE
  5
326
100
AcDbEntity
  8
Sc.1_5
 62
     9
  6
CONTINUOUS
370
    -2
100
AcDbLine
 10
1945.71699818
 20
-513.89499459
 30
0.0
 11
1945.71699826
 21
-513.62453174
 31
0.0
  0
LINE
  5
327
100
AcDbEntity
  8
Sc.1_5
 62
     9
  6
CONTINUOUS
370
    -2
100
AcDbLine
 10
1949.0503294
 20
-513.89499563
 30
0.0
 11
1949.05032949
 21
-513.62453279
 31
0.0
  0
LINE
  5
328
100
AcDbEntity
  8
Sc.1_5
 62
     9
  6
CONTINUOUS
370
    -2
100
AcDbLine
 10
1952.38366063
 20
-513.89499667
 30
0.0
 11
1952.38366071
 21
-513.62453383
 31
0.0
  0
LINE
  5
329
100
AcDbEntity
  8
Sc.1_5
 62
     9
  6
CONTINUOUS
370
    -2
100
AcDbLine
 10
1955.71699186
 20
-513.89499772
 30
0.0
 11
1955.71699194
 21
-513.62453487
 31
0.0
  0
LINE
  5
32A
100
AcDbEntity
  8
Sc.1_5
 62
     9
  6
CONTINUOUS
370
    -2
100
AcDbLine
 10
1959.05032308
 20
-513.89499876
 30
0.0
 11
1959.05032317
 21
-513.62453592
 31
0.0
  0
LINE
  5
32B
100
AcDbEntity
  8
Sc.1_5
 62
     9
  6
CONTINUOUS
370
    -2
100
AcDbLine
 10
1962.38365431
 20
-513.89499981
 30
0.0
 11
1962.3836544
 21
-513.62453696
 31
0.0
  0
LINE
  5
32C
100
AcDbEntity
  8
Sc.1_5
 62
     9
  6
CONTINUOUS
370
    -2
100
AcDbLine
 10
1965.71698554
 20
-513.89500085
 30
0.0
 11
1965.71698562
 21
-513.62453801
 31
0.0
  0
LINE
  5
32D
100
AcDbEntity
  8
Sc.1_5
 62
     9
  6
CONTINUOUS
370
    -2
100
AcDbLine
 10
1969.05031677
 20
-513.89500189
 30
0.0
 11
1969.05031685
 21
-513.62453905
 31
0.0
  0
LINE
  5
32E
100
AcDbEntity
  8
Sc.1_5
 62
     9
  6
CONTINUOUS
370
    -2
100
AcDbLine
 10
1972.38364799
 20
-513.89500294
 30
0.0
 11
1972.38364808
 21
-513.62454009
 31
0.0
  0
LINE
  5
32F
100
AcDbEntity
  8
Sc.1_5
 62
     9
  6
CONTINUOUS
370
    -2
100
AcDbLine
 10
1975.71697922
 20
-513.89500398
 30
0.0
 11
1975.71697931
 21
-513.62454114
 31
0.0
  0
LINE
  5
330
100
AcDbEntity
  8
Sc.1_5
 62
     9
  6
CONTINUOUS
370
    -2
100
AcDbLine
 10
1979.05031045
 20
-513.89500503
 30
0.0
 11
1979.05031053
 21
-513.62454218
 31
0.0
  0
LINE
  5
331
100
AcDbEntity
  8
Sc.1_5
 62
     9
  6
CONTINUOUS
370
    -2
100
AcDbLine
 10
1982.38364168
 20
-513.89500607
 30
0.0
 11
1982.38364176
 21
-513.62454323
 31
0.0
  0
LINE
  5
332
100
AcDbEntity
  8
Sc.1_5
 62
     9
  6
CONTINUOUS
370
    -2
100
AcDbLine
 10
1985.7169729
 20
-513.89500712
 30
0.0
 11
1985.71697299
 21
-513.62454427
 31
0.0
  0
LINE
  5
333
100
AcDbEntity
  8
Sc.1_5
 62
     9
  6
CONTINUOUS
370
    -2
100
AcDbLine
 10
1989.05030413
 20
-513.89500816
 30
0.0
 11
1989.05030421
 21
-513.62454531
 31
0.0
  0
LINE
  5
334
100
AcDbEntity
  8
Sc.1_5
 62
     9
  6
CONTINUOUS
370
    -2
100
AcDbLine
 10
1992.38363536
 20
-513.8950092
 30
0.0
 11
1992.38363544
 21
-513.62454636
 31
0.0
  0
LINE
  5
335
100
AcDbEntity
  8
Sc.1_5
 62
     9
  6
CONTINUOUS
370
    -2
100
AcDbLine
 10
1995.71696658
 20
-513.89501025
 30
0.0
 11
1995.71696667
 21
-513.6245474
 31
0.0
  0
LINE
  5
336
100
AcDbEntity
  8
Sc.1_5
 62
     9
  6
CONTINUOUS
370
    -2
100
AcDbLine
 10
1999.05029781
 20
-513.89501129
 30
0.0
 11
1999.0502979
 21
-513.62454845
 31
0.0
  0
LINE
  5
337
100
AcDbEntity
  8
Sc.1_5
 62
     9
  6
CONTINUOUS
370
    -2
100
AcDbLine
 10
2002.38362904
 20
-513.89501234
 30
0.0
 11
2002.38362912
 21
-513.62454949
 31
0.0
  0
LINE
  5
338
100
AcDbEntity
  8
Sc.1_5
 62
     9
  6
CONTINUOUS
370
    -2
100
AcDbLine
 10
1934.05034158
 20
-506.95786563
 30
0.0
 11
1934.05034166
 21
-506.68740279
 31
0.0
  0
LINE
  5
339
100
AcDbEntity
  8
Sc.1_5
 62
     9
  6
CONTINUOUS
370
    -2
100
AcDbLine
 10
1937.3836728
 20
-506.95786668
 30
0.0
 11
1937.38367289
 21
-506.68740383
 31
0.0
  0
LINE
  5
33A
100
AcDbEntity
  8
Sc.1_5
 62
     9
  6
CONTINUOUS
370
    -2
100
AcDbLine
 10
1940.71700403
 20
-506.95786772
 30
0.0
 11
1940.71700412
 21
-506.68740488
 31
0.0
  0
LINE
  5
33B
100
AcDbEntity
  8
Sc.1_5
 62
     9
  6
CONTINUOUS
370
    -2
100
AcDbLine
 10
1944.05033526
 20
-506.95786876
 30
0.0
 11
1944.05033534
 21
-506.68740592
 31
0.0
  0
LINE
  5
33C
100
AcDbEntity
  8
Sc.1_5
 62
     9
  6
CONTINUOUS
370
    -2
100
AcDbLine
 10
1947.38366648
 20
-506.95786981
 30
0.0
 11
1947.38366657
 21
-506.68740696
 31
0.0
  0
LINE
  5
33D
100
AcDbEntity
  8
Sc.1_5
 62
     9
  6
CONTINUOUS
370
    -2
100
AcDbLine
 10
1950.71699771
 20
-506.95787085
 30
0.0
 11
1950.7169978
 21
-506.68740801
 31
0.0
  0
LINE
  5
33E
100
AcDbEntity
  8
Sc.1_5
 62
     9
  6
CONTINUOUS
370
    -2
100
AcDbLine
 10
1954.05032894
 20
-506.9578719
 30
0.0
 11
1954.05032902
 21
-506.68740905
 31
0.0
  0
LINE
  5
33F
100
AcDbEntity
  8
Sc.1_5
 62
     9
  6
CONTINUOUS
370
    -2
100
AcDbLine
 10
1957.38366017
 20
-506.95787294
 30
0.0
 11
1957.38366025
 21
-506.6874101
 31
0.0
  0
LINE
  5
340
100
AcDbEntity
  8
Sc.1_5
 62
     9
  6
CONTINUOUS
370
    -2
100
AcDbLine
 10
1960.71699139
 20
-506.95787399
 30
0.0
 11
1960.71699148
 21
-506.68741114
 31
0.0
  0
LINE
  5
341
100
AcDbEntity
  8
Sc.1_5
 62
     9
  6
CONTINUOUS
370
    -2
100
AcDbLine
 10
1964.05032262
 20
-506.95787503
 30
0.0
 11
1964.05032271
 21
-506.68741218
 31
0.0
  0
LINE
  5
342
100
AcDbEntity
  8
Sc.1_5
 62
     9
  6
CONTINUOUS
370
    -2
100
AcDbLine
 10
1967.38365385
 20
-506.95787607
 30
0.0
 11
1967.38365393
 21
-506.68741323
 31
0.0
  0
LINE
  5
343
100
AcDbEntity
  8
Sc.1_5
 62
     9
  6
CONTINUOUS
370
    -2
100
AcDbLine
 10
1970.71698508
 20
-506.95787712
 30
0.0
 11
1970.71698516
 21
-506.68741427
 31
0.0
  0
LINE
  5
344
100
AcDbEntity
  8
Sc.1_5
 62
     9
  6
CONTINUOUS
370
    -2
100
AcDbLine
 10
1974.0503163
 20
-506.95787816
 30
0.0
 11
1974.05031639
 21
-506.68741532
 31
0.0
  0
LINE
  5
345
100
AcDbEntity
  8
Sc.1_5
 62
     9
  6
CONTINUOUS
370
    -2
100
AcDbLine
 10
1977.38364753
 20
-506.95787921
 30
0.0
 11
1977.38364762
 21
-506.68741636
 31
0.0
  0
LINE
  5
346
100
AcDbEntity
  8
Sc.1_5
 62
     9
  6
CONTINUOUS
370
    -2
100
AcDbLine
 10
1980.71697876
 20
-506.95788025
 30
0.0
 11
1980.71697884
 21
-506.68741741
 31
0.0
  0
LINE
  5
347
100
AcDbEntity
  8
Sc.1_5
 62
     9
  6
CONTINUOUS
370
    -2
100
AcDbLine
 10
1984.05030999
 20
-506.95788129
 30
0.0
 11
1984.05031007
 21
-506.68741845
 31
0.0
  0
LINE
  5
348
100
AcDbEntity
  8
Sc.1_5
 62
     9
  6
CONTINUOUS
370
    -2
100
AcDbLine
 10
1987.38364121
 20
-506.95788234
 30
0.0
 11
1987.3836413
 21
-506.68741949
 31
0.0
  0
LINE
  5
349
100
AcDbEntity
  8
Sc.1_5
 62
     9
  6
CONTINUOUS
370
    -2
100
AcDbLine
 10
1990.71697244
 20
-506.95788338
 30
0.0
 11
1990.71697252
 21
-506.68742054
 31
0.0
  0
LINE
  5
34A
100
AcDbEntity
  8
Sc.1_5
 62
     9
  6
CONTINUOUS
370
    -2
100
AcDbLine
 10
1994.05030367
 20
-506.95788443
 30
0.0
 11
1994.05030375
 21
-506.68742158
 31
0.0
  0
LINE
  5
34B
100
AcDbEntity
  8
Sc.1_5
 62
     9
  6
CONTINUOUS
370
    -2
100
AcDbLine
 10
1997.38363489
 20
-506.95788547
 30
0.0
 11
1997.38363498
 21
-506.68742263
 31
0.0
  0
LINE
  5
34C
100
AcDbEntity
  8
Sc.1_5
 62
     9
  6
CONTINUOUS
370
    -2
100
AcDbLine
 10
2000.71696612
 20
-506.95788651
 30
0.0
 11
2000.71696621
 21
-506.68742367
 31
0.0
  0
LINE
  5
34D
100
AcDbEntity
  8
Sc.1_5
 62
     9
  6
CONTINUOUS
370
    -2
100
AcDbLine
 10
2004.05029735
 20
-506.95788756
 30
0.0
 11
2004.05029743
 21
-506.68742471
 31
0.0
  0
LINE
  5
34E
100
AcDbEntity
  8
Sc.1_5
 62
     9
  6
CONTINUOUS
370
    -2
100
AcDbLine
 10
1935.67727977
 20
-513.26701083
 30
0.0
 11
1934.0900648
 21
-507.31538424
 31
0.0
  0
LINE
  5
34F
100
AcDbEntity
  8
Sc.1_5
 62
     9
  6
CONTINUOUS
370
    -2
100
AcDbLine
 10
1939.01061031
 20
-513.26701759
 30
0.0
 11
1937.42339535
 21
-507.315391
 31
0.0
  0
LINE
  5
350
100
AcDbEntity
  8
Sc.1_5
 62
     9
  6
CONTINUOUS
370
    -2
100
AcDbLine
 10
1942.34394086
 20
-513.26702435
 30
0.0
 11
1940.7567259
 21
-507.31539776
 31
0.0
  0
LINE
  5
351
100
AcDbEntity
  8
Sc.1_5
 62
     9
  6
CONTINUOUS
370
    -2
100
AcDbLine
 10
1945.67727141
 20
-513.26703111
 30
0.0
 11
1944.09005645
 21
-507.31540452
 31
0.0
  0
LINE
  5
352
100
AcDbEntity
  8
Sc.1_5
 62
     9
  6
CONTINUOUS
370
    -2
100
AcDbLine
 10
1949.01060196
 20
-513.26703787
 30
0.0
 11
1947.42338699
 21
-507.31541128
 31
0.0
  0
LINE
  5
353
100
AcDbEntity
  8
Sc.1_5
 62
     9
  6
CONTINUOUS
370
    -2
100
AcDbLine
 10
1952.34393251
 20
-513.26704464
 30
0.0
 11
1950.75671754
 21
-507.31541804
 31
0.0
  0
LINE
  5
354
100
AcDbEntity
  8
Sc.1_5
 62
     9
  6
CONTINUOUS
370
    -2
100
AcDbLine
 10
1955.67726306
 20
-513.2670514
 30
0.0
 11
1954.09004809
 21
-507.3154248
 31
0.0
  0
LINE
  5
355
100
AcDbEntity
  8
Sc.1_5
 62
     9
  6
CONTINUOUS
370
    -2
100
AcDbLine
 10
1959.01059361
 20
-513.26705816
 30
0.0
 11
1957.42337864
 21
-507.31543156
 31
0.0
  0
LINE
  5
356
100
AcDbEntity
  8
Sc.1_5
 62
     9
  6
CONTINUOUS
370
    -2
100
AcDbLine
 10
1962.34392416
 20
-513.26706492
 30
0.0
 11
1960.75670919
 21
-507.31543833
 31
0.0
  0
LINE
  5
357
100
AcDbEntity
  8
Sc.1_5
 62
     9
  6
CONTINUOUS
370
    -2
100
AcDbLine
 10
1965.67725471
 20
-513.26707168
 30
0.0
 11
1964.09003974
 21
-507.31544509
 31
0.0
  0
LINE
  5
358
100
AcDbEntity
  8
Sc.1_5
 62
     9
  6
CONTINUOUS
370
    -2
100
AcDbLine
 10
1969.01058525
 20
-513.26707844
 30
0.0
 11
1967.42337029
 21
-507.31545185
 31
0.0
  0
LINE
  5
359
100
AcDbEntity
  8
Sc.1_5
 62
     9
  6
CONTINUOUS
370
    -2
100
AcDbLine
 10
1972.3439158
 20
-513.2670852
 30
0.0
 11
1970.75670084
 21
-507.31545861
 31
0.0
  0
LINE
  5
35A
100
AcDbEntity
  8
Sc.1_5
 62
     9
  6
CONTINUOUS
370
    -2
100
AcDbLine
 10
1975.67724635
 20
-513.26709196
 30
0.0
 11
1974.09003138
 21
-507.31546537
 31
0.0
  0
LINE
  5
35B
100
AcDbEntity
  8
Sc.1_5
 62
     9
  6
CONTINUOUS
370
    -2
100
AcDbLine
 10
1979.0105769
 20
-513.26709872
 30
0.0
 11
1977.42336193
 21
-507.31547213
 31
0.0
  0
LINE
  5
35C
100
AcDbEntity
  8
Sc.1_5
 62
     9
  6
CONTINUOUS
370
    -2
100
AcDbLine
 10
1982.34390745
 20
-513.26710548
 30
0.0
 11
1980.75669248
 21
-507.31547889
 31
0.0
  0
LINE
  5
35D
100
AcDbEntity
  8
Sc.1_5
 62
     9
  6
CONTINUOUS
370
    -2
100
AcDbLine
 10
1985.677238
 20
-513.26711224
 30
0.0
 11
1984.09002303
 21
-507.31548565
 31
0.0
  0
LINE
  5
35E
100
AcDbEntity
  8
Sc.1_5
 62
     9
  6
CONTINUOUS
370
    -2
100
AcDbLine
 10
1989.01056855
 20
-513.267119
 30
0.0
 11
1987.42335358
 21
-507.31549241
 31
0.0
  0
LINE
  5
35F
100
AcDbEntity
  8
Sc.1_5
 62
     9
  6
CONTINUOUS
370
    -2
100
AcDbLine
 10
1992.3438991
 20
-513.26712577
 30
0.0
 11
1990.75668413
 21
-507.31549917
 31
0.0
  0
LINE
  5
360
100
AcDbEntity
  8
Sc.1_5
 62
     9
  6
CONTINUOUS
370
    -2
100
AcDbLine
 10
1995.67722964
 20
-513.26713253
 30
0.0
 11
1994.09001468
 21
-507.31550593
 31
0.0
  0
LINE
  5
361
100
AcDbEntity
  8
Sc.1_5
 62
     9
  6
CONTINUOUS
370
    -2
100
AcDbLine
 10
1999.01056019
 20
-513.26713929
 30
0.0
 11
1997.42334523
 21
-507.31551269
 31
0.0
  0
LINE
  5
362
100
AcDbEntity
  8
Sc.1_5
 62
     9
  6
CONTINUOUS
370
    -2
100
AcDbLine
 10
2002.34389074
 20
-513.26714605
 30
0.0
 11
2000.75667578
 21
-507.31551946
 31
0.0
  0
LINE
  5
363
100
AcDbEntity
  8
Sc.1_5
 62
     9
  6
CONTINUOUS
370
    -2
100
AcDbLine
 10
2004.55033801
 20
-509.04164547
 30
0.0
 11
2004.09000632
 21
-507.31552622
 31
0.0
  0
LINE
  5
364
100
AcDbEntity
  8
Sc.1_5
 62
     9
  6
CONTINUOUS
370
    -2
100
AcDbLine
 10
1935.75672866
 20
-513.26701086
 30
0.0
 11
1937.34394736
 21
-507.31538526
 31
0.0
  0
LINE
  5
365
100
AcDbEntity
  8
Sc.1_5
 62
     9
  6
CONTINUOUS
370
    -2
100
AcDbLine
 10
1939.09005921
 20
-513.26700618
 30
0.0
 11
1940.67727791
 21
-507.31538058
 31
0.0
  0
LINE
  5
366
100
AcDbEntity
  8
Sc.1_5
 62
     9
  6
CONTINUOUS
370
    -2
100
AcDbLine
 10
1942.42338976
 20
-513.26700151
 30
0.0
 11
1944.01060845
 21
-507.31537591
 31
0.0
  0
LINE
  5
367
100
AcDbEntity
  8
Sc.1_5
 62
     9
  6
CONTINUOUS
370
    -2
100
AcDbLine
 10
1945.75672031
 20
-513.26699684
 30
0.0
 11
1947.343939
 21
-507.31537124
 31
0.0
  0
LINE
  5
368
100
AcDbEntity
  8
Sc.1_5
 62
     9
  6
CONTINUOUS
370
    -2
100
AcDbLine
 10
1949.09005086
 20
-513.26699217
 30
0.0
 11
1950.67726955
 21
-507.31536657
 31
0.0
  0
LINE
  5
369
100
AcDbEntity
  8
Sc.1_5
 62
     9
  6
CONTINUOUS
370
    -2
100
AcDbLine
 10
1952.42338141
 20
-513.26698749
 30
0.0
 11
1954.0106001
 21
-507.31536189
 31
0.0
  0
LINE
  5
36A
100
AcDbEntity
  8
Sc.1_5
 62
     9
  6
CONTINUOUS
370
    -2
100
AcDbLine
 10
1955.75671195
 20
-513.26698282
 30
0.0
 11
1957.34393065
 21
-507.31535722
 31
0.0
  0
LINE
  5
36B
100
AcDbEntity
  8
Sc.1_5
 62
     9
  6
CONTINUOUS
370
    -2
100
AcDbLine
 10
1959.0900425
 20
-513.26697815
 30
0.0
 11
1960.6772612
 21
-507.31535255
 31
0.0
  0
LINE
  5
36C
100
AcDbEntity
  8
Sc.1_5
 62
     9
  6
CONTINUOUS
370
    -2
100
AcDbLine
 10
1962.42337305
 20
-513.26697347
 30
0.0
 11
1964.01059175
 21
-507.31534788
 31
0.0
  0
LINE
  5
36D
100
AcDbEntity
  8
Sc.1_5
 62
     9
  6
CONTINUOUS
370
    -2
100
AcDbLine
 10
1965.7567036
 20
-513.2669688
 30
0.0
 11
1967.3439223
 21
-507.3153432
 31
0.0
  0
LINE
  5
36E
100
AcDbEntity
  8
Sc.1_5
 62
     9
  6
CONTINUOUS
370
    -2
100
AcDbLine
 10
1969.09003415
 20
-513.26696413
 30
0.0
 11
1970.67725284
 21
-507.31533853
 31
0.0
  0
LINE
  5
36F
100
AcDbEntity
  8
Sc.1_5
 62
     9
  6
CONTINUOUS
370
    -2
100
AcDbLine
 10
1972.4233647
 20
-513.26695946
 30
0.0
 11
1974.01058339
 21
-507.31533386
 31
0.0
  0
LINE
  5
370
100
AcDbEntity
  8
Sc.1_5
 62
     9
  6
CONTINUOUS
370
    -2
100
AcDbLine
 10
1975.75669525
 20
-513.26695478
 30
0.0
 11
1977.34391394
 21
-507.31532919
 31
0.0
  0
LINE
  5
371
100
AcDbEntity
  8
Sc.1_5
 62
     9
  6
CONTINUOUS
370
    -2
100
AcDbLine
 10
1979.0900258
 20
-513.26695011
 30
0.0
 11
1980.67724449
 21
-507.31532451
 31
0.0
  0
LINE
  5
372
100
AcDbEntity
  8
Sc.1_5
 62
     9
  6
CONTINUOUS
370
    -2
100
AcDbLine
 10
1982.42335635
 20
-513.26694544
 30
0.0
 11
1984.01057504
 21
-507.31531984
 31
0.0
  0
LINE
  5
373
100
AcDbEntity
  8
Sc.1_5
 62
     9
  6
CONTINUOUS
370
    -2
100
AcDbLine
 10
1985.75668689
 20
-513.26694077
 30
0.0
 11
1987.34390559
 21
-507.31531517
 31
0.0
  0
LINE
  5
374
100
AcDbEntity
  8
Sc.1_5
 62
     9
  6
CONTINUOUS
370
    -2
100
AcDbLine
 10
1989.09001744
 20
-513.26693609
 30
0.0
 11
1990.67723614
 21
-507.3153105
 31
0.0
  0
LINE
  5
375
100
AcDbEntity
  8
Sc.1_5
 62
     9
  6
CONTINUOUS
370
    -2
100
AcDbLine
 10
1992.42334799
 20
-513.26693142
 30
0.0
 11
1994.01056669
 21
-507.31530582
 31
0.0
  0
LINE
  5
376
100
AcDbEntity
  8
Sc.1_5
 62
     9
  6
CONTINUOUS
370
    -2
100
AcDbLine
 10
1995.75667854
 20
-513.26692675
 30
0.0
 11
1997.34389724
 21
-507.31530115
 31
0.0
  0
LINE
  5
377
100
AcDbEntity
  8
Sc.1_5
 62
     9
  6
CONTINUOUS
370
    -2
100
AcDbLine
 10
1999.09000909
 20
-513.26692208
 30
0.0
 11
2000.67722778
 21
-507.31529648
 31
0.0
  0
LINE
  5
378
100
AcDbEntity
  8
Sc.1_5
 62
     9
  6
CONTINUOUS
370
    -2
100
AcDbLine
 10
2002.42333964
 20
-513.2669174
 30
0.0
 11
2004.01055833
 21
-507.3152918
 31
0.0
  0
LINE
  5
379
100
AcDbEntity
  8
Sc.1_5
 62
     9
  6
CONTINUOUS
370
    -2
100
AcDbLine
 10
1934.27353484
 20
-515.29119425
 30
0.0
 11
1934.7106122
 21
-515.17199147
 31
0.0
  0
LINE
  5
37A
100
AcDbEntity
  8
Sc.1_5
 62
     9
  6
CONTINUOUS
370
    -2
100
AcDbLine
 10
1937.60686629
 20
-515.29119529
 30
0.0
 11
1938.04394332
 21
-515.17199261
 31
0.0
  0
LINE
  5
37B
100
AcDbEntity
  8
Sc.1_5
 62
     9
  6
CONTINUOUS
370
    -2
100
AcDbLine
 10
1940.94019774
 20
-515.29119634
 30
0.0
 11
1941.37727444
 21
-515.17199374
 31
0.0
  0
LINE
  5
37C
100
AcDbEntity
  8
Sc.1_5
 62
     9
  6
CONTINUOUS
370
    -2
100
AcDbLine
 10
1944.27352919
 20
-515.29119738
 30
0.0
 11
1944.71060557
 21
-515.17199487
 31
0.0
  0
LINE
  5
37D
100
AcDbEntity
  8
Sc.1_5
 62
     9
  6
CONTINUOUS
370
    -2
100
AcDbLine
 10
1947.60686065
 20
-515.29119842
 30
0.0
 11
1948.04393669
 21
-515.17199601
 31
0.0
  0
LINE
  5
37E
100
AcDbEntity
  8
Sc.1_5
 62
     9
  6
CONTINUOUS
370
    -2
100
AcDbLine
 10
1950.9401921
 20
-515.29119947
 30
0.0
 11
1951.37726781
 21
-515.17199714
 31
0.0
  0
LINE
  5
37F
100
AcDbEntity
  8
Sc.1_5
 62
     9
  6
CONTINUOUS
370
    -2
100
AcDbLine
 10
1954.27352355
 20
-515.29120051
 30
0.0
 11
1954.71059894
 21
-515.17199828
 31
0.0
  0
LINE
  5
380
100
AcDbEntity
  8
Sc.1_5
 62
     9
  6
CONTINUOUS
370
    -2
100
AcDbLine
 10
1957.606855
 20
-515.29120156
 30
0.0
 11
1958.04393006
 21
-515.17199941
 31
0.0
  0
LINE
  5
381
100
AcDbEntity
  8
Sc.1_5
 62
     9
  6
CONTINUOUS
370
    -2
100
AcDbLine
 10
1960.94018645
 20
-515.2912026
 30
0.0
 11
1961.37726118
 21
-515.17200054
 31
0.0
  0
LINE
  5
382
100
AcDbEntity
  8
Sc.1_5
 62
     9
  6
CONTINUOUS
370
    -2
100
AcDbLine
 10
1964.2735179
 20
-515.29120364
 30
0.0
 11
1964.7105923
 21
-515.17200168
 31
0.0
  0
LINE
  5
383
100
AcDbEntity
  8
Sc.1_5
 62
     9
  6
CONTINUOUS
370
    -2
100
AcDbLine
 10
1967.60684935
 20
-515.29120469
 30
0.0
 11
1968.04392343
 21
-515.17200281
 31
0.0
  0
LINE
  5
384
100
AcDbEntity
  8
Sc.1_5
 62
     9
  6
CONTINUOUS
370
    -2
100
AcDbLine
 10
1970.9401808
 20
-515.29120573
 30
0.0
 11
1971.37725455
 21
-515.17200394
 31
0.0
  0
LINE
  5
385
100
AcDbEntity
  8
Sc.1_5
 62
     9
  6
CONTINUOUS
370
    -2
100
AcDbLine
 10
1974.27351225
 20
-515.29120678
 30
0.0
 11
1974.71058567
 21
-515.17200508
 31
0.0
  0
LINE
  5
386
100
AcDbEntity
  8
Sc.1_5
 62
     9
  6
CONTINUOUS
370
    -2
100
AcDbLine
 10
1977.6068437
 20
-515.29120782
 30
0.0
 11
1978.04391679
 21
-515.17200621
 31
0.0
  0
LINE
  5
387
100
AcDbEntity
  8
Sc.1_5
 62
     9
  6
CONTINUOUS
370
    -2
100
AcDbLine
 10
1980.94017515
 20
-515.29120886
 30
0.0
 11
1981.37724792
 21
-515.17200734
 31
0.0
  0
LINE
  5
388
100
AcDbEntity
  8
Sc.1_5
 62
     9
  6
CONTINUOUS
370
    -2
100
AcDbLine
 10
1984.2735066
 20
-515.29120991
 30
0.0
 11
1984.71057904
 21
-515.17200848
 31
0.0
  0
LINE
  5
389
100
AcDbEntity
  8
Sc.1_5
 62
     9
  6
CONTINUOUS
370
    -2
100
AcDbLine
 10
1987.60683805
 20
-515.29121095
 30
0.0
 11
1988.04391016
 21
-515.17200961
 31
0.0
  0
LINE
  5
38A
100
AcDbEntity
  8
Sc.1_5
 62
     9
  6
CONTINUOUS
370
    -2
100
AcDbLine
 10
1990.9401695
 20
-515.291212
 30
0.0
 11
1991.37724128
 21
-515.17201074
 31
0.0
  0
LINE
  5
38B
100
AcDbEntity
  8
Sc.1_5
 62
     9
  6
CONTINUOUS
370
    -2
100
AcDbLine
 10
1994.27350095
 20
-515.29121304
 30
0.0
 11
1994.71057241
 21
-515.17201188
 31
0.0
  0
LINE
  5
38C
100
AcDbEntity
  8
Sc.1_5
 62
     9
  6
CONTINUOUS
370
    -2
100
AcDbLine
 10
1997.6068324
 20
-515.29121409
 30
0.0
 11
1998.04390353
 21
-515.17201301
 31
0.0
  0
LINE
  5
38D
100
AcDbEntity
  8
Sc.1_5
 62
     9
  6
CONTINUOUS
370
    -2
100
AcDbLine
 10
2000.94016385
 20
-515.29121513
 30
0.0
 11
2001.37723465
 21
-515.17201414
 31
0.0
  0
LINE
  5
38E
100
AcDbEntity
  8
Sc.1_5
 62
     9
  6
CONTINUOUS
370
    -2
100
AcDbLine
 10
2004.2734953
 20
-515.29121617
 30
0.0
 11
2004.55033809
 21
-515.21571369
 31
0.0
  0
LINE
  5
38F
100
AcDbEntity
  8
Sc.1_5
 62
     9
  6
CONTINUOUS
370
    -2
100
AcDbLine
 10
1937.16047221
 20
-515.29119462
 30
0.0
 11
1936.72339491
 21
-515.17199163
 31
0.0
  0
LINE
  5
390
100
AcDbEntity
  8
Sc.1_5
 62
     9
  6
CONTINUOUS
370
    -2
100
AcDbLine
 10
1940.49380333
 20
-515.29119513
 30
0.0
 11
1940.05672604
 21
-515.17199214
 31
0.0
  0
LINE
  5
391
100
AcDbEntity
  8
Sc.1_5
 62
     9
  6
CONTINUOUS
370
    -2
100
AcDbLine
 10
1943.82713445
 20
-515.29119564
 30
0.0
 11
1943.39005716
 21
-515.17199265
 31
0.0
  0
LINE
  5
392
100
AcDbEntity
  8
Sc.1_5
 62
     9
  6
CONTINUOUS
370
    -2
100
AcDbLine
 10
1947.16046558
 20
-515.29119615
 30
0.0
 11
1946.72338828
 21
-515.17199316
 31
0.0
  0
LINE
  5
393
100
AcDbEntity
  8
Sc.1_5
 62
     9
  6
CONTINUOUS
370
    -2
100
AcDbLine
 10
1950.4937967
 20
-515.29119666
 30
0.0
 11
1950.0567194
 21
-515.17199367
 31
0.0
  0
LINE
  5
394
100
AcDbEntity
  8
Sc.1_5
 62
     9
  6
CONTINUOUS
370
    -2
100
AcDbLine
 10
1953.82712782
 20
-515.29119717
 30
0.0
 11
1953.39005053
 21
-515.17199418
 31
0.0
  0
LINE
  5
395
100
AcDbEntity
  8
Sc.1_5
 62
     9
  6
CONTINUOUS
370
    -2
100
AcDbLine
 10
1957.16045895
 20
-515.29119768
 30
0.0
 11
1956.72338165
 21
-515.1719947
 31
0.0
  0
LINE
  5
396
100
AcDbEntity
  8
Sc.1_5
 62
     9
  6
CONTINUOUS
370
    -2
100
AcDbLine
 10
1960.49379007
 20
-515.29119819
 30
0.0
 11
1960.05671277
 21
-515.17199521
 31
0.0
  0
LINE
  5
397
100
AcDbEntity
  8
Sc.1_5
 62
     9
  6
CONTINUOUS
370
    -2
100
AcDbLine
 10
1963.82712119
 20
-515.29119871
 30
0.0
 11
1963.39004389
 21
-515.17199572
 31
0.0
  0
LINE
  5
398
100
AcDbEntity
  8
Sc.1_5
 62
     9
  6
CONTINUOUS
370
    -2
100
AcDbLine
 10
1967.16045231
 20
-515.29119922
 30
0.0
 11
1966.72337502
 21
-515.17199623
 31
0.0
  0
LINE
  5
399
100
AcDbEntity
  8
Sc.1_5
 62
     9
  6
CONTINUOUS
370
    -2
100
AcDbLine
 10
1970.49378344
 20
-515.29119973
 30
0.0
 11
1970.05670614
 21
-515.17199674
 31
0.0
  0
LINE
  5
39A
100
AcDbEntity
  8
Sc.1_5
 62
     9
  6
CONTINUOUS
370
    -2
100
AcDbLine
 10
1973.82711456
 20
-515.29120024
 30
0.0
 11
1973.39003726
 21
-515.17199725
 31
0.0
  0
LINE
  5
39B
100
AcDbEntity
  8
Sc.1_5
 62
     9
  6
CONTINUOUS
370
    -2
100
AcDbLine
 10
1977.16044568
 20
-515.29120075
 30
0.0
 11
1976.72336838
 21
-515.17199776
 31
0.0
  0
LINE
  5
39C
100
AcDbEntity
  8
Sc.1_5
 62
     9
  6
CONTINUOUS
370
    -2
100
AcDbLine
 10
1980.4937768
 20
-515.29120126
 30
0.0
 11
1980.05669951
 21
-515.17199827
 31
0.0
  0
LINE
  5
39D
100
AcDbEntity
  8
Sc.1_5
 62
     9
  6
CONTINUOUS
370
    -2
100
AcDbLine
 10
1983.82710793
 20
-515.29120177
 30
0.0
 11
1983.39003063
 21
-515.17199878
 31
0.0
  0
LINE
  5
39E
100
AcDbEntity
  8
Sc.1_5
 62
     9
  6
CONTINUOUS
370
    -2
100
AcDbLine
 10
1987.16043905
 20
-515.29120228
 30
0.0
 11
1986.72336175
 21
-515.17199929
 31
0.0
  0
LINE
  5
39F
100
AcDbEntity
  8
Sc.1_5
 62
     9
  6
CONTINUOUS
370
    -2
100
AcDbLine
 10
1990.49377017
 20
-515.29120279
 30
0.0
 11
1990.05669288
 21
-515.1719998
 31
0.0
  0
LINE
  5
3A0
100
AcDbEntity
  8
Sc.1_5
 62
     9
  6
CONTINUOUS
370
    -2
100
AcDbLine
 10
1993.82710129
 20
-515.2912033
 30
0.0
 11
1993.390024
 21
-515.17200031
 31
0.0
  0
LINE
  5
3A1
100
AcDbEntity
  8
Sc.1_5
 62
     9
  6
CONTINUOUS
370
    -2
100
AcDbLine
 10
1997.16043242
 20
-515.29120381
 30
0.0
 11
1996.72335512
 21
-515.17200083
 31
0.0
  0
LINE
  5
3A2
100
AcDbEntity
  8
Sc.1_5
 62
     9
  6
CONTINUOUS
370
    -2
100
AcDbLine
 10
2000.49376354
 20
-515.29120433
 30
0.0
 11
2000.05668624
 21
-515.17200134
 31
0.0
  0
LINE
  5
3A3
100
AcDbEntity
  8
Sc.1_5
 62
     9
  6
CONTINUOUS
370
    -2
100
AcDbLine
 10
2003.82709466
 20
-515.29120484
 30
0.0
 11
2003.39001737
 21
-515.17200185
 31
0.0
  0
LINE
  5
3A4
100
AcDbEntity
  8
Sc.1_5
 62
     9
  6
CONTINUOUS
370
    -2
100
AcDbLine
 10
1935.05673252
 20
-505.41040241
 30
0.0
 11
1935.49372996
 21
-505.29122143
 31
0.0
  0
LINE
  5
3A5
100
AcDbEntity
  8
Sc.1_5
 62
     9
  6
CONTINUOUS
370
    -2
100
AcDbLine
 10
1938.39006365
 20
-505.41040354
 30
0.0
 11
1938.82706524
 21
-505.29122143
 31
0.0
  0
LINE
  5
3A6
100
AcDbEntity
  8
Sc.1_5
 62
     9
  6
CONTINUOUS
370
    -2
100
AcDbLine
 10
1941.72339477
 20
-505.41040467
 30
0.0
 11
1942.16040052
 21
-505.29122143
 31
0.0
  0
LINE
  5
3A7
100
AcDbEntity
  8
Sc.1_5
 62
     9
  6
CONTINUOUS
370
    -2
100
AcDbLine
 10
1945.05672589
 20
-505.41040581
 30
0.0
 11
1945.4937358
 21
-505.29122143
 31
0.0
  0
LINE
  5
3A8
100
AcDbEntity
  8
Sc.1_5
 62
     9
  6
CONTINUOUS
370
    -2
100
AcDbLine
 10
1948.39005701
 20
-505.41040694
 30
0.0
 11
1948.82707108
 21
-505.29122143
 31
0.0
  0
LINE
  5
3A9
100
AcDbEntity
  8
Sc.1_5
 62
     9
  6
CONTINUOUS
370
    -2
100
AcDbLine
 10
1951.72338814
 20
-505.41040807
 30
0.0
 11
1952.16040636
 21
-505.29122143
 31
0.0
  0
LINE
  5
3AA
100
AcDbEntity
  8
Sc.1_5
 62
     9
  6
CONTINUOUS
370
    -2
100
AcDbLine
 10
1955.05671926
 20
-505.41040921
 30
0.0
 11
1955.49374164
 21
-505.29122143
 31
0.0
  0
LINE
  5
3AB
100
AcDbEntity
  8
Sc.1_5
 62
     9
  6
CONTINUOUS
370
    -2
100
AcDbLine
 10
1958.39005038
 20
-505.41041034
 30
0.0
 11
1958.82707691
 21
-505.29122143
 31
0.0
  0
LINE
  5
3AC
100
AcDbEntity
  8
Sc.1_5
 62
     9
  6
CONTINUOUS
370
    -2
100
AcDbLine
 10
1961.7233815
 20
-505.41041147
 30
0.0
 11
1962.16041219
 21
-505.29122143
 31
0.0
  0
LINE
  5
3AD
100
AcDbEntity
  8
Sc.1_5
 62
     9
  6
CONTINUOUS
370
    -2
100
AcDbLine
 10
1965.05671263
 20
-505.41041261
 30
0.0
 11
1965.49374747
 21
-505.29122143
 31
0.0
  0
LINE
  5
3AE
100
AcDbEntity
  8
Sc.1_5
 62
     9
  6
CONTINUOUS
370
    -2
100
AcDbLine
 10
1968.39004375
 20
-505.41041374
 30
0.0
 11
1968.82708275
 21
-505.29122143
 31
0.0
  0
LINE
  5
3AF
100
AcDbEntity
  8
Sc.1_5
 62
     9
  6
CONTINUOUS
370
    -2
100
AcDbLine
 10
1971.72337487
 20
-505.41041488
 30
0.0
 11
1972.16041803
 21
-505.29122143
 31
0.0
  0
LINE
  5
3B0
100
AcDbEntity
  8
Sc.1_5
 62
     9
  6
CONTINUOUS
370
    -2
100
AcDbLine
 10
1975.05670599
 20
-505.41041601
 30
0.0
 11
1975.49375331
 21
-505.29122143
 31
0.0
  0
LINE
  5
3B1
100
AcDbEntity
  8
Sc.1_5
 62
     9
  6
CONTINUOUS
370
    -2
100
AcDbLine
 10
1978.39003712
 20
-505.41041714
 30
0.0
 11
1978.82708859
 21
-505.29122143
 31
0.0
  0
LINE
  5
3B2
100
AcDbEntity
  8
Sc.1_5
 62
     9
  6
CONTINUOUS
370
    -2
100
AcDbLine
 10
1981.72336824
 20
-505.41041828
 30
0.0
 11
1982.16042387
 21
-505.29122143
 31
0.0
  0
LINE
  5
3B3
100
AcDbEntity
  8
Sc.1_5
 62
     9
  6
CONTINUOUS
370
    -2
100
AcDbLine
 10
1985.05669936
 20
-505.41041941
 30
0.0
 11
1985.49375914
 21
-505.29122143
 31
0.0
  0
LINE
  5
3B4
100
AcDbEntity
  8
Sc.1_5
 62
     9
  6
CONTINUOUS
370
    -2
100
AcDbLine
 10
1988.39003049
 20
-505.41042054
 30
0.0
 11
1988.82709442
 21
-505.29122143
 31
0.0
  0
LINE
  5
3B5
100
AcDbEntity
  8
Sc.1_5
 62
     9
  6
CONTINUOUS
370
    -2
100
AcDbLine
 10
1991.72336161
 20
-505.41042168
 30
0.0
 11
1992.1604297
 21
-505.29122143
 31
0.0
  0
LINE
  5
3B6
100
AcDbEntity
  8
Sc.1_5
 62
     9
  6
CONTINUOUS
370
    -2
100
AcDbLine
 10
1995.05669273
 20
-505.41042281
 30
0.0
 11
1995.49376498
 21
-505.29122143
 31
0.0
  0
LINE
  5
3B7
100
AcDbEntity
  8
Sc.1_5
 62
     9
  6
CONTINUOUS
370
    -2
100
AcDbLine
 10
1998.39002385
 20
-505.41042394
 30
0.0
 11
1998.82710026
 21
-505.29122143
 31
0.0
  0
LINE
  5
3B8
100
AcDbEntity
  8
Sc.1_5
 62
     9
  6
CONTINUOUS
370
    -2
100
AcDbLine
 10
2001.72335498
 20
-505.41042508
 30
0.0
 11
2002.16043233
 21
-505.2912223
 31
0.0
  0
LINE
  5
3B9
100
AcDbEntity
  8
Sc.1_5
 62
     9
  6
CONTINUOUS
370
    -2
100
AcDbLine
 10
2002.60683362
 20
-505.29122143
 30
0.0
 11
2003.04390283
 21
-505.41042228
 31
0.0
  0
LINE
  5
3BA
100
AcDbEntity
  8
Sc.1_5
 62
     9
  6
CONTINUOUS
370
    -2
100
AcDbLine
 10
1999.273506
 20
-505.29122143
 30
0.0
 11
1999.71057171
 21
-505.41042132
 31
0.0
  0
LINE
  5
3BB
100
AcDbEntity
  8
Sc.1_5
 62
     9
  6
CONTINUOUS
370
    -2
100
AcDbLine
 10
1995.94017837
 20
-505.29122143
 30
0.0
 11
1996.37724059
 21
-505.41042037
 31
0.0
  0
LINE
  5
3BC
100
AcDbEntity
  8
Sc.1_5
 62
     9
  6
CONTINUOUS
370
    -2
100
AcDbLine
 10
1992.60685075
 20
-505.29122143
 30
0.0
 11
1993.04390946
 21
-505.41041941
 31
0.0
  0
LINE
  5
3BD
100
AcDbEntity
  8
Sc.1_5
 62
     9
  6
CONTINUOUS
370
    -2
100
AcDbLine
 10
1989.27352313
 20
-505.29122143
 30
0.0
 11
1989.71057834
 21
-505.41041846
 31
0.0
  0
LINE
  5
3BE
100
AcDbEntity
  8
Sc.1_5
 62
     9
  6
CONTINUOUS
370
    -2
100
AcDbLine
 10
1985.94019551
 20
-505.29122143
 30
0.0
 11
1986.37724722
 21
-505.4104175
 31
0.0
  0
LINE
  5
3BF
100
AcDbEntity
  8
Sc.1_5
 62
     9
  6
CONTINUOUS
370
    -2
100
AcDbLine
 10
1982.60686789
 20
-505.29122143
 30
0.0
 11
1983.0439161
 21
-505.41041655
 31
0.0
  0
LINE
  5
3C0
100
AcDbEntity
  8
Sc.1_5
 62
     9
  6
CONTINUOUS
370
    -2
100
AcDbLine
 10
1979.27354026
 20
-505.29122143
 30
0.0
 11
1979.71058497
 21
-505.41041559
 31
0.0
  0
LINE
  5
3C1
100
AcDbEntity
  8
Sc.1_5
 62
     9
  6
CONTINUOUS
370
    -2
100
AcDbLine
 10
1975.94021264
 20
-505.29122143
 30
0.0
 11
1976.37725385
 21
-505.41041464
 31
0.0
  0
LINE
  5
3C2
100
AcDbEntity
  8
Sc.1_5
 62
     9
  6
CONTINUOUS
370
    -2
100
AcDbLine
 10
1972.60688502
 20
-505.29122143
 30
0.0
 11
1973.04392273
 21
-505.41041368
 31
0.0
  0
LINE
  5
3C3
100
AcDbEntity
  8
Sc.1_5
 62
     9
  6
CONTINUOUS
370
    -2
100
AcDbLine
 10
1969.2735574
 20
-505.29122143
 30
0.0
 11
1969.71059161
 21
-505.41041273
 31
0.0
  0
LINE
  5
3C4
100
AcDbEntity
  8
Sc.1_5
 62
     9
  6
CONTINUOUS
370
    -2
100
AcDbLine
 10
1965.94022978
 20
-505.29122143
 30
0.0
 11
1966.37726048
 21
-505.41041177
 31
0.0
  0
LINE
  5
3C5
100
AcDbEntity
  8
Sc.1_5
 62
     9
  6
CONTINUOUS
370
    -2
100
AcDbLine
 10
1962.60690215
 20
-505.29122143
 30
0.0
 11
1963.04392936
 21
-505.41041082
 31
0.0
  0
LINE
  5
3C6
100
AcDbEntity
  8
Sc.1_5
 62
     9
  6
CONTINUOUS
370
    -2
100
AcDbLine
 10
1959.27357453
 20
-505.29122143
 30
0.0
 11
1959.71059824
 21
-505.41040986
 31
0.0
  0
LINE
  5
3C7
100
AcDbEntity
  8
Sc.1_5
 62
     9
  6
CONTINUOUS
370
    -2
100
AcDbLine
 10
1955.94024691
 20
-505.29122143
 30
0.0
 11
1956.37726712
 21
-505.41040891
 31
0.0
  0
LINE
  5
3C8
100
AcDbEntity
  8
Sc.1_5
 62
     9
  6
CONTINUOUS
370
    -2
100
AcDbLine
 10
1952.60691929
 20
-505.29122143
 30
0.0
 11
1953.04393599
 21
-505.41040795
 31
0.0
  0
LINE
  5
3C9
100
AcDbEntity
  8
Sc.1_5
 62
     9
  6
CONTINUOUS
370
    -2
100
AcDbLine
 10
1949.27359167
 20
-505.29122143
 30
0.0
 11
1949.71060487
 21
-505.410407
 31
0.0
  0
LINE
  5
3CA
100
AcDbEntity
  8
Sc.1_5
 62
     9
  6
CONTINUOUS
370
    -2
100
AcDbLine
 10
1945.94026404
 20
-505.29122143
 30
0.0
 11
1946.37727375
 21
-505.41040605
 31
0.0
  0
LINE
  5
3CB
100
AcDbEntity
  8
Sc.1_5
 62
     9
  6
CONTINUOUS
370
    -2
100
AcDbLine
 10
1942.60693642
 20
-505.29122143
 30
0.0
 11
1943.04394262
 21
-505.41040509
 31
0.0
  0
LINE
  5
3CC
100
AcDbEntity
  8
Sc.1_5
 62
     9
  6
CONTINUOUS
370
    -2
100
AcDbLine
 10
1939.2736088
 20
-505.29122143
 30
0.0
 11
1939.7106115
 21
-505.41040414
 31
0.0
  0
LINE
  5
3CD
100
AcDbEntity
  8
Sc.1_5
 62
     9
  6
CONTINUOUS
370
    -2
100
AcDbLine
 10
1935.94028118
 20
-505.29122143
 30
0.0
 11
1936.37728038
 21
-505.41040318
 31
0.0
  0
LINE
  5
3CE
100
AcDbEntity
  8
Sc.1_5
 62
     9
  6
CONTINUOUS
370
    -2
100
AcDbLine
 10
1934.71061168
 20
-515.17199145
 30
0.0
 11
1935.08382419
 21
-514.9480641
 31
0.0
  0
LINE
  5
3CF
100
AcDbEntity
  8
Sc.1_5
 62
     9
  6
CONTINUOUS
370
    -2
100
AcDbLine
 10
1938.04394348
 20
-515.17199247
 30
0.0
 11
1938.41715599
 21
-514.94806512
 31
0.0
  0
LINE
  5
3D0
100
AcDbEntity
  8
Sc.1_5
 62
     9
  6
CONTINUOUS
370
    -2
100
AcDbLine
 10
1941.37727528
 20
-515.17199349
 30
0.0
 11
1941.75048779
 21
-514.94806614
 31
0.0
  0
LINE
  5
3D1
100
AcDbEntity
  8
Sc.1_5
 62
     9
  6
CONTINUOUS
370
    -2
100
AcDbLine
 10
1944.71060709
 20
-515.17199451
 30
0.0
 11
1945.0838196
 21
-514.94806717
 31
0.0
  0
LINE
  5
3D2
100
AcDbEntity
  8
Sc.1_5
 62
     9
  6
CONTINUOUS
370
    -2
100
AcDbLine
 10
1948.04393889
 20
-515.17199553
 30
0.0
 11
1948.4171514
 21
-514.94806819
 31
0.0
  0
LINE
  5
3D3
100
AcDbEntity
  8
Sc.1_5
 62
     9
  6
CONTINUOUS
370
    -2
100
AcDbLine
 10
1951.37727069
 20
-515.17199656
 30
0.0
 11
1951.7504832
 21
-514.94806921
 31
0.0
  0
LINE
  5
3D4
100
AcDbEntity
  8
Sc.1_5
 62
     9
  6
CONTINUOUS
370
    -2
100
AcDbLine
 10
1954.7106025
 20
-515.17199758
 30
0.0
 11
1955.08381501
 21
-514.94807023
 31
0.0
  0
LINE
  5
3D5
100
AcDbEntity
  8
Sc.1_5
 62
     9
  6
CONTINUOUS
370
    -2
100
AcDbLine
 10
1958.0439343
 20
-515.1719986
 30
0.0
 11
1958.41714681
 21
-514.94807125
 31
0.0
  0
LINE
  5
3D6
100
AcDbEntity
  8
Sc.1_5
 62
     9
  6
CONTINUOUS
370
    -2
100
AcDbLine
 10
1961.3772661
 20
-515.17199962
 30
0.0
 11
1961.75047861
 21
-514.94807228
 31
0.0
  0
LINE
  5
3D7
100
AcDbEntity
  8
Sc.1_5
 62
     9
  6
CONTINUOUS
370
    -2
100
AcDbLine
 10
1964.71059791
 20
-515.17200064
 30
0.0
 11
1965.08381042
 21
-514.9480733
 31
0.0
  0
LINE
  5
3D8
100
AcDbEntity
  8
Sc.1_5
 62
     9
  6
CONTINUOUS
370
    -2
100
AcDbLine
 10
1968.04392971
 20
-515.17200167
 30
0.0
 11
1968.41714222
 21
-514.94807432
 31
0.0
  0
LINE
  5
3D9
100
AcDbEntity
  8
Sc.1_5
 62
     9
  6
CONTINUOUS
370
    -2
100
AcDbLine
 10
1971.37726151
 20
-515.17200269
 30
0.0
 11
1971.75047402
 21
-514.94807534
 31
0.0
  0
LINE
  5
3DA
100
AcDbEntity
  8
Sc.1_5
 62
     9
  6
CONTINUOUS
370
    -2
100
AcDbLine
 10
1974.71059332
 20
-515.17200371
 30
0.0
 11
1975.08380583
 21
-514.94807636
 31
0.0
  0
LINE
  5
3DB
100
AcDbEntity
  8
Sc.1_5
 62
     9
  6
CONTINUOUS
370
    -2
100
AcDbLine
 10
1978.04392512
 20
-515.17200473
 30
0.0
 11
1978.41713763
 21
-514.94807739
 31
0.0
  0
LINE
  5
3DC
100
AcDbEntity
  8
Sc.1_5
 62
     9
  6
CONTINUOUS
370
    -2
100
AcDbLine
 10
1981.37725692
 20
-515.17200575
 30
0.0
 11
1981.75046943
 21
-514.94807841
 31
0.0
  0
LINE
  5
3DD
100
AcDbEntity
  8
Sc.1_5
 62
     9
  6
CONTINUOUS
370
    -2
100
AcDbLine
 10
1984.71058873
 20
-515.17200678
 30
0.0
 11
1985.08380124
 21
-514.94807943
 31
0.0
  0
LINE
  5
3DE
100
AcDbEntity
  8
Sc.1_5
 62
     9
  6
CONTINUOUS
370
    -2
100
AcDbLine
 10
1988.04392053
 20
-515.1720078
 30
0.0
 11
1988.41713304
 21
-514.94808045
 31
0.0
  0
LINE
  5
3DF
100
AcDbEntity
  8
Sc.1_5
 62
     9
  6
CONTINUOUS
370
    -2
100
AcDbLine
 10
1991.37725233
 20
-515.17200882
 30
0.0
 11
1991.75046484
 21
-514.94808147
 31
0.0
  0
LINE
  5
3E0
100
AcDbEntity
  8
Sc.1_5
 62
     9
  6
CONTINUOUS
370
    -2
100
AcDbLine
 10
1994.71058414
 20
-515.17200984
 30
0.0
 11
1995.08379665
 21
-514.9480825
 31
0.0
  0
LINE
  5
3E1
100
AcDbEntity
  8
Sc.1_5
 62
     9
  6
CONTINUOUS
370
    -2
100
AcDbLine
 10
1998.04391594
 20
-515.17201086
 30
0.0
 11
1998.41712845
 21
-514.94808352
 31
0.0
  0
LINE
  5
3E2
100
AcDbEntity
  8
Sc.1_5
 62
     9
  6
CONTINUOUS
370
    -2
100
AcDbLine
 10
2001.37724774
 20
-515.17201189
 30
0.0
 11
2001.75046025
 21
-514.94808454
 31
0.0
  0
LINE
  5
3E3
100
AcDbEntity
  8
Sc.1_5
 62
     9
  6
CONTINUOUS
370
    -2
100
AcDbLine
 10
1936.72093017
 20
-515.17199232
 30
0.0
 11
1936.34771781
 21
-514.94806471
 31
0.0
  0
LINE
  5
3E4
100
AcDbEntity
  8
Sc.1_5
 62
     9
  6
CONTINUOUS
370
    -2
100
AcDbLine
 10
1940.05426197
 20
-515.17199361
 30
0.0
 11
1939.68104962
 21
-514.948066
 31
0.0
  0
LINE
  5
3E5
100
AcDbEntity
  8
Sc.1_5
 62
     9
  6
CONTINUOUS
370
    -2
100
AcDbLine
 10
1943.38759378
 20
-515.1719949
 30
0.0
 11
1943.01438142
 21
-514.94806729
 31
0.0
  0
LINE
  5
3E6
100
AcDbEntity
  8
Sc.1_5
 62
     9
  6
CONTINUOUS
370
    -2
100
AcDbLine
 10
1946.72092558
 20
-515.17199619
 30
0.0
 11
1946.34771322
 21
-514.94806858
 31
0.0
  0
LINE
  5
3E7
100
AcDbEntity
  8
Sc.1_5
 62
     9
  6
CONTINUOUS
370
    -2
100
AcDbLine
 10
1950.05425738
 20
-515.17199747
 30
0.0
 11
1949.68104503
 21
-514.94806987
 31
0.0
  0
LINE
  5
3E8
100
AcDbEntity
  8
Sc.1_5
 62
     9
  6
CONTINUOUS
370
    -2
100
AcDbLine
 10
1953.38758919
 20
-515.17199876
 30
0.0
 11
1953.01437683
 21
-514.94807116
 31
0.0
  0
LINE
  5
3E9
100
AcDbEntity
  8
Sc.1_5
 62
     9
  6
CONTINUOUS
370
    -2
100
AcDbLine
 10
1956.72092099
 20
-515.17200005
 30
0.0
 11
1956.34770863
 21
-514.94807244
 31
0.0
  0
LINE
  5
3EA
100
AcDbEntity
  8
Sc.1_5
 62
     9
  6
CONTINUOUS
370
    -2
100
AcDbLine
 10
1960.05425279
 20
-515.17200134
 30
0.0
 11
1959.68104044
 21
-514.94807373
 31
0.0
  0
LINE
  5
3EB
100
AcDbEntity
  8
Sc.1_5
 62
     9
  6
CONTINUOUS
370
    -2
100
AcDbLine
 10
1963.3875846
 20
-515.17200263
 30
0.0
 11
1963.01437224
 21
-514.94807502
 31
0.0
  0
LINE
  5
3EC
100
AcDbEntity
  8
Sc.1_5
 62
     9
  6
CONTINUOUS
370
    -2
100
AcDbLine
 10
1966.7209164
 20
-515.17200391
 30
0.0
 11
1966.34770404
 21
-514.94807631
 31
0.0
  0
LINE
  5
3ED
100
AcDbEntity
  8
Sc.1_5
 62
     9
  6
CONTINUOUS
370
    -2
100
AcDbLine
 10
1970.0542482
 20
-515.1720052
 30
0.0
 11
1969.68103585
 21
-514.9480776
 31
0.0
  0
LINE
  5
3EE
100
AcDbEntity
  8
Sc.1_5
 62
     9
  6
CONTINUOUS
370
    -2
100
AcDbLine
 10
1973.38758001
 20
-515.17200649
 30
0.0
 11
1973.01436765
 21
-514.94807888
 31
0.0
  0
LINE
  5
3EF
100
AcDbEntity
  8
Sc.1_5
 62
     9
  6
CONTINUOUS
370
    -2
100
AcDbLine
 10
1976.72091181
 20
-515.17200778
 30
0.0
 11
1976.34769945
 21
-514.94808017
 31
0.0
  0
LINE
  5
3F0
100
AcDbEntity
  8
Sc.1_5
 62
     9
  6
CONTINUOUS
370
    -2
100
AcDbLine
 10
1980.05424361
 20
-515.17200907
 30
0.0
 11
1979.68103126
 21
-514.94808146
 31
0.0
  0
LINE
  5
3F1
100
AcDbEntity
  8
Sc.1_5
 62
     9
  6
CONTINUOUS
370
    -2
100
AcDbLine
 10
1983.38757542
 20
-515.17201036
 30
0.0
 11
1983.01436306
 21
-514.94808275
 31
0.0
  0
LINE
  5
3F2
100
AcDbEntity
  8
Sc.1_5
 62
     9
  6
CONTINUOUS
370
    -2
100
AcDbLine
 10
1986.72090722
 20
-515.17201164
 30
0.0
 11
1986.34769486
 21
-514.94808404
 31
0.0
  0
LINE
  5
3F3
100
AcDbEntity
  8
Sc.1_5
 62
     9
  6
CONTINUOUS
370
    -2
100
AcDbLine
 10
1990.05423902
 20
-515.17201293
 30
0.0
 11
1989.68102667
 21
-514.94808533
 31
0.0
  0
LINE
  5
3F4
100
AcDbEntity
  8
Sc.1_5
 62
     9
  6
CONTINUOUS
370
    -2
100
AcDbLine
 10
1993.38757083
 20
-515.17201422
 30
0.0
 11
1993.01435847
 21
-514.94808661
 31
0.0
  0
LINE
  5
3F5
100
AcDbEntity
  8
Sc.1_5
 62
     9
  6
CONTINUOUS
370
    -2
100
AcDbLine
 10
1996.72090263
 20
-515.17201551
 30
0.0
 11
1996.34769027
 21
-514.9480879
 31
0.0
  0
LINE
  5
3F6
100
AcDbEntity
  8
Sc.1_5
 62
     9
  6
CONTINUOUS
370
    -2
100
AcDbLine
 10
2000.05423443
 20
-515.1720168
 30
0.0
 11
1999.68102208
 21
-514.94808919
 31
0.0
  0
LINE
  5
3F7
100
AcDbEntity
  8
Sc.1_5
 62
     9
  6
CONTINUOUS
370
    -2
100
AcDbLine
 10
2003.38756624
 20
-515.17201808
 30
0.0
 11
2003.01435388
 21
-514.94809048
 31
0.0
  0
LINE
  5
3F8
100
AcDbEntity
  8
Sc.1_5
 62
     9
  6
CONTINUOUS
370
    -2
100
AcDbLine
 10
1934.68352067
 20
-505.63433062
 30
0.0
 11
1935.05673318
 21
-505.41040327
 31
0.0
  0
LINE
  5
3F9
100
AcDbEntity
  8
Sc.1_5
 62
     9
  6
CONTINUOUS
370
    -2
100
AcDbLine
 10
1938.01685248
 20
-505.63433164
 30
0.0
 11
1938.39006499
 21
-505.4104043
 31
0.0
  0
LINE
  5
3FA
100
AcDbEntity
  8
Sc.1_5
 62
     9
  6
CONTINUOUS
370
    -2
100
AcDbLine
 10
1941.35018428
 20
-505.63433267
 30
0.0
 11
1941.72339679
 21
-505.41040532
 31
0.0
  0
LINE
  5
3FB
100
AcDbEntity
  8
Sc.1_5
 62
     9
  6
CONTINUOUS
370
    -2
100
AcDbLine
 10
1944.68351608
 20
-505.63433369
 30
0.0
 11
1945.05672859
 21
-505.41040634
 31
0.0
  0
LINE
  5
3FC
100
AcDbEntity
  8
Sc.1_5
 62
     9
  6
CONTINUOUS
370
    -2
100
AcDbLine
 10
1948.01684789
 20
-505.63433471
 30
0.0
 11
1948.3900604
 21
-505.41040736
 31
0.0
  0
LINE
  5
3FD
100
AcDbEntity
  8
Sc.1_5
 62
     9
  6
CONTINUOUS
370
    -2
100
AcDbLine
 10
1951.35017969
 20
-505.63433573
 30
0.0
 11
1951.7233922
 21
-505.41040838
 31
0.0
  0
LINE
  5
3FE
100
AcDbEntity
  8
Sc.1_5
 62
     9
  6
CONTINUOUS
370
    -2
100
AcDbLine
 10
1954.68351149
 20
-505.63433675
 30
0.0
 11
1955.056724
 21
-505.41040941
 31
0.0
  0
LINE
  5
3FF
100
AcDbEntity
  8
Sc.1_5
 62
     9
  6
CONTINUOUS
370
    -2
100
AcDbLine
 10
1958.0168433
 20
-505.63433778
 30
0.0
 11
1958.39005581
 21
-505.41041043
 31
0.0
  0
LINE
  5
400
100
AcDbEntity
  8
Sc.1_5
 62
     9
  6
CONTINUOUS
370
    -2
100
AcDbLine
 10
1961.3501751
 20
-505.6343388
 30
0.0
 11
1961.72338761
 21
-505.41041145
 31
0.0
  0
LINE
  5
401
100
AcDbEntity
  8
Sc.1_5
 62
     9
  6
CONTINUOUS
370
    -2
100
AcDbLine
 10
1964.6835069
 20
-505.63433982
 30
0.0
 11
1965.05671941
 21
-505.41041247
 31
0.0
  0
LINE
  5
402
100
AcDbEntity
  8
Sc.1_5
 62
     9
  6
CONTINUOUS
370
    -2
100
AcDbLine
 10
1968.01683871
 20
-505.63434084
 30
0.0
 11
1968.39005122
 21
-505.41041349
 31
0.0
  0
LINE
  5
403
100
AcDbEntity
  8
Sc.1_5
 62
     9
  6
CONTINUOUS
370
    -2
100
AcDbLine
 10
1971.35017051
 20
-505.63434186
 30
0.0
 11
1971.72338302
 21
-505.41041452
 31
0.0
  0
LINE
  5
404
100
AcDbEntity
  8
Sc.1_5
 62
     9
  6
CONTINUOUS
370
    -2
100
AcDbLine
 10
1974.68350231
 20
-505.63434289
 30
0.0
 11
1975.05671482
 21
-505.41041554
 31
0.0
  0
LINE
  5
405
100
AcDbEntity
  8
Sc.1_5
 62
     9
  6
CONTINUOUS
370
    -2
100
AcDbLine
 10
1978.01683412
 20
-505.63434391
 30
0.0
 11
1978.39004663
 21
-505.41041656
 31
0.0
  0
LINE
  5
406
100
AcDbEntity
  8
Sc.1_5
 62
     9
  6
CONTINUOUS
370
    -2
100
AcDbLine
 10
1981.35016592
 20
-505.63434493
 30
0.0
 11
1981.72337843
 21
-505.41041758
 31
0.0
  0
LINE
  5
407
100
AcDbEntity
  8
Sc.1_5
 62
     9
  6
CONTINUOUS
370
    -2
100
AcDbLine
 10
1984.68349772
 20
-505.63434595
 30
0.0
 11
1985.05671023
 21
-505.4104186
 31
0.0
  0
LINE
  5
408
100
AcDbEntity
  8
Sc.1_5
 62
     9
  6
CONTINUOUS
370
    -2
100
AcDbLine
 10
1988.01682953
 20
-505.63434697
 30
0.0
 11
1988.39004204
 21
-505.41041963
 31
0.0
  0
LINE
  5
409
100
AcDbEntity
  8
Sc.1_5
 62
     9
  6
CONTINUOUS
370
    -2
100
AcDbLine
 10
1991.35016133
 20
-505.634348
 30
0.0
 11
1991.72337384
 21
-505.41042065
 31
0.0
  0
LINE
  5
40A
100
AcDbEntity
  8
Sc.1_5
 62
     9
  6
CONTINUOUS
370
    -2
100
AcDbLine
 10
1994.68349313
 20
-505.63434902
 30
0.0
 11
1995.05670564
 21
-505.41042167
 31
0.0
  0
LINE
  5
40B
100
AcDbEntity
  8
Sc.1_5
 62
     9
  6
CONTINUOUS
370
    -2
100
AcDbLine
 10
1998.01682494
 20
-505.63435004
 30
0.0
 11
1998.39003745
 21
-505.41042269
 31
0.0
  0
LINE
  5
40C
100
AcDbEntity
  8
Sc.1_5
 62
     9
  6
CONTINUOUS
370
    -2
100
AcDbLine
 10
2001.35015674
 20
-505.63435106
 30
0.0
 11
2001.72336925
 21
-505.41042371
 31
0.0
  0
LINE
  5
40D
100
AcDbEntity
  8
Sc.1_5
 62
     9
  6
CONTINUOUS
370
    -2
100
AcDbLine
 10
2003.04391689
 20
-505.41042415
 30
0.0
 11
2003.41712926
 21
-505.63435173
 31
0.0
  0
LINE
  5
40E
100
AcDbEntity
  8
Sc.1_5
 62
     9
  6
CONTINUOUS
370
    -2
100
AcDbLine
 10
1999.71058509
 20
-505.41042308
 30
0.0
 11
2000.08379746
 21
-505.63435066
 31
0.0
  0
LINE
  5
40F
100
AcDbEntity
  8
Sc.1_5
 62
     9
  6
CONTINUOUS
370
    -2
100
AcDbLine
 10
1996.37725328
 20
-505.41042201
 30
0.0
 11
1996.75046565
 21
-505.63434959
 31
0.0
  0
LINE
  5
410
100
AcDbEntity
  8
Sc.1_5
 62
     9
  6
CONTINUOUS
370
    -2
100
AcDbLine
 10
1993.04392148
 20
-505.41042095
 30
0.0
 11
1993.41713385
 21
-505.63434853
 31
0.0
  0
LINE
  5
411
100
AcDbEntity
  8
Sc.1_5
 62
     9
  6
CONTINUOUS
370
    -2
100
AcDbLine
 10
1989.71058968
 20
-505.41041988
 30
0.0
 11
1990.08380205
 21
-505.63434746
 31
0.0
  0
LINE
  5
412
100
AcDbEntity
  8
Sc.1_5
 62
     9
  6
CONTINUOUS
370
    -2
100
AcDbLine
 10
1986.37725787
 20
-505.41041881
 30
0.0
 11
1986.75047024
 21
-505.6343464
 31
0.0
  0
LINE
  5
413
100
AcDbEntity
  8
Sc.1_5
 62
     9
  6
CONTINUOUS
370
    -2
100
AcDbLine
 10
1983.04392607
 20
-505.41041775
 30
0.0
 11
1983.41713844
 21
-505.63434533
 31
0.0
  0
LINE
  5
414
100
AcDbEntity
  8
Sc.1_5
 62
     9
  6
CONTINUOUS
370
    -2
100
AcDbLine
 10
1979.71059427
 20
-505.41041668
 30
0.0
 11
1980.08380664
 21
-505.63434426
 31
0.0
  0
LINE
  5
415
100
AcDbEntity
  8
Sc.1_5
 62
     9
  6
CONTINUOUS
370
    -2
100
AcDbLine
 10
1976.37726246
 20
-505.41041562
 30
0.0
 11
1976.75047483
 21
-505.6343432
 31
0.0
  0
LINE
  5
416
100
AcDbEntity
  8
Sc.1_5
 62
     9
  6
CONTINUOUS
370
    -2
100
AcDbLine
 10
1973.04393066
 20
-505.41041455
 30
0.0
 11
1973.41714303
 21
-505.63434213
 31
0.0
  0
LINE
  5
417
100
AcDbEntity
  8
Sc.1_5
 62
     9
  6
CONTINUOUS
370
    -2
100
AcDbLine
 10
1969.71059886
 20
-505.41041348
 30
0.0
 11
1970.08381123
 21
-505.63434106
 31
0.0
  0
LINE
  5
418
100
AcDbEntity
  8
Sc.1_5
 62
     9
  6
CONTINUOUS
370
    -2
100
AcDbLine
 10
1966.37726706
 20
-505.41041242
 30
0.0
 11
1966.75047942
 21
-505.63434
 31
0.0
  0
LINE
  5
419
100
AcDbEntity
  8
Sc.1_5
 62
     9
  6
CONTINUOUS
370
    -2
100
AcDbLine
 10
1963.04393525
 20
-505.41041135
 30
0.0
 11
1963.41714762
 21
-505.63433893
 31
0.0
  0
LINE
  5
41A
100
AcDbEntity
  8
Sc.1_5
 62
     9
  6
CONTINUOUS
370
    -2
100
AcDbLine
 10
1959.71060345
 20
-505.41041028
 30
0.0
 11
1960.08381582
 21
-505.63433787
 31
0.0
  0
LINE
  5
41B
100
AcDbEntity
  8
Sc.1_5
 62
     9
  6
CONTINUOUS
370
    -2
100
AcDbLine
 10
1956.37727165
 20
-505.41040922
 30
0.0
 11
1956.75048402
 21
-505.6343368
 31
0.0
  0
LINE
  5
41C
100
AcDbEntity
  8
Sc.1_5
 62
     9
  6
CONTINUOUS
370
    -2
100
AcDbLine
 10
1953.04393984
 20
-505.41040815
 30
0.0
 11
1953.41715221
 21
-505.63433573
 31
0.0
  0
LINE
  5
41D
100
AcDbEntity
  8
Sc.1_5
 62
     9
  6
CONTINUOUS
370
    -2
100
AcDbLine
 10
1949.71060804
 20
-505.41040709
 30
0.0
 11
1950.08382041
 21
-505.63433467
 31
0.0
  0
LINE
  5
41E
100
AcDbEntity
  8
Sc.1_5
 62
     9
  6
CONTINUOUS
370
    -2
100
AcDbLine
 10
1946.37727624
 20
-505.41040602
 30
0.0
 11
1946.75048861
 21
-505.6343336
 31
0.0
  0
LINE
  5
41F
100
AcDbEntity
  8
Sc.1_5
 62
     9
  6
CONTINUOUS
370
    -2
100
AcDbLine
 10
1943.04394443
 20
-505.41040495
 30
0.0
 11
1943.4171568
 21
-505.63433253
 31
0.0
  0
LINE
  5
420
100
AcDbEntity
  8
Sc.1_5
 62
     9
  6
CONTINUOUS
370
    -2
100
AcDbLine
 10
1939.71061263
 20
-505.41040389
 30
0.0
 11
1940.083825
 21
-505.63433147
 31
0.0
  0
LINE
  5
421
100
AcDbEntity
  8
Sc.1_5
 62
     9
  6
CONTINUOUS
370
    -2
100
AcDbLine
 10
1936.37728083
 20
-505.41040282
 30
0.0
 11
1936.7504932
 21
-505.6343304
 31
0.0
  0
LINE
  5
422
100
AcDbEntity
  8
Sc.1_5
 62
     9
  6
CONTINUOUS
370
    -2
100
AcDbLine
 10
1935.08382353
 20
-514.94806368
 30
0.0
 11
1935.34554419
 21
-514.68634318
 31
0.0
  0
LINE
  5
423
100
AcDbEntity
  8
Sc.1_5
 62
     9
  6
CONTINUOUS
370
    -2
100
AcDbLine
 10
1938.41715563
 20
-514.94806472
 30
0.0
 11
1938.67887629
 21
-514.68634423
 31
0.0
  0
LINE
  5
424
100
AcDbEntity
  8
Sc.1_5
 62
     9
  6
CONTINUOUS
370
    -2
100
AcDbLine
 10
1941.75048774
 20
-514.94806577
 30
0.0
 11
1942.0122084
 21
-514.68634527
 31
0.0
  0
LINE
  5
425
100
AcDbEntity
  8
Sc.1_5
 62
     9
  6
CONTINUOUS
370
    -2
100
AcDbLine
 10
1945.08381985
 20
-514.94806681
 30
0.0
 11
1945.34554051
 21
-514.68634632
 31
0.0
  0
LINE
  5
426
100
AcDbEntity
  8
Sc.1_5
 62
     9
  6
CONTINUOUS
370
    -2
100
AcDbLine
 10
1948.41715195
 20
-514.94806786
 30
0.0
 11
1948.67887261
 21
-514.68634736
 31
0.0
  0
LINE
  5
427
100
AcDbEntity
  8
Sc.1_5
 62
     9
  6
CONTINUOUS
370
    -2
100
AcDbLine
 10
1951.75048406
 20
-514.9480689
 30
0.0
 11
1952.01220472
 21
-514.6863484
 31
0.0
  0
LINE
  5
428
100
AcDbEntity
  8
Sc.1_5
 62
     9
  6
CONTINUOUS
370
    -2
100
AcDbLine
 10
1955.08381617
 20
-514.94806994
 30
0.0
 11
1955.34553682
 21
-514.68634945
 31
0.0
  0
LINE
  5
429
100
AcDbEntity
  8
Sc.1_5
 62
     9
  6
CONTINUOUS
370
    -2
100
AcDbLine
 10
1958.41714827
 20
-514.94807099
 30
0.0
 11
1958.67886893
 21
-514.68635049
 31
0.0
  0
LINE
  5
42A
100
AcDbEntity
  8
Sc.1_5
 62
     9
  6
CONTINUOUS
370
    -2
100
AcDbLine
 10
1961.75048038
 20
-514.94807203
 30
0.0
 11
1962.01220104
 21
-514.68635154
 31
0.0
  0
LINE
  5
42B
100
AcDbEntity
  8
Sc.1_5
 62
     9
  6
CONTINUOUS
370
    -2
100
AcDbLine
 10
1965.08381248
 20
-514.94807308
 30
0.0
 11
1965.34553314
 21
-514.68635258
 31
0.0
  0
LINE
  5
42C
100
AcDbEntity
  8
Sc.1_5
 62
     9
  6
CONTINUOUS
370
    -2
100
AcDbLine
 10
1968.41714459
 20
-514.94807412
 30
0.0
 11
1968.67886525
 21
-514.68635362
 31
0.0
  0
LINE
  5
42D
100
AcDbEntity
  8
Sc.1_5
 62
     9
  6
CONTINUOUS
370
    -2
100
AcDbLine
 10
1971.7504767
 20
-514.94807516
 30
0.0
 11
1972.01219736
 21
-514.68635467
 31
0.0
  0
LINE
  5
42E
100
AcDbEntity
  8
Sc.1_5
 62
     9
  6
CONTINUOUS
370
    -2
100
AcDbLine
 10
1975.0838088
 20
-514.94807621
 30
0.0
 11
1975.34552946
 21
-514.68635571
 31
0.0
  0
LINE
  5
42F
100
AcDbEntity
  8
Sc.1_5
 62
     9
  6
CONTINUOUS
370
    -2
100
AcDbLine
 10
1978.41714091
 20
-514.94807725
 30
0.0
 11
1978.67886157
 21
-514.68635676
 31
0.0
  0
LINE
  5
430
100
AcDbEntity
  8
Sc.1_5
 62
     9
  6
CONTINUOUS
370
    -2
100
AcDbLine
 10
1981.75047302
 20
-514.9480783
 30
0.0
 11
1982.01219368
 21
-514.6863578
 31
0.0
  0
LINE
  5
431
100
AcDbEntity
  8
Sc.1_5
 62
     9
  6
CONTINUOUS
370
    -2
100
AcDbLine
 10
1985.08380512
 20
-514.94807934
 30
0.0
 11
1985.34552578
 21
-514.68635885
 31
0.0
  0
LINE
  5
432
100
AcDbEntity
  8
Sc.1_5
 62
     9
  6
CONTINUOUS
370
    -2
100
AcDbLine
 10
1988.41713723
 20
-514.94808039
 30
0.0
 11
1988.67885789
 21
-514.68635989
 31
0.0
  0
LINE
  5
433
100
AcDbEntity
  8
Sc.1_5
 62
     9
  6
CONTINUOUS
370
    -2
100
AcDbLine
 10
1991.75046933
 20
-514.94808143
 30
0.0
 11
1992.01218999
 21
-514.68636093
 31
0.0
  0
LINE
  5
434
100
AcDbEntity
  8
Sc.1_5
 62
     9
  6
CONTINUOUS
370
    -2
100
AcDbLine
 10
1995.08380144
 20
-514.94808247
 30
0.0
 11
1995.3455221
 21
-514.68636198
 31
0.0
  0
LINE
  5
435
100
AcDbEntity
  8
Sc.1_5
 62
     9
  6
CONTINUOUS
370
    -2
100
AcDbLine
 10
1998.41713355
 20
-514.94808352
 30
0.0
 11
1998.67885421
 21
-514.68636302
 31
0.0
  0
LINE
  5
436
100
AcDbEntity
  8
Sc.1_5
 62
     9
  6
CONTINUOUS
370
    -2
100
AcDbLine
 10
2001.75046565
 20
-514.94808456
 30
0.0
 11
2002.01218631
 21
-514.68636407
 31
0.0
  0
LINE
  5
437
100
AcDbEntity
  8
Sc.1_5
 62
     9
  6
CONTINUOUS
370
    -2
100
AcDbLine
 10
1936.35018473
 20
-514.94806408
 30
0.0
 11
1936.08846423
 21
-514.68634342
 31
0.0
  0
LINE
  5
438
100
AcDbEntity
  8
Sc.1_5
 62
     9
  6
CONTINUOUS
370
    -2
100
AcDbLine
 10
1939.68351683
 20
-514.94806512
 30
0.0
 11
1939.42179634
 21
-514.68634446
 31
0.0
  0
LINE
  5
439
100
AcDbEntity
  8
Sc.1_5
 62
     9
  6
CONTINUOUS
370
    -2
100
AcDbLine
 10
1943.01684894
 20
-514.94806616
 30
0.0
 11
1942.75512844
 21
-514.6863455
 31
0.0
  0
LINE
  5
43A
100
AcDbEntity
  8
Sc.1_5
 62
     9
  6
CONTINUOUS
370
    -2
100
AcDbLine
 10
1946.35018104
 20
-514.94806721
 30
0.0
 11
1946.08846055
 21
-514.68634655
 31
0.0
  0
LINE
  5
43B
100
AcDbEntity
  8
Sc.1_5
 62
     9
  6
CONTINUOUS
370
    -2
100
AcDbLine
 10
1949.68351315
 20
-514.94806825
 30
0.0
 11
1949.42179265
 21
-514.68634759
 31
0.0
  0
LINE
  5
43C
100
AcDbEntity
  8
Sc.1_5
 62
     9
  6
CONTINUOUS
370
    -2
100
AcDbLine
 10
1953.01684526
 20
-514.9480693
 30
0.0
 11
1952.75512476
 21
-514.68634864
 31
0.0
  0
LINE
  5
43D
100
AcDbEntity
  8
Sc.1_5
 62
     9
  6
CONTINUOUS
370
    -2
100
AcDbLine
 10
1956.35017736
 20
-514.94807034
 30
0.0
 11
1956.08845687
 21
-514.68634968
 31
0.0
  0
LINE
  5
43E
100
AcDbEntity
  8
Sc.1_5
 62
     9
  6
CONTINUOUS
370
    -2
100
AcDbLine
 10
1959.68350947
 20
-514.94807139
 30
0.0
 11
1959.42178897
 21
-514.68635073
 31
0.0
  0
LINE
  5
43F
100
AcDbEntity
  8
Sc.1_5
 62
     9
  6
CONTINUOUS
370
    -2
100
AcDbLine
 10
1963.01684158
 20
-514.94807243
 30
0.0
 11
1962.75512108
 21
-514.68635177
 31
0.0
  0
LINE
  5
440
100
AcDbEntity
  8
Sc.1_5
 62
     9
  6
CONTINUOUS
370
    -2
100
AcDbLine
 10
1966.35017368
 20
-514.94807347
 30
0.0
 11
1966.08845319
 21
-514.68635281
 31
0.0
  0
LINE
  5
441
100
AcDbEntity
  8
Sc.1_5
 62
     9
  6
CONTINUOUS
370
    -2
100
AcDbLine
 10
1969.68350579
 20
-514.94807452
 30
0.0
 11
1969.42178529
 21
-514.68635386
 31
0.0
  0
LINE
  5
442
100
AcDbEntity
  8
Sc.1_5
 62
     9
  6
CONTINUOUS
370
    -2
100
AcDbLine
 10
1973.01683789
 20
-514.94807556
 30
0.0
 11
1972.7551174
 21
-514.6863549
 31
0.0
  0
LINE
  5
443
100
AcDbEntity
  8
Sc.1_5
 62
     9
  6
CONTINUOUS
370
    -2
100
AcDbLine
 10
1976.35017
 20
-514.94807661
 30
0.0
 11
1976.0884495
 21
-514.68635595
 31
0.0
  0
LINE
  5
444
100
AcDbEntity
  8
Sc.1_5
 62
     9
  6
CONTINUOUS
370
    -2
100
AcDbLine
 10
1979.68350211
 20
-514.94807765
 30
0.0
 11
1979.42178161
 21
-514.68635699
 31
0.0
  0
LINE
  5
445
100
AcDbEntity
  8
Sc.1_5
 62
     9
  6
CONTINUOUS
370
    -2
100
AcDbLine
 10
1983.01683421
 20
-514.94807869
 30
0.0
 11
1982.75511372
 21
-514.68635803
 31
0.0
  0
LINE
  5
446
100
AcDbEntity
  8
Sc.1_5
 62
     9
  6
CONTINUOUS
370
    -2
100
AcDbLine
 10
1986.35016632
 20
-514.94807974
 30
0.0
 11
1986.08844582
 21
-514.68635908
 31
0.0
  0
LINE
  5
447
100
AcDbEntity
  8
Sc.1_5
 62
     9
  6
CONTINUOUS
370
    -2
100
AcDbLine
 10
1989.68349843
 20
-514.94808078
 30
0.0
 11
1989.42177793
 21
-514.68636012
 31
0.0
  0
LINE
  5
448
100
AcDbEntity
  8
Sc.1_5
 62
     9
  6
CONTINUOUS
370
    -2
100
AcDbLine
 10
1993.01683053
 20
-514.94808183
 30
0.0
 11
1992.75511004
 21
-514.68636117
 31
0.0
  0
LINE
  5
449
100
AcDbEntity
  8
Sc.1_5
 62
     9
  6
CONTINUOUS
370
    -2
100
AcDbLine
 10
1996.35016264
 20
-514.94808287
 30
0.0
 11
1996.08844214
 21
-514.68636221
 31
0.0
  0
LINE
  5
44A
100
AcDbEntity
  8
Sc.1_5
 62
     9
  6
CONTINUOUS
370
    -2
100
AcDbLine
 10
1999.68349474
 20
-514.94808391
 30
0.0
 11
1999.42177425
 21
-514.68636325
 31
0.0
  0
LINE
  5
44B
100
AcDbEntity
  8
Sc.1_5
 62
     9
  6
CONTINUOUS
370
    -2
100
AcDbLine
 10
2003.01682685
 20
-514.94808496
 30
0.0
 11
2002.75510636
 21
-514.6863643
 31
0.0
  0
LINE
  5
44C
100
AcDbEntity
  8
Sc.1_5
 62
     9
  6
CONTINUOUS
370
    -2
100
AcDbLine
 10
1934.4218007
 20
-505.8960501
 30
0.0
 11
1934.68352136
 21
-505.63432961
 31
0.0
  0
LINE
  5
44D
100
AcDbEntity
  8
Sc.1_5
 62
     9
  6
CONTINUOUS
370
    -2
100
AcDbLine
 10
1937.75513281
 20
-505.89605115
 30
0.0
 11
1938.01685347
 21
-505.63433065
 31
0.0
  0
LINE
  5
44E
100
AcDbEntity
  8
Sc.1_5
 62
     9
  6
CONTINUOUS
370
    -2
100
AcDbLine
 10
1941.08846491
 20
-505.89605219
 30
0.0
 11
1941.35018557
 21
-505.6343317
 31
0.0
  0
LINE
  5
44F
100
AcDbEntity
  8
Sc.1_5
 62
     9
  6
CONTINUOUS
370
    -2
100
AcDbLine
 10
1944.42179702
 20
-505.89605324
 30
0.0
 11
1944.68351768
 21
-505.63433274
 31
0.0
  0
LINE
  5
450
100
AcDbEntity
  8
Sc.1_5
 62
     9
  6
CONTINUOUS
370
    -2
100
AcDbLine
 10
1947.75512913
 20
-505.89605428
 30
0.0
 11
1948.01684978
 21
-505.63433378
 31
0.0
  0
LINE
  5
451
100
AcDbEntity
  8
Sc.1_5
 62
     9
  6
CONTINUOUS
370
    -2
100
AcDbLine
 10
1951.08846123
 20
-505.89605532
 30
0.0
 11
1951.35018189
 21
-505.63433483
 31
0.0
  0
LINE
  5
452
100
AcDbEntity
  8
Sc.1_5
 62
     9
  6
CONTINUOUS
370
    -2
100
AcDbLine
 10
1954.42179334
 20
-505.89605637
 30
0.0
 11
1954.683514
 21
-505.63433587
 31
0.0
  0
LINE
  5
453
100
AcDbEntity
  8
Sc.1_5
 62
     9
  6
CONTINUOUS
370
    -2
100
AcDbLine
 10
1957.75512544
 20
-505.89605741
 30
0.0
 11
1958.0168461
 21
-505.63433692
 31
0.0
  0
LINE
  5
454
100
AcDbEntity
  8
Sc.1_5
 62
     9
  6
CONTINUOUS
370
    -2
100
AcDbLine
 10
1961.08845755
 20
-505.89605846
 30
0.0
 11
1961.35017821
 21
-505.63433796
 31
0.0
  0
LINE
  5
455
100
AcDbEntity
  8
Sc.1_5
 62
     9
  6
CONTINUOUS
370
    -2
100
AcDbLine
 10
1964.42178966
 20
-505.8960595
 30
0.0
 11
1964.68351032
 21
-505.634339
 31
0.0
  0
LINE
  5
456
100
AcDbEntity
  8
Sc.1_5
 62
     9
  6
CONTINUOUS
370
    -2
100
AcDbLine
 10
1967.75512176
 20
-505.89606054
 30
0.0
 11
1968.01684242
 21
-505.63434005
 31
0.0
  0
LINE
  5
457
100
AcDbEntity
  8
Sc.1_5
 62
     9
  6
CONTINUOUS
370
    -2
100
AcDbLine
 10
1971.08845387
 20
-505.89606159
 30
0.0
 11
1971.35017453
 21
-505.63434109
 31
0.0
  0
LINE
  5
458
100
AcDbEntity
  8
Sc.1_5
 62
     9
  6
CONTINUOUS
370
    -2
100
AcDbLine
 10
1974.42178598
 20
-505.89606263
 30
0.0
 11
1974.68350664
 21
-505.63434214
 31
0.0
  0
LINE
  5
459
100
AcDbEntity
  8
Sc.1_5
 62
     9
  6
CONTINUOUS
370
    -2
100
AcDbLine
 10
1977.75511808
 20
-505.89606368
 30
0.0
 11
1978.01683874
 21
-505.63434318
 31
0.0
  0
LINE
  5
45A
100
AcDbEntity
  8
Sc.1_5
 62
     9
  6
CONTINUOUS
370
    -2
100
AcDbLine
 10
1981.08845019
 20
-505.89606472
 30
0.0
 11
1981.35017085
 21
-505.63434422
 31
0.0
  0
LINE
  5
45B
100
AcDbEntity
  8
Sc.1_5
 62
     9
  6
CONTINUOUS
370
    -2
100
AcDbLine
 10
1984.42178229
 20
-505.89606576
 30
0.0
 11
1984.68350295
 21
-505.63434527
 31
0.0
  0
LINE
  5
45C
100
AcDbEntity
  8
Sc.1_5
 62
     9
  6
CONTINUOUS
370
    -2
100
AcDbLine
 10
1987.7551144
 20
-505.89606681
 30
0.0
 11
1988.01683506
 21
-505.63434631
 31
0.0
  0
LINE
  5
45D
100
AcDbEntity
  8
Sc.1_5
 62
     9
  6
CONTINUOUS
370
    -2
100
AcDbLine
 10
1991.08844651
 20
-505.89606785
 30
0.0
 11
1991.35016717
 21
-505.63434736
 31
0.0
  0
LINE
  5
45E
100
AcDbEntity
  8
Sc.1_5
 62
     9
  6
CONTINUOUS
370
    -2
100
AcDbLine
 10
1994.42177861
 20
-505.8960689
 30
0.0
 11
1994.68349927
 21
-505.6343484
 31
0.0
  0
LINE
  5
45F
100
AcDbEntity
  8
Sc.1_5
 62
     9
  6
CONTINUOUS
370
    -2
100
AcDbLine
 10
1997.75511072
 20
-505.89606994
 30
0.0
 11
1998.01683138
 21
-505.63434945
 31
0.0
  0
LINE
  5
460
100
AcDbEntity
  8
Sc.1_5
 62
     9
  6
CONTINUOUS
370
    -2
100
AcDbLine
 10
2001.08844283
 20
-505.89607099
 30
0.0
 11
2001.35016349
 21
-505.63435049
 31
0.0
  0
LINE
  5
461
100
AcDbEntity
  8
Sc.1_5
 62
     9
  6
CONTINUOUS
370
    -2
100
AcDbLine
 10
2004.42177493
 20
-505.89607203
 30
0.0
 11
2004.55033797
 21
-505.76750907
 31
0.0
  0
LINE
  5
462
100
AcDbEntity
  8
Sc.1_5
 62
     9
  6
CONTINUOUS
370
    -2
100
AcDbLine
 10
2003.41713478
 20
-505.63435215
 30
0.0
 11
2003.67885528
 21
-505.89607281
 31
0.0
  0
LINE
  5
463
100
AcDbEntity
  8
Sc.1_5
 62
     9
  6
CONTINUOUS
370
    -2
100
AcDbLine
 10
2000.08380267
 20
-505.63435111
 30
0.0
 11
2000.34552317
 21
-505.89607177
 31
0.0
  0
LINE
  5
464
100
AcDbEntity
  8
Sc.1_5
 62
     9
  6
CONTINUOUS
370
    -2
100
AcDbLine
 10
1996.75047057
 20
-505.63435006
 30
0.0
 11
1997.01219106
 21
-505.89607072
 31
0.0
  0
LINE
  5
465
100
AcDbEntity
  8
Sc.1_5
 62
     9
  6
CONTINUOUS
370
    -2
100
AcDbLine
 10
1993.41713846
 20
-505.63434902
 30
0.0
 11
1993.67885896
 21
-505.89606968
 31
0.0
  0
LINE
  5
466
100
AcDbEntity
  8
Sc.1_5
 62
     9
  6
CONTINUOUS
370
    -2
100
AcDbLine
 10
1990.08380636
 20
-505.63434797
 30
0.0
 11
1990.34552685
 21
-505.89606863
 31
0.0
  0
LINE
  5
467
100
AcDbEntity
  8
Sc.1_5
 62
     9
  6
CONTINUOUS
370
    -2
100
AcDbLine
 10
1986.75047425
 20
-505.63434693
 30
0.0
 11
1987.01219474
 21
-505.89606759
 31
0.0
  0
LINE
  5
468
100
AcDbEntity
  8
Sc.1_5
 62
     9
  6
CONTINUOUS
370
    -2
100
AcDbLine
 10
1983.41714214
 20
-505.63434589
 30
0.0
 11
1983.67886264
 21
-505.89606655
 31
0.0
  0
LINE
  5
469
100
AcDbEntity
  8
Sc.1_5
 62
     9
  6
CONTINUOUS
370
    -2
100
AcDbLine
 10
1980.08381004
 20
-505.63434484
 30
0.0
 11
1980.34553053
 21
-505.8960655
 31
0.0
  0
LINE
  5
46A
100
AcDbEntity
  8
Sc.1_5
 62
     9
  6
CONTINUOUS
370
    -2
100
AcDbLine
 10
1976.75047793
 20
-505.6343438
 30
0.0
 11
1977.01219843
 21
-505.89606446
 31
0.0
  0
LINE
  5
46B
100
AcDbEntity
  8
Sc.1_5
 62
     9
  6
CONTINUOUS
370
    -2
100
AcDbLine
 10
1973.41714582
 20
-505.63434275
 30
0.0
 11
1973.67886632
 21
-505.89606341
 31
0.0
  0
LINE
  5
46C
100
AcDbEntity
  8
Sc.1_5
 62
     9
  6
CONTINUOUS
370
    -2
100
AcDbLine
 10
1970.08381372
 20
-505.63434171
 30
0.0
 11
1970.34553421
 21
-505.89606237
 31
0.0
  0
LINE
  5
46D
100
AcDbEntity
  8
Sc.1_5
 62
     9
  6
CONTINUOUS
370
    -2
100
AcDbLine
 10
1966.75048161
 20
-505.63434067
 30
0.0
 11
1967.01220211
 21
-505.89606133
 31
0.0
  0
LINE
  5
46E
100
AcDbEntity
  8
Sc.1_5
 62
     9
  6
CONTINUOUS
370
    -2
100
AcDbLine
 10
1963.4171495
 20
-505.63433962
 30
0.0
 11
1963.67887
 21
-505.89606028
 31
0.0
  0
LINE
  5
46F
100
AcDbEntity
  8
Sc.1_5
 62
     9
  6
CONTINUOUS
370
    -2
100
AcDbLine
 10
1960.0838174
 20
-505.63433858
 30
0.0
 11
1960.34553789
 21
-505.89605924
 31
0.0
  0
LINE
  5
470
100
AcDbEntity
  8
Sc.1_5
 62
     9
  6
CONTINUOUS
370
    -2
100
AcDbLine
 10
1956.75048529
 20
-505.63433753
 30
0.0
 11
1957.01220579
 21
-505.89605819
 31
0.0
  0
LINE
  5
471
100
AcDbEntity
  8
Sc.1_5
 62
     9
  6
CONTINUOUS
370
    -2
100
AcDbLine
 10
1953.41715319
 20
-505.63433649
 30
0.0
 11
1953.67887368
 21
-505.89605715
 31
0.0
  0
LINE
  5
472
100
AcDbEntity
  8
Sc.1_5
 62
     9
  6
CONTINUOUS
370
    -2
100
AcDbLine
 10
1950.08382108
 20
-505.63433545
 30
0.0
 11
1950.34554158
 21
-505.89605611
 31
0.0
  0
LINE
  5
473
100
AcDbEntity
  8
Sc.1_5
 62
     9
  6
CONTINUOUS
370
    -2
100
AcDbLine
 10
1946.75048897
 20
-505.6343344
 30
0.0
 11
1947.01220947
 21
-505.89605506
 31
0.0
  0
LINE
  5
474
100
AcDbEntity
  8
Sc.1_5
 62
     9
  6
CONTINUOUS
370
    -2
100
AcDbLine
 10
1943.41715687
 20
-505.63433336
 30
0.0
 11
1943.67887736
 21
-505.89605402
 31
0.0
  0
LINE
  5
475
100
AcDbEntity
  8
Sc.1_5
 62
     9
  6
CONTINUOUS
370
    -2
100
AcDbLine
 10
1940.08382476
 20
-505.63433231
 30
0.0
 11
1940.34554526
 21
-505.89605297
 31
0.0
  0
LINE
  5
476
100
AcDbEntity
  8
Sc.1_5
 62
     9
  6
CONTINUOUS
370
    -2
100
AcDbLine
 10
1936.75049265
 20
-505.63433127
 30
0.0
 11
1937.01221315
 21
-505.89605193
 31
0.0
  0
LINE
  5
477
100
AcDbEntity
  8
Sc.1_5
 62
     9
  6
CONTINUOUS
370
    -2
100
AcDbLine
 10
1935.34554448
 20
-514.6863439
 30
0.0
 11
1935.56089518
 21
-514.36331808
 31
0.0
  0
LINE
  5
478
100
AcDbEntity
  8
Sc.1_5
 62
     9
  6
CONTINUOUS
370
    -2
100
AcDbLine
 10
1938.6788762
 20
-514.68634457
 30
0.0
 11
1938.89422689
 21
-514.36331874
 31
0.0
  0
LINE
  5
479
100
AcDbEntity
  8
Sc.1_5
 62
     9
  6
CONTINUOUS
370
    -2
100
AcDbLine
 10
1942.01220791
 20
-514.68634523
 30
0.0
 11
1942.2275586
 21
-514.36331941
 31
0.0
  0
LINE
  5
47A
100
AcDbEntity
  8
Sc.1_5
 62
     9
  6
CONTINUOUS
370
    -2
100
AcDbLine
 10
1945.34553962
 20
-514.6863459
 30
0.0
 11
1945.56089032
 21
-514.36332008
 31
0.0
  0
LINE
  5
47B
100
AcDbEntity
  8
Sc.1_5
 62
     9
  6
CONTINUOUS
370
    -2
100
AcDbLine
 10
1948.67887134
 20
-514.68634657
 30
0.0
 11
1948.89422203
 21
-514.36332074
 31
0.0
  0
LINE
  5
47C
100
AcDbEntity
  8
Sc.1_5
 62
     9
  6
CONTINUOUS
370
    -2
100
AcDbLine
 10
1952.01220305
 20
-514.68634723
 30
0.0
 11
1952.22755374
 21
-514.36332141
 31
0.0
  0
LINE
  5
47D
100
AcDbEntity
  8
Sc.1_5
 62
     9
  6
CONTINUOUS
370
    -2
100
AcDbLine
 10
1955.34553476
 20
-514.6863479
 30
0.0
 11
1955.56088546
 21
-514.36332208
 31
0.0
  0
LINE
  5
47E
100
AcDbEntity
  8
Sc.1_5
 62
     9
  6
CONTINUOUS
370
    -2
100
AcDbLine
 10
1958.67886648
 20
-514.68634857
 30
0.0
 11
1958.89421717
 21
-514.36332274
 31
0.0
  0
LINE
  5
47F
100
AcDbEntity
  8
Sc.1_5
 62
     9
  6
CONTINUOUS
370
    -2
100
AcDbLine
 10
1962.01219819
 20
-514.68634923
 30
0.0
 11
1962.22754888
 21
-514.36332341
 31
0.0
  0
LINE
  5
480
100
AcDbEntity
  8
Sc.1_5
 62
     9
  6
CONTINUOUS
370
    -2
100
AcDbLine
 10
1965.3455299
 20
-514.6863499
 30
0.0
 11
1965.5608806
 21
-514.36332408
 31
0.0
  0
LINE
  5
481
100
AcDbEntity
  8
Sc.1_5
 62
     9
  6
CONTINUOUS
370
    -2
100
AcDbLine
 10
1968.67886162
 20
-514.68635057
 30
0.0
 11
1968.89421231
 21
-514.36332474
 31
0.0
  0
LINE
  5
482
100
AcDbEntity
  8
Sc.1_5
 62
     9
  6
CONTINUOUS
370
    -2
100
AcDbLine
 10
1972.01219333
 20
-514.68635123
 30
0.0
 11
1972.22754402
 21
-514.36332541
 31
0.0
  0
LINE
  5
483
100
AcDbEntity
  8
Sc.1_5
 62
     9
  6
CONTINUOUS
370
    -2
100
AcDbLine
 10
1975.34552504
 20
-514.6863519
 30
0.0
 11
1975.56087574
 21
-514.36332608
 31
0.0
  0
LINE
  5
484
100
AcDbEntity
  8
Sc.1_5
 62
     9
  6
CONTINUOUS
370
    -2
100
AcDbLine
 10
1978.67885676
 20
-514.68635257
 30
0.0
 11
1978.89420745
 21
-514.36332674
 31
0.0
  0
LINE
  5
485
100
AcDbEntity
  8
Sc.1_5
 62
     9
  6
CONTINUOUS
370
    -2
100
AcDbLine
 10
1982.01218847
 20
-514.68635323
 30
0.0
 11
1982.22753917
 21
-514.36332741
 31
0.0
  0
LINE
  5
486
100
AcDbEntity
  8
Sc.1_5
 62
     9
  6
CONTINUOUS
370
    -2
100
AcDbLine
 10
1985.34552018
 20
-514.6863539
 30
0.0
 11
1985.56087088
 21
-514.36332808
 31
0.0
  0
LINE
  5
487
100
AcDbEntity
  8
Sc.1_5
 62
     9
  6
CONTINUOUS
370
    -2
100
AcDbLine
 10
1988.6788519
 20
-514.68635457
 30
0.0
 11
1988.89420259
 21
-514.36332874
 31
0.0
  0
LINE
  5
488
100
AcDbEntity
  8
Sc.1_5
 62
     9
  6
CONTINUOUS
370
    -2
100
AcDbLine
 10
1992.01218361
 20
-514.68635524
 30
0.0
 11
1992.22753431
 21
-514.36332941
 31
0.0
  0
LINE
  5
489
100
AcDbEntity
  8
Sc.1_5
 62
     9
  6
CONTINUOUS
370
    -2
100
AcDbLine
 10
1995.34551532
 20
-514.6863559
 30
0.0
 11
1995.56086602
 21
-514.36333008
 31
0.0
  0
LINE
  5
48A
100
AcDbEntity
  8
Sc.1_5
 62
     9
  6
CONTINUOUS
370
    -2
100
AcDbLine
 10
1998.67884704
 20
-514.68635657
 30
0.0
 11
1998.89419773
 21
-514.36333074
 31
0.0
  0
LINE
  5
48B
100
AcDbEntity
  8
Sc.1_5
 62
     9
  6
CONTINUOUS
370
    -2
100
AcDbLine
 10
2002.01217875
 20
-514.68635724
 30
0.0
 11
2002.22752945
 21
-514.36333141
 31
0.0
  0
LINE
  5
48C
100
AcDbEntity
  8
Sc.1_5
 62
     9
  6
CONTINUOUS
370
    -2
100
AcDbLine
 10
1936.08846354
 20
-514.68634473
 30
0.0
 11
1935.87311307
 21
-514.36331876
 31
0.0
  0
LINE
  5
48D
100
AcDbEntity
  8
Sc.1_5
 62
     9
  6
CONTINUOUS
370
    -2
100
AcDbLine
 10
1939.42179525
 20
-514.68634638
 30
0.0
 11
1939.20644478
 21
-514.3633204
 31
0.0
  0
LINE
  5
48E
100
AcDbEntity
  8
Sc.1_5
 62
     9
  6
CONTINUOUS
370
    -2
100
AcDbLine
 10
1942.75512697
 20
-514.68634802
 30
0.0
 11
1942.5397765
 21
-514.36332205
 31
0.0
  0
LINE
  5
48F
100
AcDbEntity
  8
Sc.1_5
 62
     9
  6
CONTINUOUS
370
    -2
100
AcDbLine
 10
1946.08845868
 20
-514.68634966
 30
0.0
 11
1945.87310821
 21
-514.36332369
 31
0.0
  0
LINE
  5
490
100
AcDbEntity
  8
Sc.1_5
 62
     9
  6
CONTINUOUS
370
    -2
100
AcDbLine
 10
1949.42179039
 20
-514.68635131
 30
0.0
 11
1949.20643992
 21
-514.36332533
 31
0.0
  0
LINE
  5
491
100
AcDbEntity
  8
Sc.1_5
 62
     9
  6
CONTINUOUS
370
    -2
100
AcDbLine
 10
1952.75512211
 20
-514.68635295
 30
0.0
 11
1952.53977164
 21
-514.36332698
 31
0.0
  0
LINE
  5
492
100
AcDbEntity
  8
Sc.1_5
 62
     9
  6
CONTINUOUS
370
    -2
100
AcDbLine
 10
1956.08845382
 20
-514.68635459
 30
0.0
 11
1955.87310335
 21
-514.36332862
 31
0.0
  0
LINE
  5
493
100
AcDbEntity
  8
Sc.1_5
 62
     9
  6
CONTINUOUS
370
    -2
100
AcDbLine
 10
1959.42178553
 20
-514.68635624
 30
0.0
 11
1959.20643506
 21
-514.36333026
 31
0.0
  0
LINE
  5
494
100
AcDbEntity
  8
Sc.1_5
 62
     9
  6
CONTINUOUS
370
    -2
100
AcDbLine
 10
1962.75511725
 20
-514.68635788
 30
0.0
 11
1962.53976678
 21
-514.36333191
 31
0.0
  0
LINE
  5
495
100
AcDbEntity
  8
Sc.1_5
 62
     9
  6
CONTINUOUS
370
    -2
100
AcDbLine
 10
1966.08844896
 20
-514.68635952
 30
0.0
 11
1965.87309849
 21
-514.36333355
 31
0.0
  0
LINE
  5
496
100
AcDbEntity
  8
Sc.1_5
 62
     9
  6
CONTINUOUS
370
    -2
100
AcDbLine
 10
1969.42178067
 20
-514.68636117
 30
0.0
 11
1969.2064302
 21
-514.36333519
 31
0.0
  0
LINE
  5
497
100
AcDbEntity
  8
Sc.1_5
 62
     9
  6
CONTINUOUS
370
    -2
100
AcDbLine
 10
1972.75511239
 20
-514.68636281
 30
0.0
 11
1972.53976192
 21
-514.36333684
 31
0.0
  0
LINE
  5
498
100
AcDbEntity
  8
Sc.1_5
 62
     9
  6
CONTINUOUS
370
    -2
100
AcDbLine
 10
1976.0884441
 20
-514.68636445
 30
0.0
 11
1975.87309363
 21
-514.36333848
 31
0.0
  0
LINE
  5
499
100
AcDbEntity
  8
Sc.1_5
 62
     9
  6
CONTINUOUS
370
    -2
100
AcDbLine
 10
1979.42177581
 20
-514.6863661
 30
0.0
 11
1979.20642534
 21
-514.36334012
 31
0.0
  0
LINE
  5
49A
100
AcDbEntity
  8
Sc.1_5
 62
     9
  6
CONTINUOUS
370
    -2
100
AcDbLine
 10
1982.75510753
 20
-514.68636774
 30
0.0
 11
1982.53975706
 21
-514.36334177
 31
0.0
  0
LINE
  5
49B
100
AcDbEntity
  8
Sc.1_5
 62
     9
  6
CONTINUOUS
370
    -2
100
AcDbLine
 10
1986.08843924
 20
-514.68636938
 30
0.0
 11
1985.87308877
 21
-514.36334341
 31
0.0
  0
LINE
  5
49C
100
AcDbEntity
  8
Sc.1_5
 62
     9
  6
CONTINUOUS
370
    -2
100
AcDbLine
 10
1989.42177095
 20
-514.68637103
 30
0.0
 11
1989.20642048
 21
-514.36334505
 31
0.0
  0
LINE
  5
49D
100
AcDbEntity
  8
Sc.1_5
 62
     9
  6
CONTINUOUS
370
    -2
100
AcDbLine
 10
1992.75510267
 20
-514.68637267
 30
0.0
 11
1992.5397522
 21
-514.3633467
 31
0.0
  0
LINE
  5
49E
100
AcDbEntity
  8
Sc.1_5
 62
     9
  6
CONTINUOUS
370
    -2
100
AcDbLine
 10
1996.08843438
 20
-514.68637431
 30
0.0
 11
1995.87308391
 21
-514.36334834
 31
0.0
  0
LINE
  5
49F
100
AcDbEntity
  8
Sc.1_5
 62
     9
  6
CONTINUOUS
370
    -2
100
AcDbLine
 10
1999.42176609
 20
-514.68637596
 30
0.0
 11
1999.20641562
 21
-514.36334998
 31
0.0
  0
LINE
  5
4A0
100
AcDbEntity
  8
Sc.1_5
 62
     9
  6
CONTINUOUS
370
    -2
100
AcDbLine
 10
2002.75509781
 20
-514.6863776
 30
0.0
 11
2002.53974734
 21
-514.36335163
 31
0.0
  0
LINE
  5
4A1
100
AcDbEntity
  8
Sc.1_5
 62
     9
  6
CONTINUOUS
370
    -2
100
AcDbLine
 10
1934.20644973
 20
-506.21907652
 30
0.0
 11
1934.42180042
 21
-505.8960507
 31
0.0
  0
LINE
  5
4A2
100
AcDbEntity
  8
Sc.1_5
 62
     9
  6
CONTINUOUS
370
    -2
100
AcDbLine
 10
1937.53978144
 20
-506.21907719
 30
0.0
 11
1937.75513214
 21
-505.89605136
 31
0.0
  0
LINE
  5
4A3
100
AcDbEntity
  8
Sc.1_5
 62
     9
  6
CONTINUOUS
370
    -2
100
AcDbLine
 10
1940.87311316
 20
-506.21907785
 30
0.0
 11
1941.08846385
 21
-505.89605203
 31
0.0
  0
LINE
  5
4A4
100
AcDbEntity
  8
Sc.1_5
 62
     9
  6
CONTINUOUS
370
    -2
100
AcDbLine
 10
1944.20644487
 20
-506.21907852
 30
0.0
 11
1944.42179556
 21
-505.8960527
 31
0.0
  0
LINE
  5
4A5
100
AcDbEntity
  8
Sc.1_5
 62
     9
  6
CONTINUOUS
370
    -2
100
AcDbLine
 10
1947.53977658
 20
-506.21907919
 30
0.0
 11
1947.75512728
 21
-505.89605336
 31
0.0
  0
LINE
  5
4A6
100
AcDbEntity
  8
Sc.1_5
 62
     9
  6
CONTINUOUS
370
    -2
100
AcDbLine
 10
1950.8731083
 20
-506.21907985
 30
0.0
 11
1951.08845899
 21
-505.89605403
 31
0.0
  0
LINE
  5
4A7
100
AcDbEntity
  8
Sc.1_5
 62
     9
  6
CONTINUOUS
370
    -2
100
AcDbLine
 10
1954.20644001
 20
-506.21908052
 30
0.0
 11
1954.4217907
 21
-505.8960547
 31
0.0
  0
LINE
  5
4A8
100
AcDbEntity
  8
Sc.1_5
 62
     9
  6
CONTINUOUS
370
    -2
100
AcDbLine
 10
1957.53977172
 20
-506.21908119
 30
0.0
 11
1957.75512242
 21
-505.89605536
 31
0.0
  0
LINE
  5
4A9
100
AcDbEntity
  8
Sc.1_5
 62
     9
  6
CONTINUOUS
370
    -2
100
AcDbLine
 10
1960.87310344
 20
-506.21908185
 30
0.0
 11
1961.08845413
 21
-505.89605603
 31
0.0
  0
LINE
  5
4AA
100
AcDbEntity
  8
Sc.1_5
 62
     9
  6
CONTINUOUS
370
    -2
100
AcDbLine
 10
1964.20643515
 20
-506.21908252
 30
0.0
 11
1964.42178584
 21
-505.8960567
 31
0.0
  0
LINE
  5
4AB
100
AcDbEntity
  8
Sc.1_5
 62
     9
  6
CONTINUOUS
370
    -2
100
AcDbLine
 10
1967.53976686
 20
-506.21908319
 30
0.0
 11
1967.75511756
 21
-505.89605736
 31
0.0
  0
LINE
  5
4AC
100
AcDbEntity
  8
Sc.1_5
 62
     9
  6
CONTINUOUS
370
    -2
100
AcDbLine
 10
1970.87309858
 20
-506.21908385
 30
0.0
 11
1971.08844927
 21
-505.89605803
 31
0.0
  0
LINE
  5
4AD
100
AcDbEntity
  8
Sc.1_5
 62
     9
  6
CONTINUOUS
370
    -2
100
AcDbLine
 10
1974.20643029
 20
-506.21908452
 30
0.0
 11
1974.42178098
 21
-505.8960587
 31
0.0
  0
LINE
  5
4AE
100
AcDbEntity
  8
Sc.1_5
 62
     9
  6
CONTINUOUS
370
    -2
100
AcDbLine
 10
1977.539762
 20
-506.21908519
 30
0.0
 11
1977.7551127
 21
-505.89605936
 31
0.0
  0
LINE
  5
4AF
100
AcDbEntity
  8
Sc.1_5
 62
     9
  6
CONTINUOUS
370
    -2
100
AcDbLine
 10
1980.87309372
 20
-506.21908585
 30
0.0
 11
1981.08844441
 21
-505.89606003
 31
0.0
  0
LINE
  5
4B0
100
AcDbEntity
  8
Sc.1_5
 62
     9
  6
CONTINUOUS
370
    -2
100
AcDbLine
 10
1984.20642543
 20
-506.21908652
 30
0.0
 11
1984.42177612
 21
-505.8960607
 31
0.0
  0
LINE
  5
4B1
100
AcDbEntity
  8
Sc.1_5
 62
     9
  6
CONTINUOUS
370
    -2
100
AcDbLine
 10
1987.53975714
 20
-506.21908719
 30
0.0
 11
1987.75510784
 21
-505.89606136
 31
0.0
  0
LINE
  5
4B2
100
AcDbEntity
  8
Sc.1_5
 62
     9
  6
CONTINUOUS
370
    -2
100
AcDbLine
 10
1990.87308886
 20
-506.21908785
 30
0.0
 11
1991.08843955
 21
-505.89606203
 31
0.0
  0
LINE
  5
4B3
100
AcDbEntity
  8
Sc.1_5
 62
     9
  6
CONTINUOUS
370
    -2
100
AcDbLine
 10
1994.20642057
 20
-506.21908852
 30
0.0
 11
1994.42177126
 21
-505.8960627
 31
0.0
  0
LINE
  5
4B4
100
AcDbEntity
  8
Sc.1_5
 62
     9
  6
CONTINUOUS
370
    -2
100
AcDbLine
 10
1997.53975228
 20
-506.21908919
 30
0.0
 11
1997.75510298
 21
-505.89606336
 31
0.0
  0
LINE
  5
4B5
100
AcDbEntity
  8
Sc.1_5
 62
     9
  6
CONTINUOUS
370
    -2
100
AcDbLine
 10
2000.873084
 20
-506.21908985
 30
0.0
 11
2001.08843469
 21
-505.89606403
 31
0.0
  0
LINE
  5
4B6
100
AcDbEntity
  8
Sc.1_5
 62
     9
  6
CONTINUOUS
370
    -2
100
AcDbLine
 10
2004.20641571
 20
-506.21909052
 30
0.0
 11
2004.4217664
 21
-505.8960647
 31
0.0
  0
LINE
  5
4B7
100
AcDbEntity
  8
Sc.1_5
 62
     9
  6
CONTINUOUS
370
    -2
100
AcDbLine
 10
2003.6788476
 20
-505.89607934
 30
0.0
 11
2003.89419809
 21
-506.2191053
 31
0.0
  0
LINE
  5
4B8
100
AcDbEntity
  8
Sc.1_5
 62
     9
  6
CONTINUOUS
370
    -2
100
AcDbLine
 10
2000.34551588
 20
-505.89607792
 30
0.0
 11
2000.56086637
 21
-506.21910388
 31
0.0
  0
LINE
  5
4B9
100
AcDbEntity
  8
Sc.1_5
 62
     9
  6
CONTINUOUS
370
    -2
100
AcDbLine
 10
1997.01218417
 20
-505.8960765
 30
0.0
 11
1997.22753466
 21
-506.21910246
 31
0.0
  0
LINE
  5
4BA
100
AcDbEntity
  8
Sc.1_5
 62
     9
  6
CONTINUOUS
370
    -2
100
AcDbLine
 10
1993.67885246
 20
-505.89607508
 30
0.0
 11
1993.89420295
 21
-506.21910104
 31
0.0
  0
LINE
  5
4BB
100
AcDbEntity
  8
Sc.1_5
 62
     9
  6
CONTINUOUS
370
    -2
100
AcDbLine
 10
1990.34552074
 20
-505.89607366
 30
0.0
 11
1990.56087123
 21
-506.21909962
 31
0.0
  0
LINE
  5
4BC
100
AcDbEntity
  8
Sc.1_5
 62
     9
  6
CONTINUOUS
370
    -2
100
AcDbLine
 10
1987.01218903
 20
-505.89607224
 30
0.0
 11
1987.22753952
 21
-506.2190982
 31
0.0
  0
LINE
  5
4BD
100
AcDbEntity
  8
Sc.1_5
 62
     9
  6
CONTINUOUS
370
    -2
100
AcDbLine
 10
1983.67885732
 20
-505.89607081
 30
0.0
 11
1983.89420781
 21
-506.21909677
 31
0.0
  0
LINE
  5
4BE
100
AcDbEntity
  8
Sc.1_5
 62
     9
  6
CONTINUOUS
370
    -2
100
AcDbLine
 10
1980.3455256
 20
-505.89606939
 30
0.0
 11
1980.56087609
 21
-506.21909535
 31
0.0
  0
LINE
  5
4BF
100
AcDbEntity
  8
Sc.1_5
 62
     9
  6
CONTINUOUS
370
    -2
100
AcDbLine
 10
1977.01219389
 20
-505.89606797
 30
0.0
 11
1977.22754438
 21
-506.21909393
 31
0.0
  0
LINE
  5
4C0
100
AcDbEntity
  8
Sc.1_5
 62
     9
  6
CONTINUOUS
370
    -2
100
AcDbLine
 10
1973.67886218
 20
-505.89606655
 30
0.0
 11
1973.89421267
 21
-506.21909251
 31
0.0
  0
LINE
  5
4C1
100
AcDbEntity
  8
Sc.1_5
 62
     9
  6
CONTINUOUS
370
    -2
100
AcDbLine
 10
1970.34553046
 20
-505.89606513
 30
0.0
 11
1970.56088095
 21
-506.21909109
 31
0.0
  0
LINE
  5
4C2
100
AcDbEntity
  8
Sc.1_5
 62
     9
  6
CONTINUOUS
370
    -2
100
AcDbLine
 10
1967.01219875
 20
-505.89606371
 30
0.0
 11
1967.22754924
 21
-506.21908967
 31
0.0
  0
LINE
  5
4C3
100
AcDbEntity
  8
Sc.1_5
 62
     9
  6
CONTINUOUS
370
    -2
100
AcDbLine
 10
1963.67886703
 20
-505.89606229
 30
0.0
 11
1963.89421753
 21
-506.21908825
 31
0.0
  0
LINE
  5
4C4
100
AcDbEntity
  8
Sc.1_5
 62
     9
  6
CONTINUOUS
370
    -2
100
AcDbLine
 10
1960.34553532
 20
-505.89606086
 30
0.0
 11
1960.56088581
 21
-506.21908682
 31
0.0
  0
LINE
  5
4C5
100
AcDbEntity
  8
Sc.1_5
 62
     9
  6
CONTINUOUS
370
    -2
100
AcDbLine
 10
1957.01220361
 20
-505.89605944
 30
0.0
 11
1957.2275541
 21
-506.2190854
 31
0.0
  0
LINE
  5
4C6
100
AcDbEntity
  8
Sc.1_5
 62
     9
  6
CONTINUOUS
370
    -2
100
AcDbLine
 10
1953.67887189
 20
-505.89605802
 30
0.0
 11
1953.89422239
 21
-506.21908398
 31
0.0
  0
LINE
  5
4C7
100
AcDbEntity
  8
Sc.1_5
 62
     9
  6
CONTINUOUS
370
    -2
100
AcDbLine
 10
1950.34554018
 20
-505.8960566
 30
0.0
 11
1950.56089067
 21
-506.21908256
 31
0.0
  0
LINE
  5
4C8
100
AcDbEntity
  8
Sc.1_5
 62
     9
  6
CONTINUOUS
370
    -2
100
AcDbLine
 10
1947.01220847
 20
-505.89605518
 30
0.0
 11
1947.22755896
 21
-506.21908114
 31
0.0
  0
LINE
  5
4C9
100
AcDbEntity
  8
Sc.1_5
 62
     9
  6
CONTINUOUS
370
    -2
100
AcDbLine
 10
1943.67887675
 20
-505.89605376
 30
0.0
 11
1943.89422725
 21
-506.21907972
 31
0.0
  0
LINE
  5
4CA
100
AcDbEntity
  8
Sc.1_5
 62
     9
  6
CONTINUOUS
370
    -2
100
AcDbLine
 10
1940.34554504
 20
-505.89605234
 30
0.0
 11
1940.56089553
 21
-506.21907829
 31
0.0
  0
LINE
  5
4CB
100
AcDbEntity
  8
Sc.1_5
 62
     9
  6
CONTINUOUS
370
    -2
100
AcDbLine
 10
1937.01221333
 20
-505.89605091
 30
0.0
 11
1937.22756382
 21
-506.21907687
 31
0.0
  0
LINE
  5
4CC
100
AcDbEntity
  8
Sc.1_5
 62
     9
  6
CONTINUOUS
370
    -2
100
AcDbLine
 10
1935.56089545
 20
-514.36331814
 30
0.0
 11
1935.71700454
 21
-513.89499145
 31
0.0
  0
LINE
  5
4CD
100
AcDbEntity
  8
Sc.1_5
 62
     9
  6
CONTINUOUS
370
    -2
100
AcDbLine
 10
1938.8942274
 20
-514.36331902
 30
0.0
 11
1939.05033649
 21
-513.89499233
 31
0.0
  0
LINE
  5
4CE
100
AcDbEntity
  8
Sc.1_5
 62
     9
  6
CONTINUOUS
370
    -2
100
AcDbLine
 10
1942.22755935
 20
-514.36331989
 30
0.0
 11
1942.38366844
 21
-513.8949932
 31
0.0
  0
LINE
  5
4CF
100
AcDbEntity
  8
Sc.1_5
 62
     9
  6
CONTINUOUS
370
    -2
100
AcDbLine
 10
1945.56089131
 20
-514.36332077
 30
0.0
 11
1945.71700039
 21
-513.89499408
 31
0.0
  0
LINE
  5
4D0
100
AcDbEntity
  8
Sc.1_5
 62
     9
  6
CONTINUOUS
370
    -2
100
AcDbLine
 10
1948.89422326
 20
-514.36332165
 30
0.0
 11
1949.05033234
 21
-513.89499496
 31
0.0
  0
LINE
  5
4D1
100
AcDbEntity
  8
Sc.1_5
 62
     9
  6
CONTINUOUS
370
    -2
100
AcDbLine
 10
1952.22755521
 20
-514.36332252
 30
0.0
 11
1952.38366429
 21
-513.89499583
 31
0.0
  0
LINE
  5
4D2
100
AcDbEntity
  8
Sc.1_5
 62
     9
  6
CONTINUOUS
370
    -2
100
AcDbLine
 10
1955.56088716
 20
-514.3633234
 30
0.0
 11
1955.71699624
 21
-513.89499671
 31
0.0
  0
LINE
  5
4D3
100
AcDbEntity
  8
Sc.1_5
 62
     9
  6
CONTINUOUS
370
    -2
100
AcDbLine
 10
1958.89421911
 20
-514.36332428
 30
0.0
 11
1959.05032819
 21
-513.89499759
 31
0.0
  0
LINE
  5
4D4
100
AcDbEntity
  8
Sc.1_5
 62
     9
  6
CONTINUOUS
370
    -2
100
AcDbLine
 10
1962.22755106
 20
-514.36332516
 30
0.0
 11
1962.38366014
 21
-513.89499846
 31
0.0
  0
LINE
  5
4D5
100
AcDbEntity
  8
Sc.1_5
 62
     9
  6
CONTINUOUS
370
    -2
100
AcDbLine
 10
1965.56088301
 20
-514.36332603
 30
0.0
 11
1965.71699209
 21
-513.89499934
 31
0.0
  0
LINE
  5
4D6
100
AcDbEntity
  8
Sc.1_5
 62
     9
  6
CONTINUOUS
370
    -2
100
AcDbLine
 10
1968.89421496
 20
-514.36332691
 30
0.0
 11
1969.05032404
 21
-513.89500022
 31
0.0
  0
LINE
  5
4D7
100
AcDbEntity
  8
Sc.1_5
 62
     9
  6
CONTINUOUS
370
    -2
100
AcDbLine
 10
1972.22754691
 20
-514.36332779
 30
0.0
 11
1972.38365599
 21
-513.8950011
 31
0.0
  0
LINE
  5
4D8
100
AcDbEntity
  8
Sc.1_5
 62
     9
  6
CONTINUOUS
370
    -2
100
AcDbLine
 10
1975.56087886
 20
-514.36332866
 30
0.0
 11
1975.71698794
 21
-513.89500197
 31
0.0
  0
LINE
  5
4D9
100
AcDbEntity
  8
Sc.1_5
 62
     9
  6
CONTINUOUS
370
    -2
100
AcDbLine
 10
1978.89421081
 20
-514.36332954
 30
0.0
 11
1979.05031989
 21
-513.89500285
 31
0.0
  0
LINE
  5
4DA
100
AcDbEntity
  8
Sc.1_5
 62
     9
  6
CONTINUOUS
370
    -2
100
AcDbLine
 10
1982.22754276
 20
-514.36333042
 30
0.0
 11
1982.38365184
 21
-513.89500373
 31
0.0
  0
LINE
  5
4DB
100
AcDbEntity
  8
Sc.1_5
 62
     9
  6
CONTINUOUS
370
    -2
100
AcDbLine
 10
1985.56087471
 20
-514.36333129
 30
0.0
 11
1985.71698379
 21
-513.8950046
 31
0.0
  0
LINE
  5
4DC
100
AcDbEntity
  8
Sc.1_5
 62
     9
  6
CONTINUOUS
370
    -2
100
AcDbLine
 10
1988.89420666
 20
-514.36333217
 30
0.0
 11
1989.05031574
 21
-513.89500548
 31
0.0
  0
LINE
  5
4DD
100
AcDbEntity
  8
Sc.1_5
 62
     9
  6
CONTINUOUS
370
    -2
100
AcDbLine
 10
1992.22753861
 20
-514.36333305
 30
0.0
 11
1992.38364769
 21
-513.89500636
 31
0.0
  0
LINE
  5
4DE
100
AcDbEntity
  8
Sc.1_5
 62
     9
  6
CONTINUOUS
370
    -2
100
AcDbLine
 10
1995.56087056
 20
-514.36333393
 30
0.0
 11
1995.71697964
 21
-513.89500723
 31
0.0
  0
LINE
  5
4DF
100
AcDbEntity
  8
Sc.1_5
 62
     9
  6
CONTINUOUS
370
    -2
100
AcDbLine
 10
1998.89420251
 20
-514.3633348
 30
0.0
 11
1999.05031159
 21
-513.89500811
 31
0.0
  0
LINE
  5
4E0
100
AcDbEntity
  8
Sc.1_5
 62
     9
  6
CONTINUOUS
370
    -2
100
AcDbLine
 10
2002.22753446
 20
-514.36333568
 30
0.0
 11
2002.38364354
 21
-513.89500899
 31
0.0
  0
LINE
  5
4E1
100
AcDbEntity
  8
Sc.1_5
 62
     9
  6
CONTINUOUS
370
    -2
100
AcDbLine
 10
1935.87311301
 20
-514.3633184
 30
0.0
 11
1935.71700421
 21
-513.89499162
 31
0.0
  0
LINE
  5
4E2
100
AcDbEntity
  8
Sc.1_5
 62
     9
  6
CONTINUOUS
370
    -2
100
AcDbLine
 10
1939.20644496
 20
-514.36331962
 30
0.0
 11
1939.05033616
 21
-513.89499283
 31
0.0
  0
LINE
  5
4E3
100
AcDbEntity
  8
Sc.1_5
 62
     9
  6
CONTINUOUS
370
    -2
100
AcDbLine
 10
1942.53977691
 20
-514.36332083
 30
0.0
 11
1942.38366811
 21
-513.89499404
 31
0.0
  0
LINE
  5
4E4
100
AcDbEntity
  8
Sc.1_5
 62
     9
  6
CONTINUOUS
370
    -2
100
AcDbLine
 10
1945.87310886
 20
-514.36332204
 30
0.0
 11
1945.71700006
 21
-513.89499525
 31
0.0
  0
LINE
  5
4E5
100
AcDbEntity
  8
Sc.1_5
 62
     9
  6
CONTINUOUS
370
    -2
100
AcDbLine
 10
1949.20644081
 20
-514.36332325
 30
0.0
 11
1949.05033201
 21
-513.89499646
 31
0.0
  0
LINE
  5
4E6
100
AcDbEntity
  8
Sc.1_5
 62
     9
  6
CONTINUOUS
370
    -2
100
AcDbLine
 10
1952.53977276
 20
-514.36332446
 30
0.0
 11
1952.38366396
 21
-513.89499767
 31
0.0
  0
LINE
  5
4E7
100
AcDbEntity
  8
Sc.1_5
 62
     9
  6
CONTINUOUS
370
    -2
100
AcDbLine
 10
1955.87310471
 20
-514.36332567
 30
0.0
 11
1955.71699591
 21
-513.89499888
 31
0.0
  0
LINE
  5
4E8
100
AcDbEntity
  8
Sc.1_5
 62
     9
  6
CONTINUOUS
370
    -2
100
AcDbLine
 10
1959.20643666
 20
-514.36332688
 30
0.0
 11
1959.05032786
 21
-513.89500009
 31
0.0
  0
LINE
  5
4E9
100
AcDbEntity
  8
Sc.1_5
 62
     9
  6
CONTINUOUS
370
    -2
100
AcDbLine
 10
1962.53976861
 20
-514.36332809
 30
0.0
 11
1962.38365981
 21
-513.8950013
 31
0.0
  0
LINE
  5
4EA
100
AcDbEntity
  8
Sc.1_5
 62
     9
  6
CONTINUOUS
370
    -2
100
AcDbLine
 10
1965.87310056
 20
-514.36332931
 30
0.0
 11
1965.71699176
 21
-513.89500252
 31
0.0
  0
LINE
  5
4EB
100
AcDbEntity
  8
Sc.1_5
 62
     9
  6
CONTINUOUS
370
    -2
100
AcDbLine
 10
1969.20643251
 20
-514.36333052
 30
0.0
 11
1969.05032371
 21
-513.89500373
 31
0.0
  0
LINE
  5
4EC
100
AcDbEntity
  8
Sc.1_5
 62
     9
  6
CONTINUOUS
370
    -2
100
AcDbLine
 10
1972.53976446
 20
-514.36333173
 30
0.0
 11
1972.38365566
 21
-513.89500494
 31
0.0
  0
LINE
  5
4ED
100
AcDbEntity
  8
Sc.1_5
 62
     9
  6
CONTINUOUS
370
    -2
100
AcDbLine
 10
1975.87309641
 20
-514.36333294
 30
0.0
 11
1975.71698761
 21
-513.89500615
 31
0.0
  0
LINE
  5
4EE
100
AcDbEntity
  8
Sc.1_5
 62
     9
  6
CONTINUOUS
370
    -2
100
AcDbLine
 10
1979.20642836
 20
-514.36333415
 30
0.0
 11
1979.05031956
 21
-513.89500736
 31
0.0
  0
LINE
  5
4EF
100
AcDbEntity
  8
Sc.1_5
 62
     9
  6
CONTINUOUS
370
    -2
100
AcDbLine
 10
1982.53976031
 20
-514.36333536
 30
0.0
 11
1982.38365151
 21
-513.89500857
 31
0.0
  0
LINE
  5
4F0
100
AcDbEntity
  8
Sc.1_5
 62
     9
  6
CONTINUOUS
370
    -2
100
AcDbLine
 10
1985.87309226
 20
-514.36333657
 30
0.0
 11
1985.71698346
 21
-513.89500978
 31
0.0
  0
LINE
  5
4F1
100
AcDbEntity
  8
Sc.1_5
 62
     9
  6
CONTINUOUS
370
    -2
100
AcDbLine
 10
1989.20642421
 20
-514.36333778
 30
0.0
 11
1989.05031541
 21
-513.89501099
 31
0.0
  0
LINE
  5
4F2
100
AcDbEntity
  8
Sc.1_5
 62
     9
  6
CONTINUOUS
370
    -2
100
AcDbLine
 10
1992.53975616
 20
-514.363339
 30
0.0
 11
1992.38364736
 21
-513.89501221
 31
0.0
  0
LINE
  5
4F3
100
AcDbEntity
  8
Sc.1_5
 62
     9
  6
CONTINUOUS
370
    -2
100
AcDbLine
 10
1995.87308811
 20
-514.36334021
 30
0.0
 11
1995.71697931
 21
-513.89501342
 31
0.0
  0
LINE
  5
4F4
100
AcDbEntity
  8
Sc.1_5
 62
     9
  6
CONTINUOUS
370
    -2
100
AcDbLine
 10
1999.20642006
 20
-514.36334142
 30
0.0
 11
1999.05031126
 21
-513.89501463
 31
0.0
  0
LINE
  5
4F5
100
AcDbEntity
  8
Sc.1_5
 62
     9
  6
CONTINUOUS
370
    -2
100
AcDbLine
 10
2002.53975201
 20
-514.36334263
 30
0.0
 11
2002.38364321
 21
-513.89501584
 31
0.0
  0
LINE
  5
4F6
100
AcDbEntity
  8
Sc.1_5
 62
     9
  6
CONTINUOUS
370
    -2
100
AcDbLine
 10
1934.05034066
 20
-506.68740279
 30
0.0
 11
1934.20644975
 21
-506.2190761
 31
0.0
  0
LINE
  5
4F7
100
AcDbEntity
  8
Sc.1_5
 62
     9
  6
CONTINUOUS
370
    -2
100
AcDbLine
 10
1937.38367261
 20
-506.68740366
 30
0.0
 11
1937.5397817
 21
-506.21907697
 31
0.0
  0
LINE
  5
4F8
100
AcDbEntity
  8
Sc.1_5
 62
     9
  6
CONTINUOUS
370
    -2
100
AcDbLine
 10
1940.71700456
 20
-506.68740454
 30
0.0
 11
1940.87311365
 21
-506.21907785
 31
0.0
  0
LINE
  5
4F9
100
AcDbEntity
  8
Sc.1_5
 62
     9
  6
CONTINUOUS
370
    -2
100
AcDbLine
 10
1944.05033651
 20
-506.68740542
 30
0.0
 11
1944.2064456
 21
-506.21907873
 31
0.0
  0
LINE
  5
4FA
100
AcDbEntity
  8
Sc.1_5
 62
     9
  6
CONTINUOUS
370
    -2
100
AcDbLine
 10
1947.38366846
 20
-506.6874063
 30
0.0
 11
1947.53977755
 21
-506.2190796
 31
0.0
  0
LINE
  5
4FB
100
AcDbEntity
  8
Sc.1_5
 62
     9
  6
CONTINUOUS
370
    -2
100
AcDbLine
 10
1950.71700041
 20
-506.68740717
 30
0.0
 11
1950.8731095
 21
-506.21908048
 31
0.0
  0
LINE
  5
4FC
100
AcDbEntity
  8
Sc.1_5
 62
     9
  6
CONTINUOUS
370
    -2
100
AcDbLine
 10
1954.05033236
 20
-506.68740805
 30
0.0
 11
1954.20644145
 21
-506.21908136
 31
0.0
  0
LINE
  5
4FD
100
AcDbEntity
  8
Sc.1_5
 62
     9
  6
CONTINUOUS
370
    -2
100
AcDbLine
 10
1957.38366431
 20
-506.68740893
 30
0.0
 11
1957.5397734
 21
-506.21908224
 31
0.0
  0
LINE
  5
4FE
100
AcDbEntity
  8
Sc.1_5
 62
     9
  6
CONTINUOUS
370
    -2
100
AcDbLine
 10
1960.71699626
 20
-506.6874098
 30
0.0
 11
1960.87310535
 21
-506.21908311
 31
0.0
  0
LINE
  5
4FF
100
AcDbEntity
  8
Sc.1_5
 62
     9
  6
CONTINUOUS
370
    -2
100
AcDbLine
 10
1964.05032821
 20
-506.68741068
 30
0.0
 11
1964.2064373
 21
-506.21908399
 31
0.0
  0
LINE
  5
500
100
AcDbEntity
  8
Sc.1_5
 62
     9
  6
CONTINUOUS
370
    -2
100
AcDbLine
 10
1967.38366016
 20
-506.68741156
 30
0.0
 11
1967.53976925
 21
-506.21908487
 31
0.0
  0
LINE
  5
501
100
AcDbEntity
  8
Sc.1_5
 62
     9
  6
CONTINUOUS
370
    -2
100
AcDbLine
 10
1970.71699211
 20
-506.68741243
 30
0.0
 11
1970.8731012
 21
-506.21908574
 31
0.0
  0
LINE
  5
502
100
AcDbEntity
  8
Sc.1_5
 62
     9
  6
CONTINUOUS
370
    -2
100
AcDbLine
 10
1974.05032406
 20
-506.68741331
 30
0.0
 11
1974.20643315
 21
-506.21908662
 31
0.0
  0
LINE
  5
503
100
AcDbEntity
  8
Sc.1_5
 62
     9
  6
CONTINUOUS
370
    -2
100
AcDbLine
 10
1977.38365601
 20
-506.68741419
 30
0.0
 11
1977.5397651
 21
-506.2190875
 31
0.0
  0
LINE
  5
504
100
AcDbEntity
  8
Sc.1_5
 62
     9
  6
CONTINUOUS
370
    -2
100
AcDbLine
 10
1980.71698796
 20
-506.68741507
 30
0.0
 11
1980.87309705
 21
-506.21908837
 31
0.0
  0
LINE
  5
505
100
AcDbEntity
  8
Sc.1_5
 62
     9
  6
CONTINUOUS
370
    -2
100
AcDbLine
 10
1984.05031991
 20
-506.68741594
 30
0.0
 11
1984.206429
 21
-506.21908925
 31
0.0
  0
LINE
  5
506
100
AcDbEntity
  8
Sc.1_5
 62
     9
  6
CONTINUOUS
370
    -2
100
AcDbLine
 10
1987.38365186
 20
-506.68741682
 30
0.0
 11
1987.53976095
 21
-506.21909013
 31
0.0
  0
LINE
  5
507
100
AcDbEntity
  8
Sc.1_5
 62
     9
  6
CONTINUOUS
370
    -2
100
AcDbLine
 10
1990.71698381
 20
-506.6874177
 30
0.0
 11
1990.8730929
 21
-506.21909101
 31
0.0
  0
LINE
  5
508
100
AcDbEntity
  8
Sc.1_5
 62
     9
  6
CONTINUOUS
370
    -2
100
AcDbLine
 10
1994.05031576
 20
-506.68741857
 30
0.0
 11
1994.20642485
 21
-506.21909188
 31
0.0
  0
LINE
  5
509
100
AcDbEntity
  8
Sc.1_5
 62
     9
  6
CONTINUOUS
370
    -2
100
AcDbLine
 10
1997.38364771
 20
-506.68741945
 30
0.0
 11
1997.5397568
 21
-506.21909276
 31
0.0
  0
LINE
  5
50A
100
AcDbEntity
  8
Sc.1_5
 62
     9
  6
CONTINUOUS
370
    -2
100
AcDbLine
 10
2000.71697966
 20
-506.68742033
 30
0.0
 11
2000.87308875
 21
-506.21909364
 31
0.0
  0
LINE
  5
50B
100
AcDbEntity
  8
Sc.1_5
 62
     9
  6
CONTINUOUS
370
    -2
100
AcDbLine
 10
2004.05031161
 20
-506.6874212
 30
0.0
 11
2004.2064207
 21
-506.21909451
 31
0.0
  0
LINE
  5
50C
100
AcDbEntity
  8
Sc.1_5
 62
     9
  6
CONTINUOUS
370
    -2
100
AcDbLine
 10
2003.89420202
 20
-506.21910169
 30
0.0
 11
2004.05031082
 21
-506.68742848
 31
0.0
  0
LINE
  5
50D
100
AcDbEntity
  8
Sc.1_5
 62
     9
  6
CONTINUOUS
370
    -2
100
AcDbLine
 10
2000.56087007
 20
-506.21910048
 30
0.0
 11
2000.71697887
 21
-506.68742727
 31
0.0
  0
LINE
  5
50E
100
AcDbEntity
  8
Sc.1_5
 62
     9
  6
CONTINUOUS
370
    -2
100
AcDbLine
 10
1997.22753812
 20
-506.21909927
 30
0.0
 11
1997.38364692
 21
-506.68742606
 31
0.0
  0
LINE
  5
50F
100
AcDbEntity
  8
Sc.1_5
 62
     9
  6
CONTINUOUS
370
    -2
100
AcDbLine
 10
1993.89420617
 20
-506.21909806
 30
0.0
 11
1994.05031497
 21
-506.68742485
 31
0.0
  0
LINE
  5
510
100
AcDbEntity
  8
Sc.1_5
 62
     9
  6
CONTINUOUS
370
    -2
100
AcDbLine
 10
1990.56087422
 20
-506.21909685
 30
0.0
 11
1990.71698302
 21
-506.68742363
 31
0.0
  0
LINE
  5
511
100
AcDbEntity
  8
Sc.1_5
 62
     9
  6
CONTINUOUS
370
    -2
100
AcDbLine
 10
1987.22754227
 20
-506.21909563
 30
0.0
 11
1987.38365107
 21
-506.68742242
 31
0.0
  0
LINE
  5
512
100
AcDbEntity
  8
Sc.1_5
 62
     9
  6
CONTINUOUS
370
    -2
100
AcDbLine
 10
1983.89421032
 20
-506.21909442
 30
0.0
 11
1984.05031912
 21
-506.68742121
 31
0.0
  0
LINE
  5
513
100
AcDbEntity
  8
Sc.1_5
 62
     9
  6
CONTINUOUS
370
    -2
100
AcDbLine
 10
1980.56087837
 20
-506.21909321
 30
0.0
 11
1980.71698717
 21
-506.68742
 31
0.0
  0
LINE
  5
514
100
AcDbEntity
  8
Sc.1_5
 62
     9
  6
CONTINUOUS
370
    -2
100
AcDbLine
 10
1977.22754642
 20
-506.219092
 30
0.0
 11
1977.38365522
 21
-506.68741879
 31
0.0
  0
LINE
  5
515
100
AcDbEntity
  8
Sc.1_5
 62
     9
  6
CONTINUOUS
370
    -2
100
AcDbLine
 10
1973.89421447
 20
-506.21909079
 30
0.0
 11
1974.05032327
 21
-506.68741758
 31
0.0
  0
LINE
  5
516
100
AcDbEntity
  8
Sc.1_5
 62
     9
  6
CONTINUOUS
370
    -2
100
AcDbLine
 10
1970.56088252
 20
-506.21908958
 30
0.0
 11
1970.71699132
 21
-506.68741637
 31
0.0
  0
LINE
  5
517
100
AcDbEntity
  8
Sc.1_5
 62
     9
  6
CONTINUOUS
370
    -2
100
AcDbLine
 10
1967.22755057
 20
-506.21908837
 30
0.0
 11
1967.38365937
 21
-506.68741516
 31
0.0
  0
LINE
  5
518
100
AcDbEntity
  8
Sc.1_5
 62
     9
  6
CONTINUOUS
370
    -2
100
AcDbLine
 10
1963.89421862
 20
-506.21908716
 30
0.0
 11
1964.05032742
 21
-506.68741394
 31
0.0
  0
LINE
  5
519
100
AcDbEntity
  8
Sc.1_5
 62
     9
  6
CONTINUOUS
370
    -2
100
AcDbLine
 10
1960.56088667
 20
-506.21908594
 30
0.0
 11
1960.71699547
 21
-506.68741273
 31
0.0
  0
LINE
  5
51A
100
AcDbEntity
  8
Sc.1_5
 62
     9
  6
CONTINUOUS
370
    -2
100
AcDbLine
 10
1957.22755472
 20
-506.21908473
 30
0.0
 11
1957.38366352
 21
-506.68741152
 31
0.0
  0
LINE
  5
51B
100
AcDbEntity
  8
Sc.1_5
 62
     9
  6
CONTINUOUS
370
    -2
100
AcDbLine
 10
1953.89422277
 20
-506.21908352
 30
0.0
 11
1954.05033157
 21
-506.68741031
 31
0.0
  0
LINE
  5
51C
100
AcDbEntity
  8
Sc.1_5
 62
     9
  6
CONTINUOUS
370
    -2
100
AcDbLine
 10
1950.56089082
 20
-506.21908231
 30
0.0
 11
1950.71699962
 21
-506.6874091
 31
0.0
  0
LINE
  5
51D
100
AcDbEntity
  8
Sc.1_5
 62
     9
  6
CONTINUOUS
370
    -2
100
AcDbLine
 10
1947.22755887
 20
-506.2190811
 30
0.0
 11
1947.38366767
 21
-506.68740789
 31
0.0
  0
LINE
  5
51E
100
AcDbEntity
  8
Sc.1_5
 62
     9
  6
CONTINUOUS
370
    -2
100
AcDbLine
 10
1943.89422692
 20
-506.21907989
 30
0.0
 11
1944.05033572
 21
-506.68740668
 31
0.0
  0
LINE
  5
51F
100
AcDbEntity
  8
Sc.1_5
 62
     9
  6
CONTINUOUS
370
    -2
100
AcDbLine
 10
1940.56089497
 20
-506.21907868
 30
0.0
 11
1940.71700377
 21
-506.68740547
 31
0.0
  0
LINE
  5
520
100
AcDbEntity
  8
Sc.1_5
 62
     9
  6
CONTINUOUS
370
    -2
100
AcDbLine
 10
1937.22756302
 20
-506.21907747
 30
0.0
 11
1937.38367182
 21
-506.68740425
 31
0.0
  0
LINE
  5
521
100
AcDbEntity
  8
Sc.1_5
 62
     9
  6
CONTINUOUS
370
    -2
100
AcDbLine
 10
1935.71700471
 20
-513.62452549
 30
0.0
 11
1935.75672914
 21
-513.26700682
 31
0.0
  0
LINE
  5
522
100
AcDbEntity
  8
Sc.1_5
 62
     9
  6
CONTINUOUS
370
    -2
100
AcDbLine
 10
1939.05033607
 20
-513.62452246
 30
0.0
 11
1939.0900605
 21
-513.26700379
 31
0.0
  0
LINE
  5
523
100
AcDbEntity
  8
Sc.1_5
 62
     9
  6
CONTINUOUS
370
    -2
100
AcDbLine
 10
1942.38366743
 20
-513.62451943
 30
0.0
 11
1942.42339185
 21
-513.26700077
 31
0.0
  0
LINE
  5
524
100
AcDbEntity
  8
Sc.1_5
 62
     9
  6
CONTINUOUS
370
    -2
100
AcDbLine
 10
1945.71699878
 20
-513.6245164
 30
0.0
 11
1945.75672321
 21
-513.26699774
 31
0.0
  0
LINE
  5
525
100
AcDbEntity
  8
Sc.1_5
 62
     9
  6
CONTINUOUS
370
    -2
100
AcDbLine
 10
1949.05033014
 20
-513.62451337
 30
0.0
 11
1949.09005457
 21
-513.26699471
 31
0.0
  0
LINE
  5
526
100
AcDbEntity
  8
Sc.1_5
 62
     9
  6
CONTINUOUS
370
    -2
100
AcDbLine
 10
1952.3836615
 20
-513.62451034
 30
0.0
 11
1952.42338593
 21
-513.26699168
 31
0.0
  0
LINE
  5
527
100
AcDbEntity
  8
Sc.1_5
 62
     9
  6
CONTINUOUS
370
    -2
100
AcDbLine
 10
1955.71699286
 20
-513.62450731
 30
0.0
 11
1955.75671729
 21
-513.26698865
 31
0.0
  0
LINE
  5
528
100
AcDbEntity
  8
Sc.1_5
 62
     9
  6
CONTINUOUS
370
    -2
100
AcDbLine
 10
1959.05032422
 20
-513.62450428
 30
0.0
 11
1959.09004864
 21
-513.26698562
 31
0.0
  0
LINE
  5
529
100
AcDbEntity
  8
Sc.1_5
 62
     9
  6
CONTINUOUS
370
    -2
100
AcDbLine
 10
1962.38365557
 20
-513.62450125
 30
0.0
 11
1962.42338
 21
-513.26698259
 31
0.0
  0
LINE
  5
52A
100
AcDbEntity
  8
Sc.1_5
 62
     9
  6
CONTINUOUS
370
    -2
100
AcDbLine
 10
1965.71698693
 20
-513.62449822
 30
0.0
 11
1965.75671136
 21
-513.26697956
 31
0.0
  0
LINE
  5
52B
100
AcDbEntity
  8
Sc.1_5
 62
     9
  6
CONTINUOUS
370
    -2
100
AcDbLine
 10
1969.05031829
 20
-513.62449519
 30
0.0
 11
1969.09004272
 21
-513.26697653
 31
0.0
  0
LINE
  5
52C
100
AcDbEntity
  8
Sc.1_5
 62
     9
  6
CONTINUOUS
370
    -2
100
AcDbLine
 10
1972.38364965
 20
-513.62449217
 30
0.0
 11
1972.42337408
 21
-513.2669735
 31
0.0
  0
LINE
  5
52D
100
AcDbEntity
  8
Sc.1_5
 62
     9
  6
CONTINUOUS
370
    -2
100
AcDbLine
 10
1975.71698101
 20
-513.62448914
 30
0.0
 11
1975.75670543
 21
-513.26697047
 31
0.0
  0
LINE
  5
52E
100
AcDbEntity
  8
Sc.1_5
 62
     9
  6
CONTINUOUS
370
    -2
100
AcDbLine
 10
1979.05031236
 20
-513.62448611
 30
0.0
 11
1979.09003679
 21
-513.26696744
 31
0.0
  0
LINE
  5
52F
100
AcDbEntity
  8
Sc.1_5
 62
     9
  6
CONTINUOUS
370
    -2
100
AcDbLine
 10
1982.38364372
 20
-513.62448308
 30
0.0
 11
1982.42336815
 21
-513.26696441
 31
0.0
  0
LINE
  5
530
100
AcDbEntity
  8
Sc.1_5
 62
     9
  6
CONTINUOUS
370
    -2
100
AcDbLine
 10
1985.71697508
 20
-513.62448005
 30
0.0
 11
1985.75669951
 21
-513.26696138
 31
0.0
  0
LINE
  5
531
100
AcDbEntity
  8
Sc.1_5
 62
     9
  6
CONTINUOUS
370
    -2
100
AcDbLine
 10
1989.05030644
 20
-513.62447702
 30
0.0
 11
1989.09003087
 21
-513.26695835
 31
0.0
  0
LINE
  5
532
100
AcDbEntity
  8
Sc.1_5
 62
     9
  6
CONTINUOUS
370
    -2
100
AcDbLine
 10
1992.3836378
 20
-513.62447399
 30
0.0
 11
1992.42336223
 21
-513.26695532
 31
0.0
  0
LINE
  5
533
100
AcDbEntity
  8
Sc.1_5
 62
     9
  6
CONTINUOUS
370
    -2
100
AcDbLine
 10
1995.71696916
 20
-513.62447096
 30
0.0
 11
1995.75669358
 21
-513.26695229
 31
0.0
  0
LINE
  5
534
100
AcDbEntity
  8
Sc.1_5
 62
     9
  6
CONTINUOUS
370
    -2
100
AcDbLine
 10
1999.05030051
 20
-513.62446793
 30
0.0
 11
1999.09002494
 21
-513.26694926
 31
0.0
  0
LINE
  5
535
100
AcDbEntity
  8
Sc.1_5
 62
     9
  6
CONTINUOUS
370
    -2
100
AcDbLine
 10
2002.38363187
 20
-513.6244649
 30
0.0
 11
2002.4233563
 21
-513.26694624
 31
0.0
  0
LINE
  5
536
100
AcDbEntity
  8
Sc.1_5
 62
     9
  6
CONTINUOUS
370
    -2
100
AcDbLine
 10
1935.71700362
 20
-513.62452956
 30
0.0
 11
1935.67727942
 21
-513.26701087
 31
0.0
  0
LINE
  5
537
100
AcDbEntity
  8
Sc.1_5
 62
     9
  6
CONTINUOUS
370
    -2
100
AcDbLine
 10
1939.05033498
 20
-513.62453468
 30
0.0
 11
1939.01061078
 21
-513.26701599
 31
0.0
  0
LINE
  5
538
100
AcDbEntity
  8
Sc.1_5
 62
     9
  6
CONTINUOUS
370
    -2
100
AcDbLine
 10
1942.38366634
 20
-513.6245398
 30
0.0
 11
1942.34394214
 21
-513.26702111
 31
0.0
  0
LINE
  5
539
100
AcDbEntity
  8
Sc.1_5
 62
     9
  6
CONTINUOUS
370
    -2
100
AcDbLine
 10
1945.7169977
 20
-513.62454492
 30
0.0
 11
1945.67727349
 21
-513.26702623
 31
0.0
  0
LINE
  5
53A
100
AcDbEntity
  8
Sc.1_5
 62
     9
  6
CONTINUOUS
370
    -2
100
AcDbLine
 10
1949.05032906
 20
-513.62455003
 30
0.0
 11
1949.01060485
 21
-513.26703134
 31
0.0
  0
LINE
  5
53B
100
AcDbEntity
  8
Sc.1_5
 62
     9
  6
CONTINUOUS
370
    -2
100
AcDbLine
 10
1952.38366042
 20
-513.62455515
 30
0.0
 11
1952.34393621
 21
-513.26703646
 31
0.0
  0
LINE
  5
53C
100
AcDbEntity
  8
Sc.1_5
 62
     9
  6
CONTINUOUS
370
    -2
100
AcDbLine
 10
1955.71699177
 20
-513.62456027
 30
0.0
 11
1955.67726757
 21
-513.26704158
 31
0.0
  0
LINE
  5
53D
100
AcDbEntity
  8
Sc.1_5
 62
     9
  6
CONTINUOUS
370
    -2
100
AcDbLine
 10
1959.05032313
 20
-513.62456539
 30
0.0
 11
1959.01059893
 21
-513.2670467
 31
0.0
  0
LINE
  5
53E
100
AcDbEntity
  8
Sc.1_5
 62
     9
  6
CONTINUOUS
370
    -2
100
AcDbLine
 10
1962.38365449
 20
-513.6245705
 30
0.0
 11
1962.34393029
 21
-513.26705181
 31
0.0
  0
LINE
  5
53F
100
AcDbEntity
  8
Sc.1_5
 62
     9
  6
CONTINUOUS
370
    -2
100
AcDbLine
 10
1965.71698585
 20
-513.62457562
 30
0.0
 11
1965.67726164
 21
-513.26705693
 31
0.0
  0
LINE
  5
540
100
AcDbEntity
  8
Sc.1_5
 62
     9
  6
CONTINUOUS
370
    -2
100
AcDbLine
 10
1969.05031721
 20
-513.62458074
 30
0.0
 11
1969.010593
 21
-513.26706205
 31
0.0
  0
LINE
  5
541
100
AcDbEntity
  8
Sc.1_5
 62
     9
  6
CONTINUOUS
370
    -2
100
AcDbLine
 10
1972.38364856
 20
-513.62458586
 30
0.0
 11
1972.34392436
 21
-513.26706717
 31
0.0
  0
LINE
  5
542
100
AcDbEntity
  8
Sc.1_5
 62
     9
  6
CONTINUOUS
370
    -2
100
AcDbLine
 10
1975.71697992
 20
-513.62459097
 30
0.0
 11
1975.67725572
 21
-513.26707228
 31
0.0
  0
LINE
  5
543
100
AcDbEntity
  8
Sc.1_5
 62
     9
  6
CONTINUOUS
370
    -2
100
AcDbLine
 10
1979.05031128
 20
-513.62459609
 30
0.0
 11
1979.01058708
 21
-513.2670774
 31
0.0
  0
LINE
  5
544
100
AcDbEntity
  8
Sc.1_5
 62
     9
  6
CONTINUOUS
370
    -2
100
AcDbLine
 10
1982.38364264
 20
-513.62460121
 30
0.0
 11
1982.34391843
 21
-513.26708252
 31
0.0
  0
LINE
  5
545
100
AcDbEntity
  8
Sc.1_5
 62
     9
  6
CONTINUOUS
370
    -2
100
AcDbLine
 10
1985.716974
 20
-513.62460633
 30
0.0
 11
1985.67724979
 21
-513.26708764
 31
0.0
  0
LINE
  5
546
100
AcDbEntity
  8
Sc.1_5
 62
     9
  6
CONTINUOUS
370
    -2
100
AcDbLine
 10
1989.05030535
 20
-513.62461145
 30
0.0
 11
1989.01058115
 21
-513.26709276
 31
0.0
  0
LINE
  5
547
100
AcDbEntity
  8
Sc.1_5
 62
     9
  6
CONTINUOUS
370
    -2
100
AcDbLine
 10
1992.38363671
 20
-513.62461656
 30
0.0
 11
1992.34391251
 21
-513.26709787
 31
0.0
  0
LINE
  5
548
100
AcDbEntity
  8
Sc.1_5
 62
     9
  6
CONTINUOUS
370
    -2
100
AcDbLine
 10
1995.71696807
 20
-513.62462168
 30
0.0
 11
1995.67724387
 21
-513.26710299
 31
0.0
  0
LINE
  5
549
100
AcDbEntity
  8
Sc.1_5
 62
     9
  6
CONTINUOUS
370
    -2
100
AcDbLine
 10
1999.05029943
 20
-513.6246268
 30
0.0
 11
1999.01057522
 21
-513.26710811
 31
0.0
  0
LINE
  5
54A
100
AcDbEntity
  8
Sc.1_5
 62
     9
  6
CONTINUOUS
370
    -2
100
AcDbLine
 10
2002.38363079
 20
-513.62463192
 30
0.0
 11
2002.34390658
 21
-513.26711323
 31
0.0
  0
LINE
  5
54B
100
AcDbEntity
  8
Sc.1_5
 62
     9
  6
CONTINUOUS
370
    -2
100
AcDbLine
 10
2004.0502991
 20
-506.95778337
 30
0.0
 11
2004.01057476
 21
-507.31530205
 31
0.0
  0
LINE
  5
54C
100
AcDbEntity
  8
Sc.1_5
 62
     9
  6
CONTINUOUS
370
    -2
100
AcDbLine
 10
2000.71696774
 20
-506.95778729
 30
0.0
 11
2000.67724341
 21
-507.31530596
 31
0.0
  0
LINE
  5
54D
100
AcDbEntity
  8
Sc.1_5
 62
     9
  6
CONTINUOUS
370
    -2
100
AcDbLine
 10
1997.38363638
 20
-506.95779121
 30
0.0
 11
1997.34391205
 21
-507.31530988
 31
0.0
  0
LINE
  5
54E
100
AcDbEntity
  8
Sc.1_5
 62
     9
  6
CONTINUOUS
370
    -2
100
AcDbLine
 10
1994.05030502
 20
-506.95779512
 30
0.0
 11
1994.01058069
 21
-507.3153138
 31
0.0
  0
LINE
  5
54F
100
AcDbEntity
  8
Sc.1_5
 62
     9
  6
CONTINUOUS
370
    -2
100
AcDbLine
 10
1990.71697366
 20
-506.95779904
 30
0.0
 11
1990.67724933
 21
-507.31531772
 31
0.0
  0
LINE
  5
550
100
AcDbEntity
  8
Sc.1_5
 62
     9
  6
CONTINUOUS
370
    -2
100
AcDbLine
 10
1987.38364231
 20
-506.95780296
 30
0.0
 11
1987.34391797
 21
-507.31532163
 31
0.0
  0
LINE
  5
551
100
AcDbEntity
  8
Sc.1_5
 62
     9
  6
CONTINUOUS
370
    -2
100
AcDbLine
 10
1984.05031095
 20
-506.95780688
 30
0.0
 11
1984.01058661
 21
-507.31532555
 31
0.0
  0
LINE
  5
552
100
AcDbEntity
  8
Sc.1_5
 62
     9
  6
CONTINUOUS
370
    -2
100
AcDbLine
 10
1980.71697959
 20
-506.95781079
 30
0.0
 11
1980.67725526
 21
-507.31532947
 31
0.0
  0
LINE
  5
553
100
AcDbEntity
  8
Sc.1_5
 62
     9
  6
CONTINUOUS
370
    -2
100
AcDbLine
 10
1977.38364823
 20
-506.95781471
 30
0.0
 11
1977.3439239
 21
-507.31533338
 31
0.0
  0
LINE
  5
554
100
AcDbEntity
  8
Sc.1_5
 62
     9
  6
CONTINUOUS
370
    -2
100
AcDbLine
 10
1974.05031687
 20
-506.95781863
 30
0.0
 11
1974.01059254
 21
-507.3153373
 31
0.0
  0
LINE
  5
555
100
AcDbEntity
  8
Sc.1_5
 62
     9
  6
CONTINUOUS
370
    -2
100
AcDbLine
 10
1970.71698552
 20
-506.95782254
 30
0.0
 11
1970.67726118
 21
-507.31534122
 31
0.0
  0
LINE
  5
556
100
AcDbEntity
  8
Sc.1_5
 62
     9
  6
CONTINUOUS
370
    -2
100
AcDbLine
 10
1967.38365416
 20
-506.95782646
 30
0.0
 11
1967.34392982
 21
-507.31534514
 31
0.0
  0
LINE
  5
557
100
AcDbEntity
  8
Sc.1_5
 62
     9
  6
CONTINUOUS
370
    -2
100
AcDbLine
 10
1964.0503228
 20
-506.95783038
 30
0.0
 11
1964.01059847
 21
-507.31534905
 31
0.0
  0
LINE
  5
558
100
AcDbEntity
  8
Sc.1_5
 62
     9
  6
CONTINUOUS
370
    -2
100
AcDbLine
 10
1960.71699144
 20
-506.9578343
 30
0.0
 11
1960.67726711
 21
-507.31535297
 31
0.0
  0
LINE
  5
559
100
AcDbEntity
  8
Sc.1_5
 62
     9
  6
CONTINUOUS
370
    -2
100
AcDbLine
 10
1957.38366008
 20
-506.95783821
 30
0.0
 11
1957.34393575
 21
-507.31535689
 31
0.0
  0
LINE
  5
55A
100
AcDbEntity
  8
Sc.1_5
 62
     9
  6
CONTINUOUS
370
    -2
100
AcDbLine
 10
1954.05032872
 20
-506.95784213
 30
0.0
 11
1954.01060439
 21
-507.31536081
 31
0.0
  0
LINE
  5
55B
100
AcDbEntity
  8
Sc.1_5
 62
     9
  6
CONTINUOUS
370
    -2
100
AcDbLine
 10
1950.71699737
 20
-506.95784605
 30
0.0
 11
1950.67727303
 21
-507.31536472
 31
0.0
  0
LINE
  5
55C
100
AcDbEntity
  8
Sc.1_5
 62
     9
  6
CONTINUOUS
370
    -2
100
AcDbLine
 10
1947.38366601
 20
-506.95784996
 30
0.0
 11
1947.34394168
 21
-507.31536864
 31
0.0
  0
LINE
  5
55D
100
AcDbEntity
  8
Sc.1_5
 62
     9
  6
CONTINUOUS
370
    -2
100
AcDbLine
 10
1944.05033465
 20
-506.95785388
 30
0.0
 11
1944.01061032
 21
-507.31537256
 31
0.0
  0
LINE
  5
55E
100
AcDbEntity
  8
Sc.1_5
 62
     9
  6
CONTINUOUS
370
    -2
100
AcDbLine
 10
1940.71700329
 20
-506.9578578
 30
0.0
 11
1940.67727896
 21
-507.31537647
 31
0.0
  0
LINE
  5
55F
100
AcDbEntity
  8
Sc.1_5
 62
     9
  6
CONTINUOUS
370
    -2
100
AcDbLine
 10
1937.38367193
 20
-506.95786172
 30
0.0
 11
1937.3439476
 21
-507.31538039
 31
0.0
  0
LINE
  5
560
100
AcDbEntity
  8
Sc.1_5
 62
     9
  6
CONTINUOUS
370
    -2
100
AcDbLine
 10
1934.05034058
 20
-506.95786563
 30
0.0
 11
1934.05033797
 21
-506.95788912
 31
0.0
  0
LINE
  5
561
100
AcDbEntity
  8
Sc.1_5
 62
     9
  6
CONTINUOUS
370
    -2
100
AcDbLine
 10
2004.0502991
 20
-506.9579731
 30
0.0
 11
2004.0900233
 21
-507.31549179
 31
0.0
  0
LINE
  5
562
100
AcDbEntity
  8
Sc.1_5
 62
     9
  6
CONTINUOUS
370
    -2
100
AcDbLine
 10
2000.71696774
 20
-506.95796799
 30
0.0
 11
2000.75669194
 21
-507.31548668
 31
0.0
  0
LINE
  5
563
100
AcDbEntity
  8
Sc.1_5
 62
     9
  6
CONTINUOUS
370
    -2
100
AcDbLine
 10
1997.38363638
 20
-506.95796287
 30
0.0
 11
1997.42336058
 21
-507.31548156
 31
0.0
  0
LINE
  5
564
100
AcDbEntity
  8
Sc.1_5
 62
     9
  6
CONTINUOUS
370
    -2
100
AcDbLine
 10
1994.05030502
 20
-506.95795775
 30
0.0
 11
1994.09002923
 21
-507.31547644
 31
0.0
  0
LINE
  5
565
100
AcDbEntity
  8
Sc.1_5
 62
     9
  6
CONTINUOUS
370
    -2
100
AcDbLine
 10
1990.71697366
 20
-506.95795263
 30
0.0
 11
1990.75669787
 21
-507.31547132
 31
0.0
  0
LINE
  5
566
100
AcDbEntity
  8
Sc.1_5
 62
     9
  6
CONTINUOUS
370
    -2
100
AcDbLine
 10
1987.38364231
 20
-506.95794752
 30
0.0
 11
1987.42336651
 21
-507.3154662
 31
0.0
  0
LINE
  5
567
100
AcDbEntity
  8
Sc.1_5
 62
     9
  6
CONTINUOUS
370
    -2
100
AcDbLine
 10
1984.05031095
 20
-506.9579424
 30
0.0
 11
1984.09003515
 21
-507.31546109
 31
0.0
  0
LINE
  5
568
100
AcDbEntity
  8
Sc.1_5
 62
     9
  6
CONTINUOUS
370
    -2
100
AcDbLine
 10
1980.71697959
 20
-506.95793728
 30
0.0
 11
1980.75670379
 21
-507.31545597
 31
0.0
  0
LINE
  5
569
100
AcDbEntity
  8
Sc.1_5
 62
     9
  6
CONTINUOUS
370
    -2
100
AcDbLine
 10
1977.38364823
 20
-506.95793216
 30
0.0
 11
1977.42337244
 21
-507.31545085
 31
0.0
  0
LINE
  5
56A
100
AcDbEntity
  8
Sc.1_5
 62
     9
  6
CONTINUOUS
370
    -2
100
AcDbLine
 10
1974.05031687
 20
-506.95792704
 30
0.0
 11
1974.09004108
 21
-507.31544573
 31
0.0
  0
LINE
  5
56B
100
AcDbEntity
  8
Sc.1_5
 62
     9
  6
CONTINUOUS
370
    -2
100
AcDbLine
 10
1970.71698552
 20
-506.95792193
 30
0.0
 11
1970.75670972
 21
-507.31544062
 31
0.0
  0
LINE
  5
56C
100
AcDbEntity
  8
Sc.1_5
 62
     9
  6
CONTINUOUS
370
    -2
100
AcDbLine
 10
1967.38365416
 20
-506.95791681
 30
0.0
 11
1967.42337836
 21
-507.3154355
 31
0.0
  0
LINE
  5
56D
100
AcDbEntity
  8
Sc.1_5
 62
     9
  6
CONTINUOUS
370
    -2
100
AcDbLine
 10
1964.0503228
 20
-506.95791169
 30
0.0
 11
1964.090047
 21
-507.31543038
 31
0.0
  0
LINE
  5
56E
100
AcDbEntity
  8
Sc.1_5
 62
     9
  6
CONTINUOUS
370
    -2
100
AcDbLine
 10
1960.71699144
 20
-506.95790657
 30
0.0
 11
1960.75671564
 21
-507.31542526
 31
0.0
  0
LINE
  5
56F
100
AcDbEntity
  8
Sc.1_5
 62
     9
  6
CONTINUOUS
370
    -2
100
AcDbLine
 10
1957.38366008
 20
-506.95790146
 30
0.0
 11
1957.42338429
 21
-507.31542015
 31
0.0
  0
LINE
  5
570
100
AcDbEntity
  8
Sc.1_5
 62
     9
  6
CONTINUOUS
370
    -2
100
AcDbLine
 10
1954.05032872
 20
-506.95789634
 30
0.0
 11
1954.09005293
 21
-507.31541503
 31
0.0
  0
LINE
  5
571
100
AcDbEntity
  8
Sc.1_5
 62
     9
  6
CONTINUOUS
370
    -2
100
AcDbLine
 10
1950.71699737
 20
-506.95789122
 30
0.0
 11
1950.75672157
 21
-507.31540991
 31
0.0
  0
LINE
  5
572
100
AcDbEntity
  8
Sc.1_5
 62
     9
  6
CONTINUOUS
370
    -2
100
AcDbLine
 10
1947.38366601
 20
-506.9578861
 30
0.0
 11
1947.42339021
 21
-507.31540479
 31
0.0
  0
LINE
  5
573
100
AcDbEntity
  8
Sc.1_5
 62
     9
  6
CONTINUOUS
370
    -2
100
AcDbLine
 10
1944.05033465
 20
-506.95788099
 30
0.0
 11
1944.09005885
 21
-507.31539968
 31
0.0
  0
LINE
  5
574
100
AcDbEntity
  8
Sc.1_5
 62
     9
  6
CONTINUOUS
370
    -2
100
AcDbLine
 10
1940.71700329
 20
-506.95787587
 30
0.0
 11
1940.7567275
 21
-507.31539456
 31
0.0
  0
LINE
  5
575
100
AcDbEntity
  8
Sc.1_5
 62
     9
  6
CONTINUOUS
370
    -2
100
AcDbLine
 10
1937.38367193
 20
-506.95787075
 30
0.0
 11
1937.42339614
 21
-507.31538944
 31
0.0
  0
LINE
  5
576
100
AcDbEntity
  8
Sc.1_5
 62
     9
  6
CONTINUOUS
370
    -2
100
AcDbLine
 10
1934.05034058
 20
-506.95786563
 30
0.0
 11
1934.09006478
 21
-507.31538432
 31
0.0
  0
ENDBLK
  5
577
100
AcDbEntity
100
AcDbBlockEnd
  0
ENDSEC
  0
SECTION
  2
ENTITIES
  0
LINE
  5
578
100
AcDbEntity
  8
Sc.1_5
 62
     7
  6
CONTINUOUS
100
AcDbLine
 10
1915.30033797
 20
-599.58647044
 30
0.0
 11
1915.80033797
 21
-599.58647044
 31
0.0
  0
LINE
  5
579
100
AcDbEntity
  8
Sc.1_5
 62
     7
  6
CONTINUOUS
100
AcDbLine
 10
1878.20043911
 20
-525.79119418
 30
0.0
 11
1882.00043911
 21
-525.79119418
 31
0.0
  0
LINE
  5
57A
100
AcDbEntity
  8
Sc.1_5
 62
     7
  6
CONTINUOUS
100
AcDbLine
 10
1882.00043911
 20
-525.79119418
 30
0.0
 11
1882.00043911
 21
-395.64820575
 31
0.0
  0
LINE
  5
57B
100
AcDbEntity
  8
Sc.1_5
 62
     7
  6
CONTINUOUS
100
AcDbLine
 10
1878.20043911
 20
-395.64820575
 30
0.0
 11
1878.20043911
 21
-525.79119418
 31
0.0
  0
LINE
  5
57C
100
AcDbEntity
  8
Sc.1_5
 62
     7
  6
CONTINUOUS
100
AcDbLine
 10
1880.10043911
 20
-395.64820575
 30
0.0
 11
1880.10043911
 21
-525.79119418
 31
0.0
  0
LINE
  5
57D
100
AcDbEntity
  8
Sc.1_5
 62
     7
  6
CONTINUOUS
100
AcDbLine
 10
1920.35033942
 20
-462.19068662
 30
0.0
 11
1920.35033942
 21
-476.29130924
 31
0.0
  0
LINE
  5
57E
100
AcDbEntity
  8
Sc.1_5
 62
     7
  6
CONTINUOUS
100
AcDbLine
 10
1920.35033942
 20
-476.29130924
 30
0.0
 11
1923.35033942
 21
-476.29130924
 31
0.0
  0
LINE
  5
57F
100
AcDbEntity
  8
Sc.1_5
 62
     7
  6
CONTINUOUS
100
AcDbLine
 10
1923.35033942
 20
-476.29130924
 30
0.0
 11
1923.35033942
 21
-464.29130924
 31
0.0
  0
LINE
  5
580
100
AcDbEntity
  8
Sc.1_5
 62
     7
  6
CONTINUOUS
100
AcDbLine
 10
1923.35033942
 20
-464.29130924
 30
0.0
 11
1920.35033942
 21
-462.19068662
 31
0.0
  0
LINE
  5
581
100
AcDbEntity
  8
Sc.1_5
 62
     7
  6
CONTINUOUS
100
AcDbLine
 10
1919.85033942
 20
-476.79130924
 30
0.0
 11
1919.85033942
 21
-480.79130924
 31
0.0
  0
LINE
  5
582
100
AcDbEntity
  8
Sc.1_5
 62
     7
  6
CONTINUOUS
370
    35
100
AcDbLine
 10
1882.50043911
 20
-514.29119418
 30
0.0
 11
1886.98869112
 21
-514.29119418
 31
0.0
  0
LINE
  5
583
100
AcDbEntity
  8
Sc.1_5
 62
     7
  6
CONTINUOUS
370
    35
100
AcDbLine
 10
1886.98869112
 20
-514.29119418
 30
0.0
 11
1886.98869112
 21
-504.29119418
 31
0.0
  0
LINE
  5
584
100
AcDbEntity
  8
Sc.1_5
 62
     7
  6
CONTINUOUS
370
    35
100
AcDbLine
 10
1882.50043911
 20
-514.29119418
 30
0.0
 11
1882.50043911
 21
-510.29119418
 31
0.0
  0
LINE
  5
585
100
AcDbEntity
  8
Sc.1_5
 62
     7
  6
CONTINUOUS
100
AcDbLine
 10
1918.05033804
 20
-592.76217566
 30
0.0
 11
1915.55033844
 21
-597.76217596
 31
0.0
  0
LINE
  5
586
100
AcDbEntity
  8
Sc.1_5
 62
     7
  6
CONTINUOUS
100
AcDbLine
 10
1915.55033844
 20
-597.76217596
 30
0.0
 11
1910.55033749
 21
-587.76217625
 31
0.0
  0
LINE
  5
587
100
AcDbEntity
  8
Sc.1_5
 62
     7
  6
CONTINUOUS
100
AcDbLine
 10
1910.55033749
 20
-587.76217625
 30
0.0
 11
1908.05033789
 21
-592.76217654
 31
0.0
  0
LINE
  5
588
100
AcDbEntity
  8
Sc.1_5
 62
     7
  6
CONTINUOUS
100
AcDbLine
 10
1908.05033789
 20
-592.76217654
 30
0.0
 11
1888.91452936
 21
-592.76217821
 31
0.0
  0
LINE
  5
589
100
AcDbEntity
  8
Sc.1_5
 62
     7
  6
CONTINUOUS
100
AcDbLine
 10
1935.73408355
 20
-592.76217412
 30
0.0
 11
1918.05033804
 21
-592.76217566
 31
0.0
  0
3DFACE
  5
58A
100
AcDbEntity
  8
Sc.1_5
 62
     9
  6
CONTINUOUS
370
    20
100
AcDbFace
 70
     0
 10
1937.05033801
 20
-542.03253398
 30
548.63999023
 11
1939.05033801
 21
-542.03253398
 31
548.63999023
 12
1939.05033801
 22
-544.43253401
 32
548.63999023
 13
1937.05033801
 23
-544.43253401
 33
548.63999023
  0
LINE
  5
58B
100
AcDbEntity
  8
Sc.1_5
 62
     9
  6
CONTINUOUS
100
AcDbLine
 10
1934.05033797
 20
-544.43253401
 30
0.0
 11
1894.05033797
 21
-544.43253401
 31
0.0
  0
LINE
  5
58C
100
AcDbEntity
  8
Sc.1_5
 62
     9
  6
CONTINUOUS
100
AcDbLine
 10
1939.05033801
 20
-544.43253401
 30
0.0
 11
1937.05033801
 21
-544.43253401
 31
0.0
  0
LINE
  5
58D
100
AcDbEntity
  8
Sc.1_5
 62
     9
  6
CONTINUOUS
100
AcDbLine
 10
1894.05033797
 20
-547.77460509
 30
0.0
 11
1894.05033797
 21
-538.5029551
 31
0.0
  0
LINE
  5
58E
100
AcDbEntity
  8
Sc.1_5
 62
     9
  6
CONTINUOUS
100
AcDbLine
 10
1893.05033795
 20
-547.77460509
 30
0.0
 11
1894.05033797
 21
-547.77460509
 31
0.0
  0
LINE
  5
58F
100
AcDbEntity
  8
Sc.1_5
 62
     9
  6
CONTINUOUS
100
AcDbLine
 10
1893.05033795
 20
-538.5029551
 30
0.0
 11
1893.05033795
 21
-547.77460509
 31
0.0
  0
LINE
  5
590
100
AcDbEntity
  8
Sc.1_5
 62
     9
  6
CONTINUOUS
100
AcDbLine
 10
1894.05033797
 20
-538.5029551
 30
0.0
 11
1893.05033795
 21
-538.5029551
 31
0.0
  0
LINE
  5
591
100
AcDbEntity
  8
Sc.1_5
 62
     9
  6
CONTINUOUS
100
AcDbLine
 10
1893.05033795
 20
-545.17416728
 30
0.0
 11
1893.05033795
 21
-541.17416722
 31
0.0
  0
LINE
  5
592
100
AcDbEntity
  8
Sc.1_5
 62
     9
  6
CONTINUOUS
100
AcDbLine
 10
1891.05033792
 20
-545.17416728
 30
0.0
 11
1893.05033795
 21
-545.17416728
 31
0.0
  0
LINE
  5
593
100
AcDbEntity
  8
Sc.1_5
 62
     9
  6
CONTINUOUS
100
AcDbLine
 10
1891.05033792
 20
-541.17416722
 30
0.0
 11
1891.05033792
 21
-545.17416728
 31
0.0
  0
LINE
  5
594
100
AcDbEntity
  8
Sc.1_5
 62
     9
  6
CONTINUOUS
100
AcDbLine
 10
1893.05033795
 20
-541.17416722
 30
0.0
 11
1891.05033792
 21
-541.17416722
 31
0.0
  0
LINE
  5
595
100
AcDbEntity
  8
Sc.1_5
 62
     9
  6
CONTINUOUS
100
AcDbLine
 10
1894.05033797
 20
-542.03253398
 30
0.0
 11
1934.05033797
 21
-542.03253398
 31
0.0
  0
LINE
  5
596
100
AcDbEntity
  8
Sc.1_5
 62
     9
  6
CONTINUOUS
100
AcDbLine
 10
1937.05033801
 20
-542.03253398
 30
0.0
 11
1939.05033801
 21
-542.03253398
 31
0.0
  0
LINE
  5
597
100
AcDbEntity
  8
Sc.1_5
 62
     9
  6
CONTINUOUS
100
AcDbLine
 10
1939.05033801
 20
-544.43253401
 30
0.0
 11
1939.05033801
 21
-542.03253398
 31
0.0
  0
LINE
  5
598
100
AcDbEntity
  8
Sc.1_5
 62
     9
  6
CONTINUOUS
100
AcDbLine
 10
1939.05033801
 20
-544.43253401
 30
0.0
 11
1938.49625434
 21
-542.03253398
 31
0.0
  0
LINE
  5
599
100
AcDbEntity
  8
Sc.1_5
 62
     9
  6
CONTINUOUS
100
AcDbLine
 10
1938.52650718
 20
-544.43253401
 30
0.0
 11
1937.97242352
 21
-542.03253398
 31
0.0
  0
LINE
  5
59A
100
AcDbEntity
  8
Sc.1_5
 62
     9
  6
CONTINUOUS
100
AcDbLine
 10
1938.050338
 20
-544.43253401
 30
0.0
 11
1937.49625433
 21
-542.03253398
 31
0.0
  0
LWPOLYLINE
  5
59B
102
{ACAD_REACTORS
330
59C
102
}
100
AcDbEntity
  8
Sc.1_5
 62
     7
  6
CONTINUOUS
100
AcDbPolyline
 90
        4
 70
     1
 43
0.0
 10
1887.25043911
 20
-395.64820575
 10
1887.25043911
 20
-514.29119418
 10
1889.05043911
 20
-514.29119418
 10
1889.05043911
 20
-395.64820575
  0
HATCH
  5
59C
100
AcDbEntity
  8
Sc.1_5
 62
     9
  6
CONTINUOUS
100
AcDbHatch
 10
0.0
 20
0.0
 30
0.0
210
0.0
220
0.0
230
1.0
  2
ANSI31
 70
     0
 71
     1
 91
        1
 92
        7
 72
     0
 73
     1
 93
        4
 10
1887.25043911
 20
-395.64820575
 10
1887.25043911
 20
-514.29119418
 10
1889.05043911
 20
-514.29119418
 10
1889.05043911
 20
-395.64820575
 97
        1
330
59B
 75
     0
 76
     2
 52
0.0
 41
0.3149626
 77
     0
 78
     1
 53
45.0
 43
0.0
 44
0.0
 45
0.70710678
 46
-0.70710678
 79
     0
 47
0.775229
 98
        1
 10
0.0
 20
0.0
  0
LWPOLYLINE
  5
59D
102
{ACAD_REACTORS
330
59E
102
}
100
AcDbEntity
  8
Sc.1_5
 62
     7
  6
CONTINUOUS
100
AcDbPolyline
 90
        4
 70
     1
 43
0.0
 10
1918.05033942
 20
-395.64820575
 10
1918.05033942
 20
-480.79130924
 10
1919.85033942
 20
-480.79130924
 10
1919.85033942
 20
-395.64820575
  0
HATCH
  5
59E
100
AcDbEntity
  8
Sc.1_5
 62
     9
  6
CONTINUOUS
100
AcDbHatch
 10
0.0
 20
0.0
 30
0.0
210
0.0
220
0.0
230
1.0
  2
CDWK12A
 70
     0
 71
     1
 91
        1
 92
        7
 72
     0
 73
     1
 93
        4
 10
1918.05033942
 20
-395.64820575
 10
1918.05033942
 20
-480.79130924
 10
1919.85033942
 20
-480.79130924
 10
1919.85033942
 20
-395.64820575
 97
        1
330
59D
 75
     0
 76
     2
 52
0.0
 41
1.0
 77
     0
 78
    15
 53
0.0
 43
0.0
 44
0.0
 45
2.70000005
 46
4.9000001
 79
     2
 49
0.0
 49
-3.70000005
 53
0.0
 43
0.0
 44
0.0
 45
4.4000001
 46
4.80000019
 79
     2
 49
0.0
 49
-5.4000001
 53
0.0
 43
0.0
 44
0.0
 45
1.39999998
 46
4.5999999
 79
     2
 49
0.0
 49
-2.4000001
 53
0.0
 43
0.0
 44
0.0
 45
2.20000005
 46
4.19999981
 79
     2
 49
0.0
 49
-3.20000005
 53
0.0
 43
0.0
 44
0.0
 45
3.79999995
 46
4.0
 79
     2
 49
0.0
 49
-4.80000019
 53
0.0
 43
0.0
 44
0.0
 45
1.20000005
 46
3.79999995
 79
     2
 49
0.0
 49
-2.20000005
 53
0.0
 43
0.0
 44
0.0
 45
2.9000001
 46
3.5
 79
     2
 49
0.0
 49
-3.9000001
 53
0.0
 43
0.0
 44
0.0
 45
4.5999999
 46
3.4000001
 79
     2
 49
0.0
 49
-5.5999999
 53
0.0
 43
0.0
 44
0.0
 45
1.89999998
 46
2.9000001
 79
     2
 49
0.0
 49
-2.9000001
 53
0.0
 43
0.0
 44
0.0
 45
3.20000005
 46
2.79999995
 79
     2
 49
0.0
 49
-4.19999981
 53
0.0
 43
0.0
 44
0.0
 45
3.9000001
 46
2.4000001
 79
     2
 49
0.0
 49
-4.9000001
 53
0.0
 43
0.0
 44
0.0
 45
2.4000001
 46
2.0999999
 79
     2
 49
0.0
 49
-3.4000001
 53
0.0
 43
0.0
 44
0.0
 45
4.9000001
 46
2.0999999
 79
     2
 49
0.0
 49
-5.9000001
 53
0.0
 43
0.0
 44
0.0
 45
3.5999999
 46
1.5
 79
     2
 49
0.0
 49
-4.5999999
 53
0.0
 43
0.0
 44
0.0
 45
1.60000002
 46
1.39999998
 79
     2
 49
0.0
 49
-2.5999999
 47
0.775229
 98
        1
 10
0.0
 20
0.0
  0
LWPOLYLINE
  5
59F
102
{ACAD_REACTORS
330
5A0
102
}
100
AcDbEntity
  8
Sc.1_5
 62
     9
  6
CONTINUOUS
100
AcDbPolyline
 90
        4
 70
     1
 43
0.0
 10
2004.55033797
 20
-481.17416725
 10
1890.55033797
 20
-481.17416725
 10
1890.55033797
 20
-505.17416725
 10
2004.55033797
 20
-505.17416725
  0
HATCH
  5
5A0
100
AcDbEntity
  8
Sc.1_5
 62
     9
  6
CONTINUOUS
100
AcDbHatch
 10
0.0
 20
0.0
 30
0.0
210
0.0
220
0.0
230
1.0
  2
Wood
 70
     0
 71
     1
 91
        1
 92
        7
 72
     0
 73
     1
 93
        4
 10
2004.55033797
 20
-481.17416725
 10
1890.55033797
 20
-481.17416725
 10
1890.55033797
 20
-505.17416725
 10
2004.55033797
 20
-505.17416725
 97
        1
330
59F
 75
     0
 76
     2
 52
0.0
 41
1.0
 77
     0
 78
    66
 53
0.0
 43
0.0
 44
0.0
 45
0.0
 46
41.23109818
 79
     4
 49
8.24619961
 49
-12.36929989
 49
4.1230998
 49
-16.49239922
 53
0.0
 43
28.86170006
 44
1.03079998
 45
0.0
 46
41.23109818
 79
     2
 49
8.24619961
 49
-32.98479843
 53
0.0
 43
24.73859978
 44
3.09229994
 45
0.0
 46
41.23109818
 79
     2
 49
4.1230998
 49
-37.10800171
 53
0.0
 43
2.06159997
 44
4.1230998
 45
0.0
 46
41.23109818
 79
     4
 49
2.06159997
 49
-28.86170006
 49
2.06159997
 49
-8.24619961
 53
0.0
 43
16.49239922
 44
6.18470001
 45
0.0
 46
41.23109818
 79
     4
 49
8.24619961
 49
-12.36929989
 49
2.06159997
 49
-18.55400085
 53
0.0
 43
6.18470001
 44
7.21540022
 45
0.0
 46
41.23109818
 79
     2
 49
6.18470001
 49
-35.04639816
 53
0.0
 43
16.49239922
 44
8.24619961
 45
0.0
 46
41.23109818
 79
     2
 49
12.36929989
 49
-28.86170006
 53
0.0
 43
4.1230998
 44
9.27700043
 45
0.0
 46
41.23109818
 79
     2
 49
8.24619961
 49
-32.98479843
 53
0.0
 43
20.6154995
 44
10.30780029
 45
0.0
 46
41.23109818
 79
     2
 49
20.6154995
 49
-20.6154995
 53
0.0
 43
8.24619961
 44
12.36929989
 45
0.0
 46
41.23109818
 79
     4
 49
4.1230998
 49
-12.36929989
 49
8.24619961
 49
-16.49239922
 53
0.0
 43
37.10800171
 44
13.40009975
 45
0.0
 46
41.23109818
 79
     2
 49
8.24619961
 49
-32.98479843
 53
0.0
 43
28.86170006
 44
14.43089962
 45
0.0
 46
41.23109818
 79
     2
 49
4.1230998
 49
-37.10800171
 53
0.0
 43
20.6154995
 44
15.4616003
 45
0.0
 46
41.23109818
 79
     2
 49
4.1230998
 49
-37.10800171
 53
0.0
 43
0.0
 44
16.49239922
 45
0.0
 46
41.23109818
 79
     2
 49
8.24619961
 49
-32.98479843
 53
0.0
 43
20.6154995
 44
17.52319908
 45
0.0
 46
41.23109818
 79
     2
 49
8.24619961
 49
-32.98479843
 53
0.0
 43
20.6154995
 44
19.58480072
 45
0.0
 46
41.23109818
 79
     4
 49
8.24619961
 49
-8.24619961
 49
8.24619961
 49
-16.49239922
 53
0.0
 43
12.36929989
 44
21.64629936
 45
0.0
 46
41.23109818
 79
     4
 49
4.1230998
 49
-20.6154995
 49
8.24619961
 49
-8.24619961
 53
0.0
 43
20.6154995
 44
22.67709923
 45
0.0
 46
41.23109818
 79
     2
 49
12.36929989
 49
-28.86170006
 53
0.0
 43
20.6154995
 44
24.73859978
 45
0.0
 46
41.23109818
 79
     2
 49
8.24619961
 49
-32.98479843
 53
0.0
 43
4.1230998
 44
25.76939964
 45
0.0
 46
41.23109818
 79
     4
 49
12.36929989
 49
-16.49239922
 49
4.1230998
 49
-8.24619961
 53
0.0
 43
4.1230998
 44
27.83099937
 45
0.0
 46
41.23109818
 79
     2
 49
20.6154995
 49
-20.6154995
 53
0.0
 43
28.86170006
 44
28.86170006
 45
0.0
 46
41.23109818
 79
     2
 49
4.1230998
 49
-37.10800171
 53
0.0
 43
16.49239922
 44
29.89249992
 45
0.0
 46
41.23109818
 79
     2
 49
8.24619961
 49
-32.98479843
 53
0.0
 43
8.24619961
 44
30.92329979
 45
0.0
 46
41.23109818
 79
     4
 49
4.1230998
 49
-16.49239922
 49
4.1230998
 49
-16.49239922
 53
0.0
 43
4.1230998
 44
31.95409966
 45
0.0
 46
41.23109818
 79
     4
 49
4.1230998
 49
-12.36929989
 49
8.24619961
 49
-16.49239922
 53
0.0
 43
12.36929989
 44
32.98479843
 45
0.0
 46
41.23109818
 79
     4
 49
4.1230998
 49
-20.6154995
 49
4.1230998
 49
-12.36929989
 53
0.0
 43
20.6154995
 44
34.0155983
 45
0.0
 46
41.23109818
 79
     2
 49
12.36929989
 49
-28.86170006
 53
0.0
 43
4.1230998
 44
36.07720184
 45
0.0
 46
41.23109818
 79
     2
 49
8.24619961
 49
-32.98479843
 53
0.0
 43
24.73859978
 44
37.10800171
 45
0.0
 46
41.23109818
 79
     2
 49
4.1230998
 49
-37.10800171
 53
0.0
 43
32.98479843
 44
38.13869858
 45
0.0
 46
41.23109818
 79
     2
 49
4.1230998
 49
-37.10800171
 53
14.03619957
 43
28.86170006
 44
3.09229994
 45
-41.23105626
 46
3.1589938600973E-05
 79
     2
 49
4.24679995
 49
-165.75320435
 53
14.03619957
 43
32.98479843
 44
12.36929989
 45
-41.23105626
 46
3.1589938600973E-05
 79
     2
 49
4.24679995
 49
-165.75320435
 53
14.03619957
 43
28.86170006
 44
37.10800171
 45
-41.23105626
 46
3.1589938600973E-05
 79
     2
 49
4.24679995
 49
-165.75320435
 53
14.03619957
 43
16.49239922
 44
21.64629936
 45
-41.23105626
 46
3.1589938600973E-05
 79
     2
 49
4.24679995
 49
-165.75320435
 53
14.03619957
 43
24.73859978
 44
27.83099937
 45
-41.23105626
 46
3.1589938600973E-05
 79
     2
 49
4.24679995
 49
-165.75320435
 53
14.03619957
 43
28.86170006
 44
24.73859978
 45
-41.23105626
 46
3.1589938600973E-05
 79
     2
 49
4.24679995
 49
-165.75320435
 53
14.03619957
 43
8.24619961
 44
31.95409966
 45
-41.23105626
 46
3.1589938600973E-05
 79
     2
 49
4.24679995
 49
-165.75320435
 53
14.03619957
 43
24.73859978
 44
29.89249992
 45
-41.23105626
 46
3.1589938600973E-05
 79
     2
 49
4.24679995
 49
-165.75320435
 53
14.03619957
 43
32.98479843
 44
14.43089962
 45
-41.23105626
 46
3.1589938600973E-05
 79
     2
 49
8.49359989
 49
-161.50639343
 53
14.03619957
 43
28.86170006
 44
17.52319908
 45
-41.23105626
 46
3.1589938600973E-05
 79
     2
 49
8.49359989
 49
-161.50639343
 53
14.03619957
 43
28.86170006
 44
19.58480072
 45
-41.23105626
 46
3.1589938600973E-05
 79
     2
 49
8.49359989
 49
-161.50639343
 53
165.96380615
 43
16.49239922
 44
6.18470001
 45
-41.23105626
 46
-3.5707624025605E-05
 79
     4
 49
4.24679995
 49
-8.49359989
 49
4.24679995
 49
-153.01280212
 53
165.96380615
 43
8.24619961
 44
12.36929989
 45
-41.23105626
 46
-3.5707624025605E-05
 79
     2
 49
4.24679995
 49
-165.75320435
 53
165.96380615
 43
8.24619961
 44
30.92329979
 45
-41.23105626
 46
-3.5707624025605E-05
 79
     2
 49
8.49359989
 49
-161.50639343
 53
194.03619385
 43
28.86170006
 44
1.03079998
 45
41.23105626
 46
-3.5707624036263E-05
 79
     2
 49
4.24679995
 49
-165.75320435
 53
345.9637146
 43
37.10800171
 44
1.03079998
 45
41.23105626
 46
-3.0175342796923E-05
 79
     2
 49
4.24679995
 49
-165.75320435
 53
345.9637146
 43
24.73859978
 44
15.4616003
 45
41.23105626
 46
-3.0175342796923E-05
 79
     2
 49
4.24679995
 49
-165.75320435
 53
345.9637146
 43
32.98479843
 44
22.67709923
 45
41.23105626
 46
-3.0175342796923E-05
 79
     2
 49
4.24679995
 49
-165.75320435
 53
345.9637146
 43
16.49239922
 44
25.76939964
 45
41.23105626
 46
-3.0175342796923E-05
 79
     2
 49
4.24679995
 49
-165.75320435
 53
345.9637146
 43
12.36929989
 44
30.92329979
 45
41.23105626
 46
-3.0175342796923E-05
 79
     2
 49
4.24679995
 49
-165.75320435
 53
345.9637146
 43
16.49239922
 44
32.98479843
 45
41.23105626
 46
-3.0175342796923E-05
 79
     2
 49
4.24679995
 49
-165.75320435
 53
345.9637146
 43
16.49239922
 44
25.76939964
 45
41.23105626
 46
-3.0175342796923E-05
 79
     2
 49
4.24679995
 49
-165.75320435
 53
345.9637146
 43
28.86170006
 44
31.95409966
 45
41.23105626
 46
-3.0175342796923E-05
 79
     2
 49
16.98719978
 49
-153.01280212
 53
345.9637146
 43
4.1230998
 44
4.1230998
 45
41.23105626
 46
-3.0175342796923E-05
 79
     2
 49
16.98719978
 49
-153.01280212
 53
345.9637146
 43
8.24619961
 44
7.21540022
 45
41.23105626
 46
-3.0175342796923E-05
 79
     2
 49
16.98719978
 49
-153.01280212
 53
345.9637146
 43
12.36929989
 44
9.27700043
 45
41.23105626
 46
-3.0175342796923E-05
 79
     4
 49
4.24679995
 49
-8.49359989
 49
8.49359989
 49
-148.76600647
 53
345.9637146
 43
12.36929989
 44
12.36929989
 45
41.23105626
 46
-3.0175342796923E-05
 79
     4
 49
8.49359989
 49
-8.49359989
 49
8.49359989
 49
-144.51919556
 53
345.9637146
 43
8.24619961
 44
16.49239922
 45
41.23105626
 46
-3.0175342796923E-05
 79
     2
 49
16.98719978
 49
-153.01280212
 53
345.9637146
 43
4.1230998
 44
19.58480072
 45
41.23105626
 46
-3.0175342796923E-05
 79
     2
 49
16.98719978
 49
-153.01280212
 53
345.9637146
 43
4.1230998
 44
21.64629936
 45
41.23105626
 46
-3.0175342796923E-05
 79
     2
 49
16.98719978
 49
-153.01280212
 53
345.9637146
 43
32.98479843
 44
34.0155983
 45
41.23105626
 46
-3.0175342796923E-05
 79
     2
 49
4.24679995
 49
-165.75320435
 53
345.96380615
 43
37.10800171
 44
38.13869858
 45
41.23105626
 46
3.5707624002512E-05
 79
     2
 49
8.49359989
 49
-161.50639343
 53
345.96380615
 43
12.36929989
 44
36.07720184
 45
41.23105626
 46
3.5707624002512E-05
 79
     2
 49
8.49359989
 49
-161.50639343
 53
345.9637146
 43
8.24619961
 44
0.0
 45
41.23105626
 46
-3.0175342796923E-05
 79
     2
 49
16.98719978
 49
-153.01280212
 53
345.9637146
 43
32.98479843
 44
28.86170006
 45
41.23105626
 46
-3.0175342796923E-05
 79
     2
 49
12.74040031
 49
-157.25959778
 53
345.9637146
 43
37.10800171
 44
25.76939964
 45
41.23105626
 46
-3.0175342796923E-05
 79
     2
 49
25.48080063
 49
-144.51919556
 47
0.775229
 98
        1
 10
0.0
 20
0.0
  0
3DFACE
  5
5A1
102
{ACAD_REACTORS
330
5A2
102
}
100
AcDbEntity
  8
Sc.1_5
 62
     7
  6
CONTINUOUS
370
    20
100
AcDbFace
 70
     0
 10
2004.5503377
 20
-480.79130924
 30
548.63999023
 11
2004.5503377
 21
-476.79130924
 31
548.63999023
 12
1920.34379105
 22
-476.79130924
 32
548.63999023
 13
1920.34379105
 23
-480.79130924
 33
548.63999023
  0
HATCH
  5
5A2
100
AcDbEntity
  8
Sc.1_5
 62
     9
  6
CONTINUOUS
100
AcDbHatch
 10
0.0
 20
0.0
 30
0.0
210
0.0
220
0.0
230
1.0
  2
ANSI31
 70
     0
 71
     1
 91
        1
 92
        7
 72
     0
 73
     1
 93
        4
 10
2004.5503377
 20
-480.79130924
 10
2004.5503377
 20
-476.79130924
 10
1920.34379105
 20
-476.79130924
 10
1920.34379105
 20
-480.79130924
 97
        1
330
5A1
 75
     0
 76
     2
 52
135.0
 41
0.62992521
 77
     0
 78
     1
 53
0.0
 43
0.0
 44
1.0
 45
0.0
 46
2.0
 79
     0
 47
0.775229
 98
        1
 10
0.0
 20
0.0
  0
LINE
  5
5A3
100
AcDbEntity
  8
Sc.1_5
 62
     7
  6
CONTINUOUS
 48
0.5
370
    -3
100
AcDbLine
 10
1951.25095077
 20
-421.03754952
 30
500.0
 11
1909.17193983
 21
-421.03754952
 31
500.0
  0
INSERT
  5
5A4
100
AcDbEntity
  8
Sc.1_5
 62
     7
  6
CONTINUOUS
370
    -3
100
AcDbBlockReference
  2
CDWK_EXTR_2
 10
1909.17193983
 20
-421.03754952
 30
500.0
 41
1.0
 42
1.0
 43
1.0
  0
LINE
  5
5A5
100
AcDbEntity
  8
Sc.1_5
 62
     7
  6
CONTINUOUS
 48
0.5
370
    -3
100
AcDbLine
 10
1951.25095077
 20
-579.71957767
 30
500.0
 11
1909.17193983
 21
-579.71957767
 31
500.0
  0
INSERT
  5
5A6
100
AcDbEntity
  8
Sc.1_5
 62
     7
  6
CONTINUOUS
370
    -3
100
AcDbBlockReference
  2
CDWK_EXTR_2
 10
1909.17193983
 20
-579.71957767
 30
500.0
 41
1.0
 42
1.0
 43
1.0
  0
LINE
  5
5A7
100
AcDbEntity
  8
Sc.1_5
 62
     7
  6
CONTINUOUS
 48
0.5
370
    -3
100
AcDbLine
 10
1951.8340314
 20
-569.77636795
 30
500.0
 11
1899.00831728
 21
-551.09506451
 31
500.0
  0
INSERT
  5
5A8
100
AcDbEntity
  8
Sc.1_5
 62
     7
  6
CONTINUOUS
370
    -3
100
AcDbBlockReference
  2
CDWK_EXTR_2
 10
1899.00831728
 20
-551.09506451
 30
500.0
 41
1.0
 42
1.0
 43
1.0
 50
340.52435125
  0
LINE
  5
5A9
100
AcDbEntity
  8
Sc.1_5
 62
     7
  6
CONTINUOUS
370
    20
100
AcDbLine
 10
1929.05033797
 20
-553.17416725
 30
548.63999023
 11
1929.05033797
 21
-592.7621747
 31
548.63999023
  0
LINE
  5
5AA
100
AcDbEntity
  8
Sc.1_5
 62
     7
  6
CONTINUOUS
370
    20
100
AcDbLine
 10
1899.05033797
 20
-553.17416725
 30
548.63999023
 11
1899.05033797
 21
-592.76217738
 31
548.63999023
  0
LINE
  5
5AB
100
AcDbEntity
  8
Sc.1_5
 62
     9
  6
CONTINUOUS
100
AcDbLine
 10
1934.05033797
 20
-547.77460509
 30
0.0
 11
1934.05033797
 21
-538.5029551
 31
0.0
  0
LINE
  5
5AC
100
AcDbEntity
  8
Sc.1_5
 62
     9
  6
CONTINUOUS
100
AcDbLine
 10
1935.05033798
 20
-547.77460509
 30
0.0
 11
1934.05033797
 21
-547.77460509
 31
0.0
  0
LINE
  5
5AD
100
AcDbEntity
  8
Sc.1_5
 62
     9
  6
CONTINUOUS
100
AcDbLine
 10
1935.05033798
 20
-538.5029551
 30
0.0
 11
1935.05033798
 21
-547.77460509
 31
0.0
  0
LINE
  5
5AE
100
AcDbEntity
  8
Sc.1_5
 62
     9
  6
CONTINUOUS
100
AcDbLine
 10
1934.05033797
 20
-538.5029551
 30
0.0
 11
1935.05033798
 21
-538.5029551
 31
0.0
  0
LINE
  5
5AF
100
AcDbEntity
  8
Sc.1_5
 62
     9
  6
CONTINUOUS
100
AcDbLine
 10
1935.05033798
 20
-545.17416728
 30
0.0
 11
1935.05033798
 21
-541.17416722
 31
0.0
  0
LINE
  5
5B0
100
AcDbEntity
  8
Sc.1_5
 62
     9
  6
CONTINUOUS
100
AcDbLine
 10
1937.05033801
 20
-545.17416728
 30
0.0
 11
1935.05033798
 21
-545.17416728
 31
0.0
  0
LINE
  5
5B1
100
AcDbEntity
  8
Sc.1_5
 62
     9
  6
CONTINUOUS
100
AcDbLine
 10
1937.05033801
 20
-541.17416722
 30
0.0
 11
1937.05033801
 21
-545.17416728
 31
0.0
  0
LINE
  5
5B2
100
AcDbEntity
  8
Sc.1_5
 62
     9
  6
CONTINUOUS
100
AcDbLine
 10
1935.05033798
 20
-541.17416722
 30
0.0
 11
1937.05033801
 21
-541.17416722
 31
0.0
  0
LINE
  5
5B3
100
AcDbEntity
  8
Sc.1_5
 62
     9
  6
CONTINUOUS
100
AcDbLine
 10
1937.57413799
 20
-544.43253401
 30
0.0
 11
1937.05033801
 21
-542.16370705
 31
0.0
  0
LINE
  5
5B4
100
AcDbEntity
  8
Sc.1_5
 62
     7
  6
CONTINUOUS
 48
0.5
370
    -3
100
AcDbLine
 10
1951.8340314
 20
-569.77636795
 30
500.0
 11
1929.87823412
 21
-551.18502753
 31
500.0
  0
INSERT
  5
5B5
100
AcDbEntity
  8
Sc.1_5
 62
     7
  6
CONTINUOUS
370
    -3
100
AcDbBlockReference
  2
CDWK_EXTR_2
 10
1929.87823412
 20
-551.18502753
 30
500.0
 41
1.0
 42
1.0
 43
1.0
 50
319.74333323
  0
LWPOLYLINE
  5
5B6
100
AcDbEntity
  8
Sc.1_1
 62
     7
  6
DASHDOT
370
     5
100
AcDbPolyline
 90
        4
 70
     1
 43
0.0
 10
1846.28363772
 20
-634.93497044
 10
1878.18670983
 20
-634.93497044
 10
1878.18670983
 20
-618.93796344
 10
1846.28363772
 20
-618.93796344
  0
LWPOLYLINE
  5
5B7
100
AcDbEntity
  8
LEGEND
 62
     5
  6
CONTINUOUS
370
    -3
100
AcDbPolyline
 90
        4
 70
     1
 43
0.0
 10
1877.86893419
 20
-635.56861917
 10
1935.68428843
 20
-635.56861917
 10
1935.68428843
 20
-618.30625768
 10
1877.86893419
 20
-618.30625768
  0
LWPOLYLINE
  5
5B8
100
AcDbEntity
  8
LEGEND
 62
     5
  6
CONTINUOUS
370
    -3
100
AcDbPolyline
 90
        4
 70
     1
 43
0.0
 10
1935.68428843
 20
-635.56861917
 10
2009.07643998
 20
-635.56861917
 10
2009.07643998
 20
-618.30625768
 10
1935.68428843
 20
-618.30625768
  0
LWPOLYLINE
  5
5B9
100
AcDbEntity
  8
LEGEND
 62
     5
  6
CONTINUOUS
370
    -3
100
AcDbPolyline
 90
        4
 70
     1
 43
0.0
 10
2009.07643998
 20
-635.56861917
 10
2043.60043911
 20
-635.56861917
 10
2043.60043911
 20
-626.93743842
 10
2009.07643998
 20
-626.93743842
  0
LWPOLYLINE
  5
5BA
100
AcDbEntity
  8
LEGEND
 62
     5
  6
CONTINUOUS
370
    -3
100
AcDbPolyline
 90
        4
 70
     1
 43
0.0
 10
2009.07643998
 20
-626.93743842
 10
2023.98468865
 20
-626.93743842
 10
2023.98468865
 20
-618.30625768
 10
2009.07643998
 20
-618.30625768
  0
LWPOLYLINE
  5
5BB
100
AcDbEntity
  8
LEGEND
 62
     5
  6
CONTINUOUS
370
    -3
100
AcDbPolyline
 90
        4
 70
     1
 43
0.0
 10
1846.60043911
 20
-635.56861917
 10
2043.60043911
 20
-635.56861917
 10
2043.60043911
 20
-364.56861917
 10
1846.60043911
 20
-364.56861917
  0
LWPOLYLINE
  5
5BC
100
AcDbEntity
  8
LEGEND
 62
     5
  6
CONTINUOUS
370
    -3
100
AcDbPolyline
 90
        4
 70
     1
 43
0.0
 10
2023.98468865
 20
-626.93743842
 10
2043.60043911
 20
-626.93743842
 10
2043.60043911
 20
-618.30625768
 10
2023.98468865
 20
-618.30625768
  0
LWPOLYLINE
  5
5BD
100
AcDbEntity
  8
LEGEND
 62
     5
  6
CONTINUOUS
370
    -3
100
AcDbPolyline
 90
        4
 70
     1
 43
0.0
 10
1846.60043911
 20
-635.56861917
 10
1877.86893419
 20
-635.56861917
 10
1877.86893419
 20
-618.30625768
 10
1846.60043911
 20
-618.30625768
  0
3DFACE
  5
5BE
100
AcDbEntity
  8
Sc.1_5
 62
     7
  6
CONTINUOUS
370
    20
100
AcDbFace
 70
     0
 10
1894.05033797
 20
-553.17416725
 30
548.63999023
 11
1903.05033797
 21
-553.17416725
 31
548.63999023
 12
1903.05033797
 22
-505.17416725
 32
548.63999023
 13
1894.05033797
 23
-505.17416725
 33
548.63999023
  0
INSERT
  5
5BF
100
AcDbEntity
  8
Sc.1_5
 62
     0
370
    20
100
AcDbBlockReference
  2
*X1838
 10
0.0
 20
0.0
 30
0.0
  0
3DFACE
  5
5C0
100
AcDbEntity
  8
Sc.1_5
 62
     7
  6
CONTINUOUS
370
    20
100
AcDbFace
 70
     0
 10
1882.37543905
 20
-499.04119453
 30
548.63999023
 11
1886.37543911
 21
-499.04119418
 31
548.63999023
 12
1886.37543981
 22
-507.0411943
 32
548.63999023
 13
1882.37543975
 23
-507.04119465
 33
548.63999023
  0
INSERT
  5
5C1
100
AcDbEntity
  8
Sc.1_5
 62
     0
370
    20
100
AcDbBlockReference
  2
*X1840
 10
0.0
 20
0.0
 30
0.0
  0
3DFACE
  5
5C2
100
AcDbEntity
  8
Sc.1_5
 62
     7
  6
CONTINUOUS
370
    20
100
AcDbFace
 70
     0
 10
1882.37543905
 20
-403.04119453
 30
548.63999023
 11
1886.37543911
 21
-403.04119418
 31
548.63999023
 12
1886.37543981
 22
-411.0411943
 32
548.63999023
 13
1882.37543975
 23
-411.04119465
 33
548.63999023
  0
INSERT
  5
5C3
100
AcDbEntity
  8
Sc.1_5
 62
     0
370
    20
100
AcDbBlockReference
  2
*X1841
 10
0.0
 20
0.0
 30
0.0
  0
LINE
  5
5C4
100
AcDbEntity
  8
Sc.1_5
 62
     7
  6
CONTINUOUS
100
AcDbLine
 10
1889.55043911
 20
-395.64820575
 30
0.0
 11
1889.55043911
 21
-471.79130924
 31
0.0
  0
LINE
  5
5C5
100
AcDbEntity
  8
Sc.1_5
 62
     7
  6
CONTINUOUS
100
AcDbLine
 10
1917.55033942
 20
-471.79130924
 30
0.0
 11
1917.55033942
 21
-395.64820575
 31
0.0
  0
3DFACE
  5
5C6
100
AcDbEntity
  8
Sc.1_5
 62
     9
  6
CONTINUOUS
370
    20
100
AcDbFace
 70
     0
 10
1917.55033942
 20
-471.79130924
 30
548.63999023
 11
1917.55033942
 21
-395.64820575
 31
548.63999023
 12
1889.55043911
 22
-395.64820575
 32
548.63999023
 13
1889.55043911
 23
-471.79130924
 33
548.63999023
  0
INSERT
  5
5C7
100
AcDbEntity
  8
Sc.1_5
 62
     0
370
    20
100
AcDbBlockReference
  2
*X1844
 10
0.0
 20
0.0
 30
0.0
  0
LINE
  5
5C8
100
AcDbEntity
  8
Sc.1_5
 62
     7
  6
CONTINUOUS
370
    20
100
AcDbLine
 10
1889.55043911
 20
-395.64820575
 30
548.63999023
 11
1889.55043911
 21
-471.79130924
 31
548.63999023
  0
LINE
  5
5C9
100
AcDbEntity
  8
Sc.1_5
 62
     7
  6
CONTINUOUS
370
    20
100
AcDbLine
 10
1917.55033757
 20
-471.7913091
 30
548.63999023
 11
1917.55033757
 21
-395.64820575
 31
548.63999023
  0
3DFACE
  5
5CA
100
AcDbEntity
  8
Sc.1_5
 62
     7
  6
CONTINUOUS
370
    20
100
AcDbFace
 70
     0
 10
1889.55033757
 20
-471.79131033
 30
548.63999023
 11
1889.55033797
 21
-480.79131046
 31
548.63999023
 12
1917.55033838
 22
-480.79130924
 32
548.63999023
 13
1917.55033799
 23
-471.7913091
 33
548.63999023
  0
INSERT
  5
5CB
100
AcDbEntity
  8
Sc.1_5
 62
     0
370
    20
100
AcDbBlockReference
  2
*X1837
 10
0.0
 20
0.0
 30
0.0
  0
LWPOLYLINE
  5
5CC
100
AcDbEntity
  8
Sc.1_5
 62
     7
  6
CONTINUOUS
370
    20
100
AcDbPolyline
 90
        4
 70
     0
 43
0.0
 38
548.63999023
 10
2004.55033797
 20
-505.17416725
 10
1890.55033797
 20
-505.17416725
 10
1890.55033797
 20
-481.17416725
 10
2004.5503378
 20
-481.17416725
  0
LWPOLYLINE
  5
5CD
100
AcDbEntity
  8
Sc.1_5
 62
     7
  6
CONTINUOUS
100
AcDbPolyline
 90
        6
 70
     0
 43
0.0
 10
1874.08806696
 20
-395.64820575
 10
1894.10043903
 20
-395.64820575
 10
1896.60043907
 20
-390.64820568
 10
1901.60043915
 20
-400.64820583
 10
1904.10043918
 20
-395.64820575
 10
1924.05073123
 20
-395.64820575
  0
3DFACE
  5
5CE
100
AcDbEntity
  8
Sc.1_5
 62
     9
  6
CONTINUOUS
370
    20
100
AcDbFace
 70
     0
 10
1934.05033797
 20
-515.29119418
 30
548.63999023
 11
2004.55033809
 21
-515.29121626
 31
548.63999023
 12
2004.55033797
 22
-505.29122143
 32
548.63999023
 13
1934.05033797
 23
-505.29122143
 33
548.63999023
  0
INSERT
  5
5CF
100
AcDbEntity
  8
Sc.1_5
 62
     0
370
    20
100
AcDbBlockReference
  2
*X1851
 10
0.0
 20
0.0
 30
0.0
  0
LWPOLYLINE
  5
5D0
100
AcDbEntity
  8
Sc.1_5
 62
     7
  6
CONTINUOUS
100
AcDbPolyline
 90
        6
 70
     0
 43
0.0
 10
2004.5503377
 20
-472.50340603
 10
2004.55033791
 20
-489.7911941
 10
2009.55033801
 20
-492.29119408
 10
1999.55033792
 20
-497.29119427
 10
2004.55033803
 20
-499.79119425
 10
2004.55033825
 20
-519.01048784
  0
LWPOLYLINE
  5
5D1
100
AcDbEntity
  8
Sc.1_5
 62
     9
  6
CONTINUOUS
370
    20
100
AcDbPolyline
 90
        8
 70
     1
 43
0.0
 38
510.0
 39
-510.0
 10
1905.80420241
 20
-488.80119939
 10
1905.30420241
 20
-489.13424787
 10
1904.30420241
 20
-489.3952736
 10
1903.80420241
 20
-489.45827459
 10
1904.30420241
 20
-489.12522611
 10
1905.30420241
 20
-488.86420038
 10
1905.80420241
 20
-488.80119939
 10
1903.80420241
 20
-489.45827459
  0
3DFACE
  5
5D2
100
AcDbEntity
  8
Sc.1_5
 62
     9
  6
CONTINUOUS
370
    20
100
AcDbFace
 70
     0
 10
1905.30420241
 20
-473.2927612
 30
548.63999023
 11
1904.30420241
 21
-473.2927612
 31
548.63999023
 12
1904.30420241
 22
-491.35686705
 32
548.63999023
 13
1905.30420241
 23
-491.16109358
 33
548.63999023
  0
LWPOLYLINE
  5
5D3
100
AcDbEntity
  8
Sc.1_5
 62
     9
  6
CONTINUOUS
370
    20
100
AcDbPolyline
 90
        8
 70
     1
 43
0.0
 38
510.0
 39
-510.0
 10
1905.80420241
 20
-490.038437
 10
1905.30420241
 20
-490.37148548
 10
1904.30420241
 20
-490.63251121
 10
1903.80420241
 20
-490.6955122
 10
1904.30420241
 20
-490.36246372
 10
1905.30420241
 20
-490.10143799
 10
1905.80420241
 20
-490.038437
 10
1903.80420241
 20
-490.6955122
  0
3DFACE
  5
5D4
100
AcDbEntity
  8
Sc.1_5
 62
     9
  6
CONTINUOUS
370
    20
100
AcDbFace
 70
     0
 10
1903.00420241
 20
-471.9913091
 30
510.0
 11
1904.30492852
 21
-473.29203519
 31
510.0
 12
1905.30347636
 22
-473.29203514
 32
510.0
 13
1906.60420241
 23
-471.9913091
 33
510.0
  0
3DFACE
  5
5D5
100
AcDbEntity
  8
Sc.1_5
 62
     9
  6
CONTINUOUS
370
    20
100
AcDbFace
 70
     0
 10
1903.00420241
 20
-471.9913091
 30
510.0
 11
1903.00420241
 21
-471.7913091
 31
510.0
 12
1906.60420241
 22
-471.7913091
 32
510.0
 13
1906.60420241
 23
-471.9913091
 33
510.0
  0
LWPOLYLINE
  5
5D6
100
AcDbEntity
  8
Sc.1_5
 62
     9
  6
CADWORK_13
370
    -3
100
AcDbPolyline
 90
        4
 70
     0
 43
0.0
 38
510.0
 10
1905.30420241
 20
-471.7913091
 10
1905.10420241
 20
-472.61970414
 10
1904.50420241
 20
-472.61970414
 10
1904.30420241
 20
-471.7913091
  0
LINE
  5
5D7
100
AcDbEntity
  8
Sc.1_5
 62
     9
  6
CADWORK_13
370
    -3
100
AcDbLine
 10
1904.80420241
 20
-472.61970414
 30
510.0
 11
1904.80420241
 21
-471.7913091
 31
510.0
  0
LWPOLYLINE
  5
5D8
100
AcDbEntity
  8
Sc.1_5
 62
     9
  6
CONTINUOUS
370
    20
100
AcDbPolyline
 90
        8
 70
     1
 43
0.0
 38
510.0
 39
-510.0
 10
1905.80420241
 20
-487.56396178
 10
1905.30420241
 20
-487.89701026
 10
1904.30420241
 20
-488.15803598
 10
1903.80420241
 20
-488.22103698
 10
1904.30420241
 20
-487.8879885
 10
1905.30420241
 20
-487.62696277
 10
1905.80420241
 20
-487.56396178
 10
1903.80420241
 20
-488.22103698
  0
LWPOLYLINE
  5
5D9
100
AcDbEntity
  8
Sc.1_5
 62
     9
  6
CONTINUOUS
370
    20
100
AcDbPolyline
 90
        8
 70
     1
 43
0.0
 38
510.0
 39
-510.0
 10
1905.80420241
 20
-486.32672417
 10
1905.30420241
 20
-486.65977265
 10
1904.30420241
 20
-486.92079837
 10
1903.80420241
 20
-486.98379936
 10
1904.30420241
 20
-486.65075089
 10
1905.30420241
 20
-486.38972516
 10
1905.80420241
 20
-486.32672417
 10
1903.80420241
 20
-486.98379936
  0
LWPOLYLINE
  5
5DA
100
AcDbEntity
  8
Sc.1_5
 62
     9
  6
CONTINUOUS
370
    20
100
AcDbPolyline
 90
        8
 70
     1
 43
0.0
 38
510.0
 39
-510.0
 10
1905.80420241
 20
-485.08948656
 10
1905.30420241
 20
-485.42253503
 10
1904.30420241
 20
-485.68356076
 10
1903.80420241
 20
-485.74656175
 10
1904.30420241
 20
-485.41351327
 10
1905.30420241
 20
-485.15248755
 10
1905.80420241
 20
-485.08948656
 10
1903.80420241
 20
-485.74656175
  0
LWPOLYLINE
  5
5DB
100
AcDbEntity
  8
Sc.1_5
 62
     9
  6
CONTINUOUS
370
    20
100
AcDbPolyline
 90
        8
 70
     1
 43
0.0
 38
510.0
 39
-510.0
 10
1905.80420241
 20
-483.85224894
 10
1905.30420241
 20
-484.18529742
 10
1904.30420241
 20
-484.44632315
 10
1903.80420241
 20
-484.50932414
 10
1904.30420241
 20
-484.17627566
 10
1905.30420241
 20
-483.91524994
 10
1905.80420241
 20
-483.85224894
 10
1903.80420241
 20
-484.50932414
  0
LWPOLYLINE
  5
5DC
100
AcDbEntity
  8
Sc.1_5
 62
     9
  6
CONTINUOUS
370
    20
100
AcDbPolyline
 90
        8
 70
     1
 43
0.0
 38
510.0
 39
-510.0
 10
1905.80420241
 20
-482.61501133
 10
1905.30420241
 20
-482.94805981
 10
1904.30420241
 20
-483.20908554
 10
1903.80420241
 20
-483.27208653
 10
1904.30420241
 20
-482.93903805
 10
1905.30420241
 20
-482.67801232
 10
1905.80420241
 20
-482.61501133
 10
1903.80420241
 20
-483.27208653
  0
LWPOLYLINE
  5
5DD
100
AcDbEntity
  8
Sc.1_5
 62
     9
  6
CONTINUOUS
370
    20
100
AcDbPolyline
 90
        8
 70
     1
 43
0.0
 38
510.0
 39
-510.0
 10
1905.80420241
 20
-481.37777372
 10
1905.30420241
 20
-481.7108222
 10
1904.30420241
 20
-481.97184793
 10
1903.80420241
 20
-482.03484892
 10
1904.30420241
 20
-481.70180044
 10
1905.30420241
 20
-481.44077471
 10
1905.80420241
 20
-481.37777372
 10
1903.80420241
 20
-482.03484892
  0
LWPOLYLINE
  5
5DE
100
AcDbEntity
  8
Sc.1_5
 62
     9
  6
CONTINUOUS
370
    20
100
AcDbPolyline
 90
        8
 70
     1
 43
0.0
 38
510.0
 39
-510.0
 10
1905.80420241
 20
-480.14053611
 10
1905.30420241
 20
-480.47358459
 10
1904.30420241
 20
-480.73461031
 10
1903.80420241
 20
-480.79761131
 10
1904.30420241
 20
-480.46456283
 10
1905.30420241
 20
-480.2035371
 10
1905.80420241
 20
-480.14053611
 10
1903.80420241
 20
-480.79761131
  0
LWPOLYLINE
  5
5DF
100
AcDbEntity
  8
Sc.1_5
 62
     9
  6
CONTINUOUS
370
    20
100
AcDbPolyline
 90
        8
 70
     1
 43
0.0
 38
510.0
 39
-510.0
 10
1905.80420241
 20
-478.9032985
 10
1905.30420241
 20
-479.23634698
 10
1904.30420241
 20
-479.4973727
 10
1903.80420241
 20
-479.56037369
 10
1904.30420241
 20
-479.22732522
 10
1905.30420241
 20
-478.96629949
 10
1905.80420241
 20
-478.9032985
 10
1903.80420241
 20
-479.56037369
  0
LWPOLYLINE
  5
5E0
100
AcDbEntity
  8
Sc.1_5
 62
     9
  6
CONTINUOUS
370
    20
100
AcDbPolyline
 90
        8
 70
     1
 43
0.0
 38
510.0
 39
-510.0
 10
1905.80420241
 20
-477.66606089
 10
1905.30420241
 20
-477.99910936
 10
1904.30420241
 20
-478.26013509
 10
1903.80420241
 20
-478.32313608
 10
1904.30420241
 20
-477.9900876
 10
1905.30420241
 20
-477.72906188
 10
1905.80420241
 20
-477.66606089
 10
1903.80420241
 20
-478.32313608
  0
LWPOLYLINE
  5
5E1
100
AcDbEntity
  8
Sc.1_5
 62
     9
  6
CONTINUOUS
370
    20
100
AcDbPolyline
 90
        8
 70
     1
 43
0.0
 38
510.0
 39
-510.0
 10
1905.80420241
 20
-476.42882327
 10
1905.30420241
 20
-476.76187175
 10
1904.30420241
 20
-477.02289748
 10
1903.80420241
 20
-477.08589847
 10
1904.30420241
 20
-476.75284999
 10
1905.30420241
 20
-476.49182427
 10
1905.80420241
 20
-476.42882327
 10
1903.80420241
 20
-477.08589847
  0
LWPOLYLINE
  5
5E2
100
AcDbEntity
  8
Sc.1_5
 62
     9
  6
CONTINUOUS
370
    20
100
AcDbPolyline
 90
        8
 70
     1
 43
0.0
 38
510.0
 39
-510.0
 10
1905.80420241
 20
-475.19158566
 10
1905.30420241
 20
-475.52463414
 10
1904.30420241
 20
-475.78565987
 10
1903.80420241
 20
-475.84866086
 10
1904.30420241
 20
-475.51561238
 10
1905.30420241
 20
-475.25458665
 10
1905.80420241
 20
-475.19158566
 10
1903.80420241
 20
-475.84866086
  0
LWPOLYLINE
  5
5E3
100
AcDbEntity
  8
Sc.1_5
 62
     9
  6
CONTINUOUS
370
    20
100
AcDbPolyline
 90
        8
 70
     1
 43
0.0
 38
510.0
 39
-510.0
 10
1905.80420241
 20
-473.95434805
 10
1905.30420241
 20
-474.28739653
 10
1904.30420241
 20
-474.54842226
 10
1903.80420241
 20
-474.61142325
 10
1904.30420241
 20
-474.27837477
 10
1905.30420241
 20
-474.01734904
 10
1905.80420241
 20
-473.95434805
 10
1903.80420241
 20
-474.61142325
  0
LWPOLYLINE
  5
5E4
100
AcDbEntity
  8
Sc.1_5
 62
     9
  6
CONTINUOUS
370
    20
100
AcDbPolyline
 90
        6
 70
     1
 43
0.0
 38
548.63999023
 39
-548.63999023
 10
1904.30420241
 20
-491.35686705
 10
1903.9381267
 20
-491.56344723
 10
1904.30420241
 20
-491.63101047
 10
1905.30420241
 20
-491.36598344
 10
1905.66612677
 20
-491.15803316
 10
1905.30420241
 20
-491.16109358
  0
LWPOLYLINE
  5
5E5
100
AcDbEntity
  8
Sc.1_5
 62
     9
  6
CONTINUOUS
370
    20
100
AcDbPolyline
 90
        6
 70
     1
 43
0.0
 38
548.63999023
 39
-548.63999023
 10
1904.38578077
 20
-492.37432726
 10
1904.11127265
 20
-492.50941916
 10
1904.43121027
 20
-492.56638859
 10
1905.19394616
 20
-492.39204895
 10
1905.49298082
 20
-492.23906239
 10
1905.2184727
 20
-492.23906239
  0
LINE
  5
5E6
100
AcDbEntity
  8
Sc.1_5
 62
     9
  6
CONTINUOUS
370
    -3
100
AcDbLine
 10
1903.9381267
 20
-491.56344723
 30
0.0
 11
1905.66612677
 21
-491.15803316
 31
0.0
  0
LINE
  5
5E7
100
AcDbEntity
  8
Sc.1_5
 62
     9
  6
CONTINUOUS
370
    -3
100
AcDbLine
 10
1904.11127265
 20
-492.50941916
 30
0.0
 11
1905.49298082
 21
-492.23906239
 31
0.0
  0
3DFACE
  5
5E8
100
AcDbEntity
  8
Sc.1_5
 62
     9
  6
CONTINUOUS
370
    20
100
AcDbFace
 70
     0
 10
1904.43121027
 20
-492.56638859
 30
548.63999023
 11
1904.80420241
 21
-493.45540838
 31
548.63999023
 12
1905.19394616
 22
-492.39204895
 32
548.63999023
 13
1905.19394616
 23
-492.39204895
 33
548.63999023
  0
3DFACE
  5
5E9
100
AcDbEntity
  8
Sc.1_5
 62
     9
  6
CONTINUOUS
370
    20
100
AcDbFace
 70
     0
 10
1904.30420241
 20
-491.63101047
 30
548.63999023
 11
1905.30420241
 21
-491.36598344
 31
548.63999023
 12
1905.2184727
 22
-492.23906239
 32
548.63999023
 13
1904.38578077
 23
-492.37432726
 33
548.63999023
  0
3DFACE
  5
5EA
100
AcDbEntity
  8
Sc.1_5
 62
     9
  6
CONTINUOUS
370
    20
100
AcDbFace
 70
     0
 10
1899.05033797
 20
-482.67561935
 30
548.63999023
 11
1898.05033797
 21
-482.67561935
 31
548.63999023
 12
1898.05033797
 22
-512.69265407
 32
548.63999023
 13
1899.05033797
 23
-512.4968806
 33
548.63999023
  0
LWPOLYLINE
  5
5EB
100
AcDbEntity
  8
Sc.1_5
 62
     9
  6
CONTINUOUS
370
    20
100
AcDbPolyline
 90
        9
 70
     1
 43
0.0
 38
548.63999023
 39
-548.63999023
 10
1898.05033797
 20
-512.96679749
 10
1899.05033797
 20
-512.70177045
 10
1898.96460825
 20
-513.57484941
 10
1898.94008171
 20
-513.72783597
 10
1898.55033797
 20
-514.7911954
 10
1898.17734583
 20
-513.9021756
 10
1898.13191633
 20
-513.71011428
 10
1898.05033797
 20
-512.96679749
 10
1899.05033797
 20
-512.70177045
  0
LWPOLYLINE
  5
5EC
100
AcDbEntity
  8
Sc.1_5
 62
     9
  6
CONTINUOUS
370
    20
100
AcDbPolyline
 90
        8
 70
     1
 43
0.0
 38
510.0
 39
-510.0
 10
1899.55033797
 20
-511.37422402
 10
1899.05033797
 20
-511.7072725
 10
1898.05033797
 20
-511.96829823
 10
1897.55033797
 20
-512.03129922
 10
1898.05033797
 20
-511.69825074
 10
1899.05033797
 20
-511.43722501
 10
1899.55033797
 20
-511.37422402
 10
1897.55033797
 20
-512.03129922
  0
LWPOLYLINE
  5
5ED
100
AcDbEntity
  8
Sc.1_5
 62
     9
  6
CONTINUOUS
370
    20
100
AcDbPolyline
 90
        8
 70
     1
 43
0.0
 38
510.0
 39
-510.0
 10
1899.55033797
 20
-510.13698641
 10
1899.05033797
 20
-510.47003489
 10
1898.05033797
 20
-510.73106061
 10
1897.55033797
 20
-510.79406161
 10
1898.05033797
 20
-510.46101313
 10
1899.05033797
 20
-510.1999874
 10
1899.55033797
 20
-510.13698641
 10
1897.55033797
 20
-510.79406161
  0
3DFACE
  5
5EE
100
AcDbEntity
  8
Sc.1_5
 62
     9
  6
CONTINUOUS
370
    20
100
AcDbFace
 70
     0
 10
1896.75033797
 20
-481.37416725
 30
510.0
 11
1898.05106407
 21
-482.67489333
 31
510.0
 12
1899.04961192
 22
-482.67489328
 32
510.0
 13
1900.35033797
 23
-481.37416725
 33
510.0
  0
3DFACE
  5
5EF
100
AcDbEntity
  8
Sc.1_5
 62
     9
  6
CONTINUOUS
370
    20
100
AcDbFace
 70
     0
 10
1896.75033797
 20
-481.37416725
 30
510.0
 11
1896.75033797
 21
-481.17416725
 31
510.0
 12
1900.35033797
 22
-481.17416725
 32
510.0
 13
1900.35033797
 23
-481.37416725
 33
510.0
  0
LWPOLYLINE
  5
5F0
100
AcDbEntity
  8
Sc.1_5
 62
     9
  6
CADWORK_13
370
    -3
100
AcDbPolyline
 90
        4
 70
     0
 43
0.0
 38
510.0
 10
1899.05033797
 20
-481.17416725
 10
1898.85033797
 20
-482.00256229
 10
1898.25033797
 20
-482.00256229
 10
1898.05033797
 20
-481.17416725
  0
LINE
  5
5F1
100
AcDbEntity
  8
Sc.1_5
 62
     9
  6
CADWORK_13
370
    -3
100
AcDbLine
 10
1898.55033797
 20
-482.00256229
 30
510.0
 11
1898.55033797
 21
-481.17416725
 31
510.0
  0
LWPOLYLINE
  5
5F2
100
AcDbEntity
  8
Sc.1_5
 62
     9
  6
CONTINUOUS
370
    20
100
AcDbPolyline
 90
        8
 70
     1
 43
0.0
 38
510.0
 39
-510.0
 10
1899.55033797
 20
-508.8997488
 10
1899.05033797
 20
-509.23279728
 10
1898.05033797
 20
-509.493823
 10
1897.55033797
 20
-509.55682399
 10
1898.05033797
 20
-509.22377552
 10
1899.05033797
 20
-508.96274979
 10
1899.55033797
 20
-508.8997488
 10
1897.55033797
 20
-509.55682399
  0
LWPOLYLINE
  5
5F3
100
AcDbEntity
  8
Sc.1_5
 62
     9
  6
CONTINUOUS
370
    20
100
AcDbPolyline
 90
        8
 70
     1
 43
0.0
 38
510.0
 39
-510.0
 10
1899.55033797
 20
-507.66251119
 10
1899.05033797
 20
-507.99555966
 10
1898.05033797
 20
-508.25658539
 10
1897.55033797
 20
-508.31958638
 10
1898.05033797
 20
-507.98653791
 10
1899.05033797
 20
-507.72551218
 10
1899.55033797
 20
-507.66251119
 10
1897.55033797
 20
-508.31958638
  0
LWPOLYLINE
  5
5F4
100
AcDbEntity
  8
Sc.1_5
 62
     9
  6
CONTINUOUS
370
    20
100
AcDbPolyline
 90
        8
 70
     1
 43
0.0
 38
510.0
 39
-510.0
 10
1899.55033797
 20
-506.42527357
 10
1899.05033797
 20
-506.75832205
 10
1898.05033797
 20
-507.01934778
 10
1897.55033797
 20
-507.08234877
 10
1898.05033797
 20
-506.74930029
 10
1899.05033797
 20
-506.48827457
 10
1899.55033797
 20
-506.42527357
 10
1897.55033797
 20
-507.08234877
  0
LWPOLYLINE
  5
5F5
100
AcDbEntity
  8
Sc.1_5
 62
     9
  6
CONTINUOUS
370
    20
100
AcDbPolyline
 90
        8
 70
     1
 43
0.0
 38
510.0
 39
-510.0
 10
1899.55033797
 20
-505.18803596
 10
1899.05033797
 20
-505.52108444
 10
1898.05033797
 20
-505.78211017
 10
1897.55033797
 20
-505.84511116
 10
1898.05033797
 20
-505.51206268
 10
1899.05033797
 20
-505.25103695
 10
1899.55033797
 20
-505.18803596
 10
1897.55033797
 20
-505.84511116
  0
LWPOLYLINE
  5
5F6
100
AcDbEntity
  8
Sc.1_5
 62
     9
  6
CONTINUOUS
370
    20
100
AcDbPolyline
 90
        8
 70
     1
 43
0.0
 38
510.0
 39
-510.0
 10
1899.55033797
 20
-503.95079835
 10
1899.05033797
 20
-504.28384683
 10
1898.05033797
 20
-504.54487256
 10
1897.55033797
 20
-504.60787355
 10
1898.05033797
 20
-504.27482507
 10
1899.05033797
 20
-504.01379934
 10
1899.55033797
 20
-503.95079835
 10
1897.55033797
 20
-504.60787355
  0
LWPOLYLINE
  5
5F7
100
AcDbEntity
  8
Sc.1_5
 62
     9
  6
CONTINUOUS
370
    20
100
AcDbPolyline
 90
        8
 70
     1
 43
0.0
 38
510.0
 39
-510.0
 10
1899.55033797
 20
-502.71356074
 10
1899.05033797
 20
-503.04660922
 10
1898.05033797
 20
-503.30763494
 10
1897.55033797
 20
-503.37063594
 10
1898.05033797
 20
-503.03758746
 10
1899.05033797
 20
-502.77656173
 10
1899.55033797
 20
-502.71356074
 10
1897.55033797
 20
-503.37063594
  0
LWPOLYLINE
  5
5F8
100
AcDbEntity
  8
Sc.1_5
 62
     9
  6
CONTINUOUS
370
    20
100
AcDbPolyline
 90
        8
 70
     1
 43
0.0
 38
510.0
 39
-510.0
 10
1899.55033797
 20
-501.47632313
 10
1899.05033797
 20
-501.80937161
 10
1898.05033797
 20
-502.07039733
 10
1897.55033797
 20
-502.13339832
 10
1898.05033797
 20
-501.80034985
 10
1899.05033797
 20
-501.53932412
 10
1899.55033797
 20
-501.47632313
 10
1897.55033797
 20
-502.13339832
  0
LWPOLYLINE
  5
5F9
100
AcDbEntity
  8
Sc.1_5
 62
     9
  6
CONTINUOUS
370
    20
100
AcDbPolyline
 90
        8
 70
     1
 43
0.0
 38
510.0
 39
-510.0
 10
1899.55033797
 20
-500.23908552
 10
1899.05033797
 20
-500.57213399
 10
1898.05033797
 20
-500.83315972
 10
1897.55033797
 20
-500.89616071
 10
1898.05033797
 20
-500.56311223
 10
1899.05033797
 20
-500.30208651
 10
1899.55033797
 20
-500.23908552
 10
1897.55033797
 20
-500.89616071
  0
LWPOLYLINE
  5
5FA
100
AcDbEntity
  8
Sc.1_5
 62
     9
  6
CONTINUOUS
370
    20
100
AcDbPolyline
 90
        8
 70
     1
 43
0.0
 38
510.0
 39
-510.0
 10
1899.55033797
 20
-499.0018479
 10
1899.05033797
 20
-499.33489638
 10
1898.05033797
 20
-499.59592211
 10
1897.55033797
 20
-499.6589231
 10
1898.05033797
 20
-499.32587462
 10
1899.05033797
 20
-499.0648489
 10
1899.55033797
 20
-499.0018479
 10
1897.55033797
 20
-499.6589231
  0
LWPOLYLINE
  5
5FB
100
AcDbEntity
  8
Sc.1_5
 62
     9
  6
CONTINUOUS
370
    20
100
AcDbPolyline
 90
        8
 70
     1
 43
0.0
 38
510.0
 39
-510.0
 10
1899.55033797
 20
-497.76461029
 10
1899.05033797
 20
-498.09765877
 10
1898.05033797
 20
-498.3586845
 10
1897.55033797
 20
-498.42168549
 10
1898.05033797
 20
-498.08863701
 10
1899.05033797
 20
-497.82761128
 10
1899.55033797
 20
-497.76461029
 10
1897.55033797
 20
-498.42168549
  0
LWPOLYLINE
  5
5FC
100
AcDbEntity
  8
Sc.1_5
 62
     9
  6
CONTINUOUS
370
    20
100
AcDbPolyline
 90
        8
 70
     1
 43
0.0
 38
510.0
 39
-510.0
 10
1899.55033797
 20
-496.52737268
 10
1899.05033797
 20
-496.86042116
 10
1898.05033797
 20
-497.12144689
 10
1897.55033797
 20
-497.18444788
 10
1898.05033797
 20
-496.8513994
 10
1899.05033797
 20
-496.59037367
 10
1899.55033797
 20
-496.52737268
 10
1897.55033797
 20
-497.18444788
  0
LWPOLYLINE
  5
5FD
100
AcDbEntity
  8
Sc.1_5
 62
     9
  6
CONTINUOUS
370
    20
100
AcDbPolyline
 90
        8
 70
     1
 43
0.0
 38
510.0
 39
-510.0
 10
1899.55033797
 20
-495.29013507
 10
1899.05033797
 20
-495.62318355
 10
1898.05033797
 20
-495.88420927
 10
1897.55033797
 20
-495.94721027
 10
1898.05033797
 20
-495.61416179
 10
1899.05033797
 20
-495.35313606
 10
1899.55033797
 20
-495.29013507
 10
1897.55033797
 20
-495.94721027
  0
LWPOLYLINE
  5
5FE
100
AcDbEntity
  8
Sc.1_5
 62
     9
  6
CONTINUOUS
370
    20
100
AcDbPolyline
 90
        8
 70
     1
 43
0.0
 38
510.0
 39
-510.0
 10
1899.55033797
 20
-494.05289746
 10
1899.05033797
 20
-494.38594594
 10
1898.05033797
 20
-494.64697166
 10
1897.55033797
 20
-494.70997265
 10
1898.05033797
 20
-494.37692418
 10
1899.05033797
 20
-494.11589845
 10
1899.55033797
 20
-494.05289746
 10
1897.55033797
 20
-494.70997265
  0
LWPOLYLINE
  5
5FF
100
AcDbEntity
  8
Sc.1_5
 62
     9
  6
CONTINUOUS
370
    20
100
AcDbPolyline
 90
        8
 70
     1
 43
0.0
 38
510.0
 39
-510.0
 10
1899.55033797
 20
-492.81565985
 10
1899.05033797
 20
-493.14870832
 10
1898.05033797
 20
-493.40973405
 10
1897.55033797
 20
-493.47273504
 10
1898.05033797
 20
-493.13968656
 10
1899.05033797
 20
-492.87866084
 10
1899.55033797
 20
-492.81565985
 10
1897.55033797
 20
-493.47273504
  0
LWPOLYLINE
  5
600
100
AcDbEntity
  8
Sc.1_5
 62
     9
  6
CONTINUOUS
370
    20
100
AcDbPolyline
 90
        8
 70
     1
 43
0.0
 38
510.0
 39
-510.0
 10
1899.55033797
 20
-491.57842223
 10
1899.05033797
 20
-491.91147071
 10
1898.05033797
 20
-492.17249644
 10
1897.55033797
 20
-492.23549743
 10
1898.05033797
 20
-491.90244895
 10
1899.05033797
 20
-491.64142323
 10
1899.55033797
 20
-491.57842223
 10
1897.55033797
 20
-492.23549743
  0
LWPOLYLINE
  5
601
100
AcDbEntity
  8
Sc.1_5
 62
     9
  6
CONTINUOUS
370
    20
100
AcDbPolyline
 90
        8
 70
     1
 43
0.0
 38
510.0
 39
-510.0
 10
1899.55033797
 20
-490.34118462
 10
1899.05033797
 20
-490.6742331
 10
1898.05033797
 20
-490.93525883
 10
1897.55033797
 20
-490.99825982
 10
1898.05033797
 20
-490.66521134
 10
1899.05033797
 20
-490.40418561
 10
1899.55033797
 20
-490.34118462
 10
1897.55033797
 20
-490.99825982
  0
LWPOLYLINE
  5
602
100
AcDbEntity
  8
Sc.1_5
 62
     9
  6
CONTINUOUS
370
    20
100
AcDbPolyline
 90
        8
 70
     1
 43
0.0
 38
510.0
 39
-510.0
 10
1899.55033797
 20
-489.10394701
 10
1899.05033797
 20
-489.43699549
 10
1898.05033797
 20
-489.69802122
 10
1897.55033797
 20
-489.76102221
 10
1898.05033797
 20
-489.42797373
 10
1899.05033797
 20
-489.166948
 10
1899.55033797
 20
-489.10394701
 10
1897.55033797
 20
-489.76102221
  0
LWPOLYLINE
  5
603
100
AcDbEntity
  8
Sc.1_5
 62
     9
  6
CONTINUOUS
370
    20
100
AcDbPolyline
 90
        8
 70
     1
 43
0.0
 38
510.0
 39
-510.0
 10
1899.55033797
 20
-487.8667094
 10
1899.05033797
 20
-488.19975788
 10
1898.05033797
 20
-488.4607836
 10
1897.55033797
 20
-488.5237846
 10
1898.05033797
 20
-488.19073612
 10
1899.05033797
 20
-487.92971039
 10
1899.55033797
 20
-487.8667094
 10
1897.55033797
 20
-488.5237846
  0
LWPOLYLINE
  5
604
100
AcDbEntity
  8
Sc.1_5
 62
     9
  6
CONTINUOUS
370
    20
100
AcDbPolyline
 90
        8
 70
     1
 43
0.0
 38
510.0
 39
-510.0
 10
1899.55033797
 20
-486.62947179
 10
1899.05033797
 20
-486.96252027
 10
1898.05033797
 20
-487.22354599
 10
1897.55033797
 20
-487.28654698
 10
1898.05033797
 20
-486.95349851
 10
1899.05033797
 20
-486.69247278
 10
1899.55033797
 20
-486.62947179
 10
1897.55033797
 20
-487.28654698
  0
LWPOLYLINE
  5
605
100
AcDbEntity
  8
Sc.1_5
 62
     9
  6
CONTINUOUS
370
    20
100
AcDbPolyline
 90
        8
 70
     1
 43
0.0
 38
510.0
 39
-510.0
 10
1899.55033797
 20
-485.39223418
 10
1899.05033797
 20
-485.72528265
 10
1898.05033797
 20
-485.98630838
 10
1897.55033797
 20
-486.04930937
 10
1898.05033797
 20
-485.71626089
 10
1899.05033797
 20
-485.45523517
 10
1899.55033797
 20
-485.39223418
 10
1897.55033797
 20
-486.04930937
  0
LWPOLYLINE
  5
606
100
AcDbEntity
  8
Sc.1_5
 62
     9
  6
CONTINUOUS
370
    20
100
AcDbPolyline
 90
        8
 70
     1
 43
0.0
 38
510.0
 39
-510.0
 10
1899.55033797
 20
-484.15499656
 10
1899.05033797
 20
-484.48804504
 10
1898.05033797
 20
-484.74907077
 10
1897.55033797
 20
-484.81207176
 10
1898.05033797
 20
-484.47902328
 10
1899.05033797
 20
-484.21799756
 10
1899.55033797
 20
-484.15499656
 10
1897.55033797
 20
-484.81207176
  0
LWPOLYLINE
  5
607
100
AcDbEntity
  8
Sc.1_5
 62
     9
  6
CONTINUOUS
370
    20
100
AcDbPolyline
 90
        8
 70
     1
 43
0.0
 38
510.0
 39
-510.0
 10
1899.55033797
 20
-482.91775895
 10
1899.05033797
 20
-483.25080743
 10
1898.05033797
 20
-483.51183316
 10
1897.55033797
 20
-483.57483415
 10
1898.05033797
 20
-483.24178567
 10
1899.05033797
 20
-482.98075994
 10
1899.55033797
 20
-482.91775895
 10
1897.55033797
 20
-483.57483415
  0
LWPOLYLINE
  5
608
100
AcDbEntity
  8
Sc.1_5
 62
     9
  6
CONTINUOUS
370
    20
100
AcDbPolyline
 90
        6
 70
     1
 43
0.0
 38
548.63999023
 39
-548.63999023
 10
1899.05033797
 20
-512.4968806
 10
1899.41226232
 20
-512.49382018
 10
1899.05033797
 20
-512.70177045
 10
1898.05033797
 20
-512.96679749
 10
1897.68426226
 20
-512.89923425
 10
1898.05033797
 20
-512.69265407
  0
LWPOLYLINE
  5
609
100
AcDbEntity
  8
Sc.1_5
 62
     9
  6
CONTINUOUS
370
    20
100
AcDbPolyline
 90
        6
 70
     1
 43
0.0
 38
548.63999023
 39
-548.63999023
 10
1898.13191633
 20
-513.71011428
 10
1897.85740821
 20
-513.84520618
 10
1898.17734583
 20
-513.9021756
 10
1898.94008171
 20
-513.72783597
 10
1899.23911637
 20
-513.57484941
 10
1898.96460825
 20
-513.57484941
  0
LINE
  5
60A
100
AcDbEntity
  8
Sc.1_5
 62
     9
  6
CONTINUOUS
370
    -3
100
AcDbLine
 10
1897.68426226
 20
-512.89923425
 30
0.0
 11
1899.41226232
 21
-512.49382018
 31
0.0
  0
LINE
  5
60B
100
AcDbEntity
  8
Sc.1_5
 62
     9
  6
CONTINUOUS
370
    -3
100
AcDbLine
 10
1897.85740821
 20
-513.84520618
 30
0.0
 11
1899.23911637
 21
-513.57484941
 31
0.0
  0
LINE
  5
60C
100
AcDbEntity
  8
Sc.1_5
 62
     7
  6
CONTINUOUS
 48
0.5
370
    -3
100
AcDbLine
 10
1951.96685466
 20
-521.64863008
 30
500.0
 11
1939.45148299
 21
-513.09598816
 31
500.0
  0
INSERT
  5
60D
100
AcDbEntity
  8
Sc.1_5
 62
     7
  6
CONTINUOUS
370
    -3
100
AcDbBlockReference
  2
CDWK_EXTR_2
 10
1939.45148299
 20
-513.09598816
 30
500.0
 41
1.0
 42
1.0
 43
1.0
 50
325.65243185
  0
LINE
  5
60E
100
AcDbEntity
  8
Sc.1_5
 62
     7
  6
CONTINUOUS
 48
0.5
370
    -3
100
AcDbLine
 10
1951.25095077
 20
-469.65095306
 30
500.0
 11
1928.9841611
 21
-484.54197154
 31
500.0
  0
INSERT
  5
60F
100
AcDbEntity
  8
Sc.1_5
 62
     7
  6
CONTINUOUS
370
    -3
100
AcDbBlockReference
  2
CDWK_EXTR_2
 10
1928.9841611
 20
-484.54197154
 30
500.0
 41
1.0
 42
1.0
 43
1.0
 50
33.77280916
  0
3DFACE
  5
610
100
AcDbEntity
  8
Sc.1_5
 62
     7
  6
CONTINUOUS
370
    20
100
AcDbFace
 70
     0
 10
1925.05033797
 20
-553.17416725
 30
548.63999023
 11
1934.05033797
 21
-553.17416725
 31
548.63999023
 12
1934.05033797
 22
-505.17416725
 32
548.63999023
 13
1925.05033797
 23
-505.17416725
 33
548.63999023
  0
INSERT
  5
611
100
AcDbEntity
  8
Sc.1_5
 62
     0
370
    20
100
AcDbBlockReference
  2
*X1839
 10
0.0
 20
0.0
 30
0.0
  0
LWPOLYLINE
  5
612
100
AcDbEntity
  8
Sc.1_5
 62
     9
  6
CONTINUOUS
100
AcDbPolyline
 90
        4
 70
     1
 43
0.0
 10
1893.05033795
 20
-515.29122143
 10
1893.05033795
 20
-524.56287142
 10
1894.05033797
 20
-524.56287142
 10
1894.05033797
 20
-515.29122143
  0
LINE
  5
613
100
AcDbEntity
  8
Sc.1_5
 62
     9
  6
CONTINUOUS
100
AcDbLine
 10
1934.05033797
 20
-521.22080034
 30
0.0
 11
1894.05033797
 21
-521.22080034
 31
0.0
  0
LWPOLYLINE
  5
614
100
AcDbEntity
  8
Sc.1_5
 62
     9
  6
CONTINUOUS
100
AcDbPolyline
 90
        4
 70
     1
 43
0.0
 10
1891.05033792
 20
-517.96243354
 10
1891.05033792
 20
-521.9624336
 10
1893.05033795
 20
-521.9624336
 10
1893.05033795
 20
-517.96243354
  0
LINE
  5
615
100
AcDbEntity
  8
Sc.1_5
 62
     9
  6
CONTINUOUS
100
AcDbLine
 10
1894.05033797
 20
-518.82080031
 30
0.0
 11
1934.05033797
 21
-518.82080031
 31
0.0
  0
LINE
  5
616
100
AcDbEntity
  8
Sc.1_5
 62
     9
  6
CONTINUOUS
100
AcDbLine
 10
1891.05033792
 20
-521.01228627
 30
0.0
 11
1893.05033795
 21
-521.01228627
 31
0.0
  0
LINE
  5
617
100
AcDbEntity
  8
Sc.1_5
 62
     9
  6
CONTINUOUS
100
AcDbLine
 10
1891.05033792
 20
-518.94560081
 30
0.0
 11
1893.05033795
 21
-518.94560081
 31
0.0
  0
LWPOLYLINE
  5
618
100
AcDbEntity
  8
Sc.1_5
 62
     9
  6
CONTINUOUS
100
AcDbPolyline
 90
        4
 70
     1
 43
0.0
 10
1937.05033801
 20
-518.82080031
 10
1939.05033801
 20
-518.82080031
 10
1939.05033801
 20
-521.22080034
 10
1937.05033801
 20
-521.22080034
  0
LINE
  5
619
100
AcDbEntity
  8
Sc.1_5
 62
     9
  6
CONTINUOUS
100
AcDbLine
 10
1939.05033801
 20
-521.22080034
 30
0.0
 11
1938.49625434
 21
-518.82080031
 31
0.0
  0
LINE
  5
61A
100
AcDbEntity
  8
Sc.1_5
 62
     9
  6
CONTINUOUS
100
AcDbLine
 10
1938.52650718
 20
-521.22080034
 30
0.0
 11
1937.97242352
 21
-518.82080031
 31
0.0
  0
LINE
  5
61B
100
AcDbEntity
  8
Sc.1_5
 62
     9
  6
CONTINUOUS
100
AcDbLine
 10
1938.050338
 20
-521.22080034
 30
0.0
 11
1937.49625433
 21
-518.82080031
 31
0.0
  0
LWPOLYLINE
  5
61C
100
AcDbEntity
  8
Sc.1_5
 62
     9
  6
CONTINUOUS
100
AcDbPolyline
 90
        4
 70
     1
 43
0.0
 10
1935.05033798
 20
-515.29122143
 10
1935.05033798
 20
-524.56287142
 10
1934.05033797
 20
-524.56287142
 10
1934.05033797
 20
-515.29122143
  0
LWPOLYLINE
  5
61D
100
AcDbEntity
  8
Sc.1_5
 62
     9
  6
CONTINUOUS
100
AcDbPolyline
 90
        4
 70
     1
 43
0.0
 10
1937.05033801
 20
-517.96243354
 10
1937.05033801
 20
-521.9624336
 10
1935.05033798
 20
-521.9624336
 10
1935.05033798
 20
-517.96243354
  0
LINE
  5
61E
100
AcDbEntity
  8
Sc.1_5
 62
     9
  6
CONTINUOUS
100
AcDbLine
 10
1937.05033801
 20
-521.01228627
 30
0.0
 11
1935.05033798
 21
-521.01228627
 31
0.0
  0
LINE
  5
61F
100
AcDbEntity
  8
Sc.1_5
 62
     9
  6
CONTINUOUS
100
AcDbLine
 10
1937.05033801
 20
-518.94560081
 30
0.0
 11
1935.05033798
 21
-518.94560081
 31
0.0
  0
LINE
  5
620
100
AcDbEntity
  8
Sc.1_5
 62
     9
  6
CONTINUOUS
100
AcDbLine
 10
1937.57413799
 20
-521.22080034
 30
0.0
 11
1937.05033801
 21
-518.95197338
 31
0.0
  0
LWPOLYLINE
  5
621
100
AcDbEntity
  8
Sc.1_5
 62
     9
  6
CONTINUOUS
100
AcDbPolyline
 90
        4
 70
     1
 43
0.0
 10
1893.05033795
 20
-538.5029551
 10
1893.05033795
 20
-547.77460509
 10
1894.05033797
 20
-547.77460509
 10
1894.05033797
 20
-538.5029551
  0
LWPOLYLINE
  5
622
100
AcDbEntity
  8
Sc.1_5
 62
     9
  6
CONTINUOUS
100
AcDbPolyline
 90
        4
 70
     1
 43
0.0
 10
1891.05033792
 20
-541.17416722
 10
1891.05033792
 20
-545.17416728
 10
1893.05033795
 20
-545.17416728
 10
1893.05033795
 20
-541.17416722
  0
LWPOLYLINE
  5
623
100
AcDbEntity
  8
Sc.1_5
 62
     9
  6
CONTINUOUS
100
AcDbPolyline
 90
        4
 70
     1
 43
0.0
 10
1935.05033798
 20
-538.5029551
 10
1935.05033798
 20
-547.77460509
 10
1934.05033797
 20
-547.77460509
 10
1934.05033797
 20
-538.5029551
  0
LWPOLYLINE
  5
624
100
AcDbEntity
  8
Sc.1_5
 62
     9
  6
CONTINUOUS
100
AcDbPolyline
 90
        4
 70
     1
 43
0.0
 10
1937.05033801
 20
-541.17416722
 10
1937.05033801
 20
-545.17416728
 10
1935.05033798
 20
-545.17416728
 10
1935.05033798
 20
-541.17416722
  0
LINE
  5
625
100
AcDbEntity
  8
Sc.1_5
 62
     9
  6
CONTINUOUS
100
AcDbLine
 10
1891.05033792
 20
-544.22401995
 30
0.0
 11
1893.05033795
 21
-544.22401995
 31
0.0
  0
LINE
  5
626
100
AcDbEntity
  8
Sc.1_5
 62
     9
  6
CONTINUOUS
100
AcDbLine
 10
1891.05033792
 20
-542.15733448
 30
0.0
 11
1893.05033795
 21
-542.15733448
 31
0.0
  0
LINE
  5
627
100
AcDbEntity
  8
Sc.1_5
 62
     9
  6
CONTINUOUS
100
AcDbLine
 10
1937.05033801
 20
-544.22401995
 30
0.0
 11
1935.05033798
 21
-544.22401995
 31
0.0
  0
LINE
  5
628
100
AcDbEntity
  8
Sc.1_5
 62
     9
  6
CONTINUOUS
100
AcDbLine
 10
1937.05033801
 20
-542.15733448
 30
0.0
 11
1935.05033798
 21
-542.15733448
 31
0.0
  0
3DFACE
  5
629
100
AcDbEntity
  8
Sc.1_5
 62
     9
  6
CONTINUOUS
370
    20
100
AcDbFace
 70
     0
 10
1894.05033797
 20
-542.03253398
 30
548.63999023
 11
1934.05033797
 21
-542.03253398
 31
548.63999023
 12
1934.05033797
 22
-544.43253401
 32
548.63999023
 13
1894.05033797
 23
-544.43253401
 33
548.63999023
  0
3DFACE
  5
62A
100
AcDbEntity
  8
Sc.1_5
 62
     9
  6
CONTINUOUS
370
    20
100
AcDbFace
 70
     0
 10
1894.05033797
 20
-518.82080031
 30
548.63999023
 11
1934.05033797
 21
-518.82080031
 31
548.63999023
 12
1934.05033797
 22
-521.22080034
 32
548.63999023
 13
1894.05033797
 23
-521.22080034
 33
548.63999023
  0
TEXT
  5
62B
100
AcDbEntity
  8
Sc.1_5
 62
     7
370
    18
100
AcDbText
 10
1952.25271943
 20
-422.28754952
 30
0.0
 40
2.5
  1
Stud frame wall to NZS3604:2011
  7
TAHOMA
 50
0.0
 41
0.8
 51
0.0
100
AcDbText
  0
TEXT
  5
62C
100
AcDbEntity
  8
Sc.1_5
 62
     7
370
    18
100
AcDbText
 10
1952.25271943
 20
-580.96957767
 30
0.0
 40
2.5
  1
Timber pile
  7
TAHOMA
 50
0.0
 41
0.8
 51
0.0
100
AcDbText
  0
TEXT
  5
62D
100
AcDbEntity
  8
Sc.1_5
 62
     7
370
    18
100
AcDbText
 10
1952.25271943
 20
-522.87925998
 30
0.0
 40
2.5
  1
Insulation as per thermal requirements
  7
TAHOMA
 50
0.0
 41
0.8
 51
0.0
100
AcDbText
  0
TEXT
  5
62E
100
AcDbEntity
  8
Sc.1_5
 62
     7
370
    18
100
AcDbText
 10
1952.25271943
 20
-571.16093565
 30
0.0
 40
2.5
  1
Floor bearers
  7
TAHOMA
 50
0.0
 41
0.8
 51
0.0
100
AcDbText
  0
TEXT
  5
62F
100
AcDbEntity
  8
Sc.1_5
 62
     7
370
    35
100
AcDbText
 10
1952.25271943
 20
-470.90095306
 30
0.0
 40
2.5
  1
Woodspan PLT floor panel
  7
TAHOMA
 50
0.0
 41
0.8
 51
0.0
100
AcDbText
  0
TEXT
  5
630
100
AcDbEntity
  8
Sc.1_5
 62
     7
370
    18
100
AcDbText
 10
1952.25271943
 20
-475.15095306
 30
0.0
 40
2.5
  1
all fixings as per engineer's details
  7
TAHOMA
 50
0.0
 41
0.8
 51
0.0
100
AcDbText
  0
TEXT
  5
631
100
AcDbEntity
  8
LEGEND
 62
     7
370
    -3
100
AcDbText
 10
2024.98468865
 20
-620.90625768
 30
0.0
 40
1.60000002
  1
Date
  7
TAHOMA
 50
0.0
 41
1.0
 51
0.0
100
AcDbText
  0
TEXT
  5
632
100
AcDbEntity
  8
LEGEND
 62
     7
370
    -3
100
AcDbText
 10
2010.07643998
 20
-629.53743842
 30
0.0
 40
1.60000002
  1
Detail
  7
TAHOMA
 50
0.0
 41
1.0
 51
0.0
100
AcDbText
  0
TEXT
  5
633
100
AcDbEntity
  8
LEGEND
 62
     7
370
    18
100
AcDbText
 10
2013.50405522
 20
-625.34741029
 30
0.0
 40
2.79999995
  1
1.0
  7
TAHOMA
 50
0.0
 41
1.0
 51
0.0
100
AcDbText
  0
TEXT
  5
634
100
AcDbEntity
  8
LEGEND
 62
     7
370
    -3
100
AcDbText
 10
2010.07643998
 20
-620.90625768
 30
0.0
 40
1.60000002
  1
Version
  7
TAHOMA
 50
0.0
 41
1.0
 51
0.0
100
AcDbText
  0
TEXT
  5
635
100
AcDbEntity
  8
LEGEND
 62
     7
370
    18
100
AcDbText
 10
1938.07951321
 20
-625.48025768
 30
0.0
 40
4.0
  1
PLT to timber perimeter bearer
  7
TAHOMA
 50
0.0
 41
0.95
 51
0.0
100
AcDbText
  0
TEXT
  5
636
100
AcDbEntity
  8
LEGEND
 62
     7
370
    -3
100
AcDbText
 10
1879.13564867
 20
-620.90625768
 30
0.0
 40
1.60000002
  1
Phone:
  7
TAHOMA
 50
0.0
 41
1.0
 51
0.0
100
AcDbText
  0
TEXT
  5
637
100
AcDbEntity
  8
LEGEND
 62
     7
370
    -3
100
AcDbText
 10
1879.13564867
 20
-625.02704484
 30
0.0
 40
1.60000002
  1
Email:
  7
TAHOMA
 50
0.0
 41
1.0
 51
0.0
100
AcDbText
  0
TEXT
  5
638
100
AcDbEntity
  8
LEGEND
 62
     7
370
    -3
100
AcDbText
 10
1879.13564867
 20
-629.14783201
 30
0.0
 40
1.60000002
  1
Web:
  7
TAHOMA
 50
0.0
 41
1.0
 51
0.0
100
AcDbText
  0
TEXT
  5
639
100
AcDbEntity
  8
LEGEND
 62
     7
370
    18
100
AcDbText
 10
1889.03762964
 20
-621.70625768
 30
0.0
 40
2.4000001
  1
06 755 9000
  7
TAHOMA
 50
0.0
 41
1.0
 51
0.0
100
AcDbText
  0
TEXT
  5
63A
100
AcDbEntity
  8
LEGEND
 62
     7
370
    18
100
AcDbText
 10
1889.03762964
 20
-625.82704484
 30
0.0
 40
2.4000001
  1
info@woodspan.co.nz
  7
TAHOMA
 50
0.0
 41
1.0
 51
0.0
100
AcDbText
  0
TEXT
  5
63B
100
AcDbEntity
  8
LEGEND
 62
     7
370
    18
100
AcDbText
 10
1889.03762964
 20
-629.94783201
 30
0.0
 40
2.4000001
  1
www.woodspan.co.nz
  7
TAHOMA
 50
0.0
 41
1.0
 51
0.0
100
AcDbText
  0
TEXT
  5
63C
100
AcDbEntity
  8
LEGEND
 62
     7
370
    18
100
AcDbText
 10
1879.08801439
 20
-634.06861917
 30
0.0
 40
2.4000001
  1
Connett Road, Bell Block, New Plymouth
  7
TAHOMA
 50
0.0
 41
1.0
 51
0.0
100
AcDbText
  0
TEXT
  5
63D
100
AcDbEntity
  8
LEGEND
 62
     7
370
    18
100
AcDbText
 10
2026.07033813
 20
-625.14741029
 30
0.0
 40
2.4000001
  1
11.07.2019
  7
TAHOMA
 50
0.0
 41
1.0
 51
0.0
100
AcDbText
  0
TEXT
  5
63E
100
AcDbEntity
  8
LEGEND
 62
     7
370
    18
100
AcDbText
 10
2018.10371635
 20
-633.08076497
 30
0.0
 40
4.0
  1

  7
TAHOMA
 50
0.0
 41
0.95
 51
0.0
100
AcDbText
  0
TEXT
  5
63F
100
AcDbEntity
  8
LEGEND
 62
     7
370
    18
100
AcDbText
 10
2018.86941958
 20
-633.40384691
 30
0.0
 40
4.0
  1
PLT 1.2
  7
TAHOMA
 50
0.0
 41
0.95
 51
0.0
100
AcDbText
  0
TEXT
  5
640
100
AcDbEntity
  8
LEGEND
 62
     7
370
    18
100
AcDbText
 10
1930.71087364
 20
-615.94587079
 30
0.0
 40
2.4000001
  1
Indicative details only
  7
TAHOMA
 50
0.0
 41
1.0
 51
0.0
100
AcDbText
  0
ENDSEC
  0
SECTION
  2
OBJECTS
  0
DICTIONARY
  5
1
100
AcDbDictionary
  3
ACAD_GROUP
350
2
  3
ACAD_MLINESTYLE
350
3
  0
DICTIONARY
  5
2
102
{CDWK_REACTORS
330
1
102
}
100
AcDbDictionary
  0
DICTIONARY
  5
3
102
{CDWK_REACTORS
330
1
102
}
100
AcDbDictionary
  3
STANDARD
350
4
  0
MLINESTYLE
  5
4
102
{CDWK_REACTORS
330
3
102
}
100
AcDbMlineStyle
  2
STANDARD
 70
     0
  3

 62
     0
 51
90.0
 52
90.0
 71
     2
 49
0.5
 62
   256
  6
BYLAYER
 49
-0.5
 62
   256
  6
BYLAYER
  0
ENDSEC
  0
EOF
