  0
SECTION
  2
HEADER
  9
$ACADVER
  1
AC1014
  9
$DWGCODEPAGE
  3
ANSI_1252
  9
$INSBASE
 10
0.0
 20
0.0
 30
0.0
  9
$EXTMIN
 10
1604.1442253
 20
-1064.75031721
  9
$EXTMAX
 10
1801.46102669
 20
-793.75031721
  9
$LIMMIN
 10
1604.1442253
 20
-1064.75031721
  9
$LIMMAX
 10
1801.46102669
 20
-793.75031721
  9
$ORTHOMODE
 70
     0
  9
$REGENMODE
 70
     1
  9
$FILLMODE
 70
     1
  9
$QTEXTMODE
 70
     0
  9
$MIRRTEXT
 70
     1
  9
$DRAGMODE
 70
     2
  9
$LTSCALE
 40
1.0
  9
$OSMODE
 70
     0
  9
$ATTMODE
 70
     1
  9
$TEXTSIZE
 40
3.5
  9
$TRACEWID
 40
1.0
  9
$TEXTSTYLE
  7
STANDARD
  9
$CLAYER
  8
0
  9
$CELTYPE
  6
BYLAYER
  9
$CECOLOR
 62
   256
  9
$DIMSCALE
 40
1.0
  9
$DIMASZ
 40
2.0
  9
$DIMEXO
 40
5.0
  9
$DIMDLI
 40
10.0
  9
$DIMRND
 40
0.0
  9
$DIMDLE
 40
2.0
  9
$DIMEXE
 40
2.0
  9
$DIMTP
 40
0.0
  9
$DIMTM
 40
0.0
  9
$DIMTXT
 40
2.1
  9
$DIMCEN
 40
1.5
  9
$DIMTSZ
 40
0.0
  9
$DIMTOL
 70
     0
  9
$DIMLIM
 70
     0
  9
$DIMTIH
 70
     1
  9
$DIMTOH
 70
     0
  9
$DIMSE1
 70
     0
  9
$DIMSE2
 70
     0
  9
$DIMTAD
 70
     1
  9
$DIMZIN
 70
     8
  9
$DIMBLK
  1

  9
$DIMASO
 70
     1
  9
$DIMSHO
 70
     1
  9
$DIMPOST
  1

  9
$DIMAPOST
  1

  9
$DIMALT
 70
     0
  9
$DIMALTD
 70
     2
  9
$DIMALTF
 40
25.4
  9
$DIMLFAC
 40
1.0
  9
$DIMTOFL
 70
     0
  9
$DIMTVP
 40
0.0
  9
$DIMTIX
 70
     0
  9
$DIMSOXD
 70
     0
  9
$DIMSAH
 70
     0
  9
$DIMBLK1
  1

  9
$DIMBLK2
  1

  9
$DIMSTYLE
  2
*UNNAMED
  9
$DIMCLRD
 70
     5
  9
$DIMCLRE
 70
     5
  9
$DIMCLRT
 70
     5
  9
$DIMTFAC
 40
1.0
  9
$DIMGAP
 40
0.09
  9
$DIMUNIT
 70
     2
  9
$LUNITS
 70
     2
  9
$LUPREC
 70
     6
  9
$AXISMODE
 70
     0
  9
$AXISUNIT
 10
0.0
 20
0.0
  9
$SKETCHINC
 40
0.1
  9
$FILLETRAD
 40
0.0
  9
$AUNITS
 70
     0
  9
$AUPREC
 70
     0
  9
$MENU
  1
ACAD
  9
$ELEVATION
 40
0.0
  9
$PELEVATION
 40
0.0
  9
$THICKNESS
 40
0.0
  9
$LIMCHECK
 70
     0
  9
$BLIPMODE
 70
     1
  9
$CHAMFERA
 40
0.0
  9
$CHAMFERB
 40
0.0
  9
$SKPOLY
 70
     1
  9
$TDCREATE
 40
2458675.0000000000
  9
$TDUPDATE
 40
2458675.0000000000
  9
$TDINDWG
 40
0.0
  9
$TDUSRTIMER
 40
0.0
  9
$USRTIMER
 70
     1
  9
$ANGBASE
 50
0.0
  9
$ANGDIR
 70
     0
  9
$PDMODE
 70
     0
  9
$PDSIZE
 40
0.0
  9
$PLINEWID
 40
0.0
  9
$COORDS
 70
     2
  9
$SPLFRAME
 70
     0
  9
$SPLINETYPE
 70
     6
  9
$SPLINESEGS
 70
     8
  9
$ATTDIA
 70
     1
  9
$ATTREQ
 70
     1
  9
$HANDLING
 70
     1
  9
$HANDSEED
  5
     511
  9
$SURFTAB1
 70
     6
  9
$SURFTAB2
 70
     6
  9
$SURFTYPE
 70
     6
  9
$SURFU
 70
     6
  9
$SURFV
 70
     6
  9
$UCSNAME
  2

  9
$UCSORG
 10
0.0
 20
0.0
 30
0.0
  9
$UCSXDIR
 10
1.0
 20
0.0
 30
0.0
  9
$UCSYDIR
 10
0.0
 20
1.0
 30
0.0
  9
$PUCSNAME
  2

  9
$PUCSORG
 10
0.0
 20
0.0
 30
0.0
  9
$PUCSXDIR
 10
1.0
 20
0.0
 30
0.0
  9
$PUCSYDIR
 10
0.0
 20
1.0
 30
0.0
  9
$USERI1
 70
     0
  9
$USERI2
 70
     0
  9
$USERI3
 70
     0
  9
$USERI4
 70
     0
  9
$USERI5
 70
     0
  9
$USERR1
 40
0.0
  9
$USERR2
 40
0.0
  9
$USERR3
 40
0.0
  9
$USERR4
 40
0.0
  9
$USERR5
 40
0.0
  9
$WORLDVIEW
 70
     1
  9
$SHADEDGE
 70
     3
  9
$SHADEDIF
 70
    70
  9
$TILEMODE
 70
     1
  9
$MAXACTVP
 70
    16
  9
$PINSBASE
 10
0.0
 20
0.0
 30
0.0
  9
$PLIMCHECK
 70
     0
  9
$PEXTMIN
 10
1.0000000000000E+20
 20
1.0000000000000E+20
 30
1.0000000000000E+20
  9
$PEXTMAX
 10
-1.0000000000000E+20
 20
-1.0000000000000E+20
 30
-1.0000000000000E+20
  9
$PLIMMIN
 10
0.0
 20
0.0
  9
$UNITMODE
 70
     0
  9
$VISRETAIN
 70
     0
  9
$MEASUREMENT
 70
     1
  0
ENDSEC
  0
SECTION
  2
TABLES
  0
TABLE
  2
VPORT
  5
1B2
100
AcDbSymbolTable
 70
     1
  0
ENDTAB
  0
TABLE
  2
STYLE
  5
1B3
100
AcDbSymbolTable
 70
     3
  0
STYLE
  5
1B4
100
AcDbSymbolTableRecord
100
AcDbTextStyleTableRecord
  2
STANDARD
 70
     0
 40
0.0
 41
1.0
 50
0.0
 71
     0
 42
3.5
  3
MONOTXT
  4

  0
STYLE
  5
1B5
100
AcDbSymbolTableRecord
100
AcDbTextStyleTableRecord
  2
SYMAP
 70
     0
 40
0.0
 41
1.0
 50
0.0
 71
     0
 42
3.5
  3
SYMAP
  4

  0
STYLE
  5
1B6
100
AcDbSymbolTableRecord
100
AcDbTextStyleTableRecord
  2
CADWORK1
 70
     0
 40
0.0
 41
1.0
 50
0.0
 71
     0
 42
3.5
  3
MONOTXT
  4

  0
STYLE
  5
1B7
100
AcDbSymbolTableRecord
100
AcDbTextStyleTableRecord
  2
MONOTXT
 70
     0
 40
0.0
 41
1.0
 50
0.0
 71
     0
 42
3.5
  3
MONOTXT
  4

  0
STYLE
  5
1B8
100
AcDbSymbolTableRecord
100
AcDbTextStyleTableRecord
  2
TAHOMA
 70
     0
 40
0.0
 41
1.0
 50
0.0
 71
     0
 42
3.5
  3

  4

1001
ACAD
1000
Tahoma
1071
        0
  0
ENDTAB
  0
TABLE
  2
LTYPE
  5
1B9
100
AcDbSymbolTable
 70
    15
  0
LTYPE
  5
1BA
100
AcDbSymbolTableRecord
100
AcDbLinetypeTableRecord
  2
BYBLOCK
 70
    64
  3

 72
    65
 73
     0
 40
0.0
  0
LTYPE
  5
1BB
100
AcDbSymbolTableRecord
100
AcDbLinetypeTableRecord
  2
BYLAYER
 70
    64
  3

 72
    65
 73
     0
 40
0.0
  0
LTYPE
  5
1BC
100
AcDbSymbolTableRecord
100
AcDbLinetypeTableRecord
  2
CONTINUOUS
 70
    64
  3
Solid line
 72
    65
 73
     0
 40
0.0
  0
LTYPE
  5
1BD
100
AcDbSymbolTableRecord
100
AcDbLinetypeTableRecord
  2
DOT2
 70
    64
  3
...............................................
 72
    65
 73
     2
 40
1.25
 49
0.0
 74
     0
 49
-1.25
 74
     0
  0
LTYPE
  5
1BE
100
AcDbSymbolTableRecord
100
AcDbLinetypeTableRecord
  2
CADWORK_13
 70
    64
  3
13 =======================================
 72
    65
 73
     2
 40
4.0
 49
2.0
 74
     0
 49
-2.0
 74
     0
  0
LTYPE
  5
1BF
100
AcDbSymbolTableRecord
100
AcDbLinetypeTableRecord
  2
DASHED
 70
    64
  3
__ __ __ __ __ __ __ __ __ __ __ __ __ __ __ __
 72
    65
 73
     2
 40
7.5
 49
5.0
 74
     0
 49
-2.5
 74
     0
  0
LTYPE
  5
1C0
100
AcDbSymbolTableRecord
100
AcDbLinetypeTableRecord
  2
DASHDOT
 70
    64
  3
 __ . __ . __ . __ . __ . __ . __ . __ . __ . __
 72
    65
 73
     4
 40
10.0
 49
5.0
 74
     0
 49
-2.5
 74
     0
 49
0.0
 74
     0
 49
-2.5
 74
     0
  0
LTYPE
  5
1C1
100
AcDbSymbolTableRecord
100
AcDbLinetypeTableRecord
  2
CADWORK_16
 70
    64
  3
--´\,----´\,----´\,----´\,----´\,----´\,----´\,--
 72
    65
 73
     5
 40
17.0
 49
2.0
 74
     0
 49
0.0
 74
     2
 75
     0
340
1B4
 46
6.0
 50
170.0
 44
3.01999998
 45
5.57999992
  9
|
 49
-2.0999999
 74
     2
 75
     0
340
1B4
 46
12.0
 50
10.0
 44
-2.9000001
 45
-6.5999999
  9
|
 49
-2.0999999
 74
     2
 75
     0
340
1B4
 46
6.0
 50
170.0
 44
1.96000004
 45
-0.36000001
  9
|
 49
10.80000019
 74
     0
  0
LTYPE
  5
1C2
100
AcDbSymbolTableRecord
100
AcDbLinetypeTableRecord
  2
CADWORK_15
 70
    64
  3
15 =======================================
 72
    65
 73
     0
 40
0.0
  0
LTYPE
  5
1C3
100
AcDbSymbolTableRecord
100
AcDbLinetypeTableRecord
  2
DAL
 70
    64
  3
Solid line (for MAPS)
 72
    65
 73
     0
 40
0.0
  0
LTYPE
  5
1C4
100
AcDbSymbolTableRecord
100
AcDbLinetypeTableRecord
  2
MUR
 70
    64
  3
Solid line (for MAPS)
 72
    65
 73
     0
 40
0.0
  0
LTYPE
  5
1C5
100
AcDbSymbolTableRecord
100
AcDbLinetypeTableRecord
  2
SOM
 70
    64
  3
Solid line (for MAPS)
 72
    65
 73
     0
 40
0.0
  0
LTYPE
  5
1C6
100
AcDbSymbolTableRecord
100
AcDbLinetypeTableRecord
  2
COL
 70
    64
  3
Solid line (for MAPS)
 72
    65
 73
     0
 40
0.0
  0
LTYPE
  5
1C7
100
AcDbSymbolTableRecord
100
AcDbLinetypeTableRecord
  2
LGN
 70
    64
  3
Solid line (for MAPS)
 72
    65
 73
     0
 40
0.0
  0
LTYPE
  5
1C8
100
AcDbSymbolTableRecord
100
AcDbLinetypeTableRecord
  2
PNT
 70
    64
  3
Solid line (for MAPS)
 72
    65
 73
     0
 40
0.0
  0
ENDTAB
  0
TABLE
  2
LAYER
  5
1C9
100
AcDbSymbolTable
 70
    16
  0
LAYER
  5
1CA
100
AcDbSymbolTableRecord
100
AcDbLayerTableRecord
  2
0
 70
     0
 62
     1
  6
CONTINUOUS
370
    -3
  0
LAYER
  5
1CB
100
AcDbSymbolTableRecord
100
AcDbLayerTableRecord
  2
Standard
 70
     0
 62
     7
  6
CONTINUOUS
370
    -3
  0
LAYER
  5
1CC
100
AcDbSymbolTableRecord
100
AcDbLayerTableRecord
  2
Sc.1_1
 70
     0
 62
     7
  6
CONTINUOUS
370
    -3
  0
LAYER
  5
1CD
100
AcDbSymbolTableRecord
100
AcDbLayerTableRecord
  2
Sc.1_2
 70
     0
 62
     7
  6
CONTINUOUS
370
    -3
  0
LAYER
  5
1CE
100
AcDbSymbolTableRecord
100
AcDbLayerTableRecord
  2
Sc.1_5
 70
     0
 62
     7
  6
CONTINUOUS
370
    -3
  0
LAYER
  5
1CF
100
AcDbSymbolTableRecord
100
AcDbLayerTableRecord
  2
Sc.1_10
 70
     0
 62
     7
  6
CONTINUOUS
370
    -3
  0
LAYER
  5
1D0
100
AcDbSymbolTableRecord
100
AcDbLayerTableRecord
  2
Sc.1_20
 70
     0
 62
     7
  6
CONTINUOUS
370
    -3
  0
LAYER
  5
1D1
100
AcDbSymbolTableRecord
100
AcDbLayerTableRecord
  2
Sc.1_25
 70
     0
 62
     7
  6
CONTINUOUS
370
    -3
  0
LAYER
  5
1D2
100
AcDbSymbolTableRecord
100
AcDbLayerTableRecord
  2
Sc.1_33
 70
     0
 62
     7
  6
CONTINUOUS
370
    -3
  0
LAYER
  5
1D3
100
AcDbSymbolTableRecord
100
AcDbLayerTableRecord
  2
Sc.1_50
 70
     0
 62
     7
  6
CONTINUOUS
370
    -3
  0
LAYER
  5
1D4
100
AcDbSymbolTableRecord
100
AcDbLayerTableRecord
  2
Sc.1_75
 70
     0
 62
     7
  6
CONTINUOUS
370
    -3
  0
LAYER
  5
1D5
100
AcDbSymbolTableRecord
100
AcDbLayerTableRecord
  2
Sc.1_100
 70
     0
 62
     7
  6
CONTINUOUS
370
    -3
  0
LAYER
  5
1D6
100
AcDbSymbolTableRecord
100
AcDbLayerTableRecord
  2
Sc.1_200
 70
     0
 62
     7
  6
CONTINUOUS
370
    -3
  0
LAYER
  5
1D7
100
AcDbSymbolTableRecord
100
AcDbLayerTableRecord
  2
Sc.1_500
 70
     0
 62
     7
  6
CONTINUOUS
370
    -3
  0
LAYER
  5
1D8
100
AcDbSymbolTableRecord
100
AcDbLayerTableRecord
  2
Sc.1_1000
 70
     0
 62
     7
  6
CONTINUOUS
370
    -3
  0
LAYER
  5
1D9
100
AcDbSymbolTableRecord
100
AcDbLayerTableRecord
  2
Laser frames
 70
     0
 62
     7
  6
CONTINUOUS
370
    18
  0
LAYER
  5
1DA
100
AcDbSymbolTableRecord
100
AcDbLayerTableRecord
  2
LEGEND
 70
     0
 62
     7
  6
CONTINUOUS
370
    -3
  0
ENDTAB
  0
TABLE
  2
VIEW
  5
1DB
100
AcDbSymbolTable
 70
     0
  0
ENDTAB
  0
TABLE
  2
UCS
  5
1DC
100
AcDbSymbolTable
 70
     0
  0
ENDTAB
  0
TABLE
  2
APPID
  5
1DD
100
AcDbSymbolTable
 70
     1
  0
APPID
  5
1DE
100
AcDbSymbolTableRecord
100
AcDbRegAppTableRecord
  2
ACAD
 70
     0
  0
ENDTAB
  0
TABLE
  2
DIMSTYLE
  5
1DF
100
AcDbSymbolTable
 70
     0
  0
ENDTAB
  0
TABLE
  2
BLOCK_RECORD
  5
1E0
100
AcDbSymbolTable
 70
     0
  0
BLOCK_RECORD
  5
1E1
100
AcDbSymbolTableRecord
100
AcDbBlockTableRecord
  2
*MODEL_SPACE
  0
BLOCK_RECORD
  5
1E2
100
AcDbSymbolTableRecord
100
AcDbBlockTableRecord
  2
*PAPER_SPACE
  0
BLOCK_RECORD
  5
1E3
100
AcDbSymbolTableRecord
100
AcDbBlockTableRecord
  2
CDWK_EXTR_0
  0
BLOCK_RECORD
  5
1E4
100
AcDbSymbolTableRecord
100
AcDbBlockTableRecord
  2
CDWK_EXTR_1D
  0
BLOCK_RECORD
  5
1E5
100
AcDbSymbolTableRecord
100
AcDbBlockTableRecord
  2
CDWK_EXTR_1G
  0
BLOCK_RECORD
  5
1E6
100
AcDbSymbolTableRecord
100
AcDbBlockTableRecord
  2
CDWK_EXTR_2
  0
BLOCK_RECORD
  5
1E7
100
AcDbSymbolTableRecord
100
AcDbBlockTableRecord
  2
CDWK_EXTR_3
  0
BLOCK_RECORD
  5
1E8
100
AcDbSymbolTableRecord
100
AcDbBlockTableRecord
  2
CDWK_EXTR_4
  0
BLOCK_RECORD
  5
1E9
100
AcDbSymbolTableRecord
100
AcDbBlockTableRecord
  2
CDWK_PTTYP0
  0
BLOCK_RECORD
  5
1EA
100
AcDbSymbolTableRecord
100
AcDbBlockTableRecord
  2
*X2002
  0
BLOCK_RECORD
  5
1EB
100
AcDbSymbolTableRecord
100
AcDbBlockTableRecord
  2
*X2003
  0
BLOCK_RECORD
  5
1EC
100
AcDbSymbolTableRecord
100
AcDbBlockTableRecord
  2
*X2004
  0
BLOCK_RECORD
  5
1ED
100
AcDbSymbolTableRecord
100
AcDbBlockTableRecord
  2
*X2012
  0
BLOCK_RECORD
  5
1EE
100
AcDbSymbolTableRecord
100
AcDbBlockTableRecord
  2
*X2013
  0
BLOCK_RECORD
  5
1EF
100
AcDbSymbolTableRecord
100
AcDbBlockTableRecord
  2
*X2014
  0
ENDTAB
  0
ENDSEC
  0
SECTION
  2
BLOCKS
  0
BLOCK
  5
1F0
100
AcDbEntity
  8
0
100
AcDbBlockBegin
  2
*MODEL_SPACE
 70
     0
 10
0.0
 20
0.0
 30
0.0
  3
*MODEL_SPACE
  1

  0
ENDBLK
  5
1F1
100
AcDbEntity
100
AcDbBlockEnd
  0
BLOCK
  5
1F2
100
AcDbEntity
  8
0
100
AcDbBlockBegin
  2
*PAPER_SPACE
 70
     0
 10
0.0
 20
0.0
 30
0.0
  3
*PAPER_SPACE
  1

  0
ENDBLK
  5
1F3
100
AcDbEntity
100
AcDbBlockEnd
  0
BLOCK
  5
1F4
100
AcDbEntity
  8
0
100
AcDbBlockBegin
  2
CDWK_EXTR_0
 70
     0
 10
0.0
 20
0.0
 30
0.0
  3
CDWK_EXTR_0
  1

  4
Cadwork line-extremity
  0
LINE
  5
1F5
100
AcDbEntity
  8
0
 62
     0
370
    -2
100
AcDbLine
 10
0.0
 20
0.0
 30
0.0
 11
2.0
 21
0.5
 31
0.0
  0
LINE
  5
1F6
100
AcDbEntity
  8
0
 62
     0
370
    -2
100
AcDbLine
 10
0.0
 20
0.0
 30
0.0
 11
2.0
 21
-0.5
 31
0.0
  0
LINE
  5
1F7
100
AcDbEntity
  8
0
 62
     0
370
    -2
100
AcDbLine
 10
2.0
 20
0.5
 30
0.0
 11
2.0
 21
-0.5
 31
0.0
  0
ENDBLK
  5
1F8
100
AcDbEntity
100
AcDbBlockEnd
  0
BLOCK
  5
1F9
100
AcDbEntity
  8
0
100
AcDbBlockBegin
  2
CDWK_EXTR_1D
 70
     0
 10
0.0
 20
0.0
 30
0.0
  3
CDWK_EXTR_1D
  1

  4
Cadwork line-extremity
  0
LINE
  5
1FA
100
AcDbEntity
  8
0
 62
     0
370
    -2
100
AcDbLine
 10
0.0
 20
0.0
 30
0.0
 11
0.0
 21
1.0
 31
0.0
  0
LINE
  5
1FB
100
AcDbEntity
  8
0
 62
     0
370
    -2
100
AcDbLine
 10
0.0
 20
1.0
 30
0.0
 11
0.5
 21
1.5
 31
0.0
  0
LINE
  5
1FC
100
AcDbEntity
  8
0
 62
     0
370
    -2
100
AcDbLine
 10
0.5
 20
1.5
 30
0.0
 11
1.5
 21
1.5
 31
0.0
  0
ENDBLK
  5
1FD
100
AcDbEntity
100
AcDbBlockEnd
  0
BLOCK
  5
1FE
100
AcDbEntity
  8
0
100
AcDbBlockBegin
  2
CDWK_EXTR_1G
 70
     0
 10
0.0
 20
0.0
 30
0.0
  3
CDWK_EXTR_1G
  1

  4
Cadwork line-extremity
  0
LINE
  5
1FF
100
AcDbEntity
  8
0
 62
     0
370
    -2
100
AcDbLine
 10
0.0
 20
0.0
 30
0.0
 11
0.0
 21
-1.0
 31
0.0
  0
LINE
  5
200
100
AcDbEntity
  8
0
 62
     0
370
    -2
100
AcDbLine
 10
0.0
 20
-1.0
 30
0.0
 11
0.5
 21
-1.5
 31
0.0
  0
LINE
  5
201
100
AcDbEntity
  8
0
 62
     0
370
    -2
100
AcDbLine
 10
0.5
 20
-1.5
 30
0.0
 11
1.5
 21
-1.5
 31
0.0
  0
ENDBLK
  5
202
100
AcDbEntity
100
AcDbBlockEnd
  0
BLOCK
  5
203
100
AcDbEntity
  8
0
100
AcDbBlockBegin
  2
CDWK_EXTR_2
 70
     0
 10
0.0
 20
0.0
 30
0.0
  3
CDWK_EXTR_2
  1

  4
Cadwork line-extremity
  0
SOLID
  5
204
100
AcDbEntity
  8
0
 62
     0
100
AcDbTrace
 10
0.0
 20
0.0
 11
2.0
 21
0.5
 12
2.0
 22
-0.5
 13
2.0
 23
-0.5
  0
ENDBLK
  5
205
100
AcDbEntity
100
AcDbBlockEnd
  0
BLOCK
  5
206
100
AcDbEntity
  8
0
100
AcDbBlockBegin
  2
CDWK_EXTR_3
 70
     0
 10
0.0
 20
0.0
 30
0.0
  3
CDWK_EXTR_3
  1

  4
Cadwork line-extremity
  0
SOLID
  5
207
100
AcDbEntity
  8
0
 62
     0
100
AcDbTrace
 10
0.0
 20
0.0
 11
2.0
 21
0.5
 12
2.0
 22
-0.5
 13
2.0
 23
-0.5
  0
LINE
  5
208
100
AcDbEntity
  8
0
 62
     0
370
    -2
100
AcDbLine
 10
0.0
 20
1.0
 30
0.0
 11
0.0
 21
-1.0
 31
0.0
  0
ENDBLK
  5
209
100
AcDbEntity
100
AcDbBlockEnd
  0
BLOCK
  5
20A
100
AcDbEntity
  8
0
100
AcDbBlockBegin
  2
CDWK_EXTR_4
 70
     0
 10
0.0
 20
0.0
 30
0.0
  3
CDWK_EXTR_4
  1

  4
Cadwork line-extremity
  0
HATCH
  5
20B
100
AcDbEntity
  8
0
 62
     0
370
    -2
100
AcDbHatch
 10
0.0
 20
0.0
 30
0.0
210
0.0
220
0.0
230
1.0
  2
SOLID
 70
     1
 71
     0
 91
        1
 92
        1
 93
        1
 72
     2
 10
0.0
 20
0.0
 40
0.5
 50
0.0
 51
360.0
 73
     1
 97
        0
 75
     0
 76
     1
 98
        1
 10
0.0
 20
0.0
  0
ENDBLK
  5
20C
100
AcDbEntity
100
AcDbBlockEnd
  0
BLOCK
  5
20D
100
AcDbEntity
  8
0
100
AcDbBlockBegin
  2
CDWK_PTTYP0
 70
     0
 10
0.0
 20
0.0
 30
0.0
  3
CDWK_PTTYP0
  1

  4
Cadwork point
  0
POINT
  5
20E
100
AcDbEntity
  8
0
 62
     0
100
AcDbPoint
 10
0.0
 20
0.0
 30
0.0
  0
ENDBLK
  5
20F
100
AcDbEntity
100
AcDbBlockEnd
  0
BLOCK
  5
210
100
AcDbEntity
  8
Sc.1_5
100
AcDbBlockBegin
  2
*X2002
 70
     1
 10
0.0
 20
0.0
 30
0.0
  3
*X2002
  1

  4
Cadwork hatch
  0
LINE
  5
211
100
AcDbEntity
  8
Sc.1_5
 62
     9
  6
CONTINUOUS
370
    -2
100
AcDbLine
 10
1660.16912022
 20
-962.54967916
 30
0.0
 11
1672.76911263
 21
-934.54963018
 31
0.0
  0
LINE
  5
212
100
AcDbEntity
  8
Sc.1_5
 62
     9
  6
CONTINUOUS
370
    -2
100
AcDbLine
 10
1672.76911263
 20
-962.54967916
 30
0.0
 11
1660.16912022
 21
-934.54963018
 31
0.0
  0
ENDBLK
  5
213
100
AcDbEntity
100
AcDbBlockEnd
  0
BLOCK
  5
214
100
AcDbEntity
  8
Sc.1_5
100
AcDbBlockBegin
  2
*X2003
 70
     1
 10
0.0
 20
0.0
 30
0.0
  3
*X2003
  1

  4
Cadwork hatch
  0
LINE
  5
215
100
AcDbEntity
  8
Sc.1_5
 62
     9
  6
CONTINUOUS
370
    -2
100
AcDbLine
 10
1624.67692222
 20
-919.54781403
 30
0.0
 11
1628.67697626
 21
-927.54785625
 31
0.0
  0
LINE
  5
216
100
AcDbEntity
  8
Sc.1_5
 62
     9
  6
CONTINUOUS
370
    -2
100
AcDbLine
 10
1628.67697626
 20
-919.54781403
 30
0.0
 11
1624.67692222
 21
-927.54785625
 31
0.0
  0
ENDBLK
  5
217
100
AcDbEntity
100
AcDbBlockEnd
  0
BLOCK
  5
218
100
AcDbEntity
  8
Sc.1_5
100
AcDbBlockBegin
  2
*X2004
 70
     1
 10
0.0
 20
0.0
 30
0.0
  3
*X2004
  1

  4
Cadwork hatch
  0
LINE
  5
219
100
AcDbEntity
  8
Sc.1_5
 62
     9
  6
CONTINUOUS
370
    -2
100
AcDbLine
 10
1624.67692222
 20
-933.76744042
 30
0.0
 11
1628.67697626
 21
-941.76741678
 31
0.0
  0
LINE
  5
21A
100
AcDbEntity
  8
Sc.1_5
 62
     9
  6
CONTINUOUS
370
    -2
100
AcDbLine
 10
1628.67697626
 20
-933.76744042
 30
0.0
 11
1624.67692222
 21
-941.76741678
 31
0.0
  0
ENDBLK
  5
21B
100
AcDbEntity
100
AcDbBlockEnd
  0
BLOCK
  5
21C
100
AcDbEntity
  8
Sc.1_5
100
AcDbBlockBegin
  2
*X2012
 70
     1
 10
0.0
 20
0.0
 30
0.0
  3
*X2012
  1

  4
Cadwork hatch
  0
LINE
  5
21D
100
AcDbEntity
  8
Sc.1_5
 62
     9
  6
CONTINUOUS
370
    -2
100
AcDbLine
 10
1659.66920553
 20
-819.77446941
 30
0.0
 11
1659.66920553
 21
-820.39941876
 31
0.0
  0
LINE
  5
21E
100
AcDbEntity
  8
Sc.1_5
 62
     9
  6
CONTINUOUS
370
    -2
100
AcDbLine
 10
1659.66920553
 20
-823.81617093
 30
0.0
 11
1659.66920553
 21
-825.06606963
 31
0.0
  0
LINE
  5
21F
100
AcDbEntity
  8
Sc.1_5
 62
     9
  6
CONTINUOUS
370
    -2
100
AcDbLine
 10
1659.66920553
 20
-828.48282181
 30
0.0
 11
1659.66920553
 21
-829.73272051
 31
0.0
  0
LINE
  5
220
100
AcDbEntity
  8
Sc.1_5
 62
     9
  6
CONTINUOUS
370
    -2
100
AcDbLine
 10
1659.66920553
 20
-833.14947268
 30
0.0
 11
1659.66920553
 21
-834.39937138
 31
0.0
  0
LINE
  5
221
100
AcDbEntity
  8
Sc.1_5
 62
     9
  6
CONTINUOUS
370
    -2
100
AcDbLine
 10
1659.66920553
 20
-837.81612355
 30
0.0
 11
1659.66920553
 21
-839.06602225
 31
0.0
  0
LINE
  5
222
100
AcDbEntity
  8
Sc.1_5
 62
     9
  6
CONTINUOUS
370
    -2
100
AcDbLine
 10
1659.66920553
 20
-842.48277442
 30
0.0
 11
1659.66920553
 21
-843.73267312
 31
0.0
  0
LINE
  5
223
100
AcDbEntity
  8
Sc.1_5
 62
     9
  6
CONTINUOUS
370
    -2
100
AcDbLine
 10
1659.66920553
 20
-847.14942529
 30
0.0
 11
1659.66920553
 21
-848.39932399
 31
0.0
  0
LINE
  5
224
100
AcDbEntity
  8
Sc.1_5
 62
     9
  6
CONTINUOUS
370
    -2
100
AcDbLine
 10
1659.66920553
 20
-851.81607616
 30
0.0
 11
1659.66920553
 21
-853.06597486
 31
0.0
  0
LINE
  5
225
100
AcDbEntity
  8
Sc.1_5
 62
     9
  6
CONTINUOUS
370
    -2
100
AcDbLine
 10
1659.66920553
 20
-856.48272703
 30
0.0
 11
1659.66920553
 21
-857.73262573
 31
0.0
  0
LINE
  5
226
100
AcDbEntity
  8
Sc.1_5
 62
     9
  6
CONTINUOUS
370
    -2
100
AcDbLine
 10
1659.66920553
 20
-861.14937791
 30
0.0
 11
1659.66920553
 21
-862.39927661
 31
0.0
  0
LINE
  5
227
100
AcDbEntity
  8
Sc.1_5
 62
     9
  6
CONTINUOUS
370
    -2
100
AcDbLine
 10
1659.66920553
 20
-865.81602878
 30
0.0
 11
1659.66920553
 21
-867.06592748
 31
0.0
  0
LINE
  5
228
100
AcDbEntity
  8
Sc.1_5
 62
     9
  6
CONTINUOUS
370
    -2
100
AcDbLine
 10
1659.66920553
 20
-870.48267965
 30
0.0
 11
1659.66920553
 21
-871.73257835
 31
0.0
  0
LINE
  5
229
100
AcDbEntity
  8
Sc.1_5
 62
     9
  6
CONTINUOUS
370
    -2
100
AcDbLine
 10
1659.66920553
 20
-875.14933052
 30
0.0
 11
1659.66920553
 21
-876.39922922
 31
0.0
  0
LINE
  5
22A
100
AcDbEntity
  8
Sc.1_5
 62
     9
  6
CONTINUOUS
370
    -2
100
AcDbLine
 10
1659.66920553
 20
-879.81598139
 30
0.0
 11
1659.66920553
 21
-881.06588009
 31
0.0
  0
LINE
  5
22B
100
AcDbEntity
  8
Sc.1_5
 62
     9
  6
CONTINUOUS
370
    -2
100
AcDbLine
 10
1659.66920553
 20
-884.48263226
 30
0.0
 11
1659.66920553
 21
-885.73253096
 31
0.0
  0
LINE
  5
22C
100
AcDbEntity
  8
Sc.1_5
 62
     9
  6
CONTINUOUS
370
    -2
100
AcDbLine
 10
1659.66920553
 20
-889.14928313
 30
0.0
 11
1659.66920553
 21
-890.39918183
 31
0.0
  0
LINE
  5
22D
100
AcDbEntity
  8
Sc.1_5
 62
     9
  6
CONTINUOUS
370
    -2
100
AcDbLine
 10
1659.66920553
 20
-893.81593401
 30
0.0
 11
1659.66920553
 21
-895.06583271
 31
0.0
  0
LINE
  5
22E
100
AcDbEntity
  8
Sc.1_5
 62
     9
  6
CONTINUOUS
370
    -2
100
AcDbLine
 10
1635.57866428
 20
-824.4411202
 30
0.0
 11
1636.33595793
 21
-824.4411202
 31
0.0
  0
LINE
  5
22F
100
AcDbEntity
  8
Sc.1_5
 62
     9
  6
CONTINUOUS
370
    -2
100
AcDbLine
 10
1635.57866428
 20
-833.77441911
 30
0.0
 11
1636.33595793
 21
-833.77441911
 31
0.0
  0
LINE
  5
230
100
AcDbEntity
  8
Sc.1_5
 62
     9
  6
CONTINUOUS
370
    -2
100
AcDbLine
 10
1635.57866428
 20
-843.10771801
 30
0.0
 11
1636.33595793
 21
-843.10771801
 31
0.0
  0
LINE
  5
231
100
AcDbEntity
  8
Sc.1_5
 62
     9
  6
CONTINUOUS
370
    -2
100
AcDbLine
 10
1635.57866428
 20
-852.44101692
 30
0.0
 11
1636.33595793
 21
-852.44101692
 31
0.0
  0
LINE
  5
232
100
AcDbEntity
  8
Sc.1_5
 62
     9
  6
CONTINUOUS
370
    -2
100
AcDbLine
 10
1635.57866428
 20
-861.77431582
 30
0.0
 11
1636.33595793
 21
-861.77431582
 31
0.0
  0
LINE
  5
233
100
AcDbEntity
  8
Sc.1_5
 62
     9
  6
CONTINUOUS
370
    -2
100
AcDbLine
 10
1635.57866428
 20
-871.10761473
 30
0.0
 11
1636.33595793
 21
-871.10761473
 31
0.0
  0
LINE
  5
234
100
AcDbEntity
  8
Sc.1_5
 62
     9
  6
CONTINUOUS
370
    -2
100
AcDbLine
 10
1635.57866428
 20
-880.44091363
 30
0.0
 11
1636.33595793
 21
-880.44091363
 31
0.0
  0
LINE
  5
235
100
AcDbEntity
  8
Sc.1_5
 62
     9
  6
CONTINUOUS
370
    -2
100
AcDbLine
 10
1635.57866428
 20
-889.77421254
 30
0.0
 11
1636.33595793
 21
-889.77421254
 31
0.0
  0
LINE
  5
236
100
AcDbEntity
  8
Sc.1_5
 62
     9
  6
CONTINUOUS
370
    -2
100
AcDbLine
 10
1655.00255574
 20
-819.77447041
 30
0.0
 11
1655.75984939
 21
-819.77447041
 31
0.0
  0
LINE
  5
237
100
AcDbEntity
  8
Sc.1_5
 62
     9
  6
CONTINUOUS
370
    -2
100
AcDbLine
 10
1655.00255574
 20
-829.10776932
 30
0.0
 11
1655.75984939
 21
-829.10776932
 31
0.0
  0
LINE
  5
238
100
AcDbEntity
  8
Sc.1_5
 62
     9
  6
CONTINUOUS
370
    -2
100
AcDbLine
 10
1655.00255574
 20
-838.44106822
 30
0.0
 11
1655.75984939
 21
-838.44106822
 31
0.0
  0
LINE
  5
239
100
AcDbEntity
  8
Sc.1_5
 62
     9
  6
CONTINUOUS
370
    -2
100
AcDbLine
 10
1655.00255574
 20
-847.77436713
 30
0.0
 11
1655.75984939
 21
-847.77436713
 31
0.0
  0
LINE
  5
23A
100
AcDbEntity
  8
Sc.1_5
 62
     9
  6
CONTINUOUS
370
    -2
100
AcDbLine
 10
1655.00255574
 20
-857.10766604
 30
0.0
 11
1655.75984939
 21
-857.10766604
 31
0.0
  0
LINE
  5
23B
100
AcDbEntity
  8
Sc.1_5
 62
     9
  6
CONTINUOUS
370
    -2
100
AcDbLine
 10
1655.00255574
 20
-866.44096494
 30
0.0
 11
1655.75984939
 21
-866.44096494
 31
0.0
  0
LINE
  5
23C
100
AcDbEntity
  8
Sc.1_5
 62
     9
  6
CONTINUOUS
370
    -2
100
AcDbLine
 10
1655.00255574
 20
-875.77426385
 30
0.0
 11
1655.75984939
 21
-875.77426385
 31
0.0
  0
LINE
  5
23D
100
AcDbEntity
  8
Sc.1_5
 62
     9
  6
CONTINUOUS
370
    -2
100
AcDbLine
 10
1655.00255574
 20
-885.10756275
 30
0.0
 11
1655.75984939
 21
-885.10756275
 31
0.0
  0
LINE
  5
23E
100
AcDbEntity
  8
Sc.1_5
 62
     9
  6
CONTINUOUS
370
    -2
100
AcDbLine
 10
1655.00255574
 20
-894.44086166
 30
0.0
 11
1655.75984939
 21
-894.44086166
 31
0.0
  0
LINE
  5
23F
100
AcDbEntity
  8
Sc.1_5
 62
     9
  6
CONTINUOUS
370
    -2
100
AcDbLine
 10
1637.33715488
 20
-824.33040459
 30
0.0
 11
1654.00165701
 21
-819.88621105
 31
0.0
  0
LINE
  5
240
100
AcDbEntity
  8
Sc.1_5
 62
     9
  6
CONTINUOUS
370
    -2
100
AcDbLine
 10
1637.33713887
 20
-833.6637016
 30
0.0
 11
1654.001641
 21
-829.21950806
 31
0.0
  0
LINE
  5
241
100
AcDbEntity
  8
Sc.1_5
 62
     9
  6
CONTINUOUS
370
    -2
100
AcDbLine
 10
1637.33712287
 20
-842.9969986
 30
0.0
 11
1654.00162499
 21
-838.55280506
 31
0.0
  0
LINE
  5
242
100
AcDbEntity
  8
Sc.1_5
 62
     9
  6
CONTINUOUS
370
    -2
100
AcDbLine
 10
1637.33710686
 20
-852.33029561
 30
0.0
 11
1654.00160898
 21
-847.88610207
 31
0.0
  0
LINE
  5
243
100
AcDbEntity
  8
Sc.1_5
 62
     9
  6
CONTINUOUS
370
    -2
100
AcDbLine
 10
1637.33709085
 20
-861.66359262
 30
0.0
 11
1654.00159298
 21
-857.21939907
 31
0.0
  0
LINE
  5
244
100
AcDbEntity
  8
Sc.1_5
 62
     9
  6
CONTINUOUS
370
    -2
100
AcDbLine
 10
1637.33707485
 20
-870.99688962
 30
0.0
 11
1654.00157697
 21
-866.55269608
 31
0.0
  0
LINE
  5
245
100
AcDbEntity
  8
Sc.1_5
 62
     9
  6
CONTINUOUS
370
    -2
100
AcDbLine
 10
1637.33705884
 20
-880.33018663
 30
0.0
 11
1654.00156096
 21
-875.88599309
 31
0.0
  0
LINE
  5
246
100
AcDbEntity
  8
Sc.1_5
 62
     9
  6
CONTINUOUS
370
    -2
100
AcDbLine
 10
1637.33704283
 20
-889.66348363
 30
0.0
 11
1654.00154496
 21
-885.21929009
 31
0.0
  0
LINE
  5
247
100
AcDbEntity
  8
Sc.1_5
 62
     9
  6
CONTINUOUS
370
    -2
100
AcDbLine
 10
1646.88721276
 20
-896.44987739
 30
0.0
 11
1654.00152895
 21
-894.5525871
 31
0.0
  0
LINE
  5
248
100
AcDbEntity
  8
Sc.1_5
 62
     9
  6
CONTINUOUS
370
    -2
100
AcDbLine
 10
1637.33715488
 20
-824.55183314
 30
0.0
 11
1654.00165701
 21
-828.99602668
 31
0.0
  0
LINE
  5
249
100
AcDbEntity
  8
Sc.1_5
 62
     9
  6
CONTINUOUS
370
    -2
100
AcDbLine
 10
1637.33717089
 20
-833.88513015
 30
0.0
 11
1654.00167301
 21
-838.32932369
 31
0.0
  0
LINE
  5
24A
100
AcDbEntity
  8
Sc.1_5
 62
     9
  6
CONTINUOUS
370
    -2
100
AcDbLine
 10
1637.33718689
 20
-843.21842715
 30
0.0
 11
1654.00168902
 21
-847.66262069
 31
0.0
  0
LINE
  5
24B
100
AcDbEntity
  8
Sc.1_5
 62
     9
  6
CONTINUOUS
370
    -2
100
AcDbLine
 10
1637.3372029
 20
-852.55172416
 30
0.0
 11
1654.00170503
 21
-856.9959177
 31
0.0
  0
LINE
  5
24C
100
AcDbEntity
  8
Sc.1_5
 62
     9
  6
CONTINUOUS
370
    -2
100
AcDbLine
 10
1637.33721891
 20
-861.88502116
 30
0.0
 11
1654.00172103
 21
-866.32921471
 31
0.0
  0
LINE
  5
24D
100
AcDbEntity
  8
Sc.1_5
 62
     9
  6
CONTINUOUS
370
    -2
100
AcDbLine
 10
1637.33723491
 20
-871.21831817
 30
0.0
 11
1654.00173704
 21
-875.66251171
 31
0.0
  0
LINE
  5
24E
100
AcDbEntity
  8
Sc.1_5
 62
     9
  6
CONTINUOUS
370
    -2
100
AcDbLine
 10
1637.33725092
 20
-880.55161518
 30
0.0
 11
1654.00175305
 21
-884.99580872
 31
0.0
  0
LINE
  5
24F
100
AcDbEntity
  8
Sc.1_5
 62
     9
  6
CONTINUOUS
370
    -2
100
AcDbLine
 10
1637.33726693
 20
-889.88491218
 30
0.0
 11
1654.00176905
 21
-894.32910572
 31
0.0
  0
LINE
  5
250
100
AcDbEntity
  8
Sc.1_5
 62
     9
  6
CONTINUOUS
370
    -2
100
AcDbLine
 10
1631.66930622
 20
-820.39941684
 30
0.0
 11
1632.00307016
 21
-821.62321789
 31
0.0
  0
LINE
  5
251
100
AcDbEntity
  8
Sc.1_5
 62
     9
  6
CONTINUOUS
370
    -2
100
AcDbLine
 10
1631.66930622
 20
-829.73271637
 30
0.0
 11
1632.00306991
 21
-830.9565165
 31
0.0
  0
LINE
  5
252
100
AcDbEntity
  8
Sc.1_5
 62
     9
  6
CONTINUOUS
370
    -2
100
AcDbLine
 10
1631.66930622
 20
-839.0660159
 30
0.0
 11
1632.00306966
 21
-840.28981511
 31
0.0
  0
LINE
  5
253
100
AcDbEntity
  8
Sc.1_5
 62
     9
  6
CONTINUOUS
370
    -2
100
AcDbLine
 10
1631.66930622
 20
-848.39931543
 30
0.0
 11
1632.00306941
 21
-849.62311373
 31
0.0
  0
LINE
  5
254
100
AcDbEntity
  8
Sc.1_5
 62
     9
  6
CONTINUOUS
370
    -2
100
AcDbLine
 10
1631.66930622
 20
-857.73261496
 30
0.0
 11
1632.00306916
 21
-858.95641234
 31
0.0
  0
LINE
  5
255
100
AcDbEntity
  8
Sc.1_5
 62
     9
  6
CONTINUOUS
370
    -2
100
AcDbLine
 10
1631.66930622
 20
-867.06591449
 30
0.0
 11
1632.00306891
 21
-868.28971095
 31
0.0
  0
LINE
  5
256
100
AcDbEntity
  8
Sc.1_5
 62
     9
  6
CONTINUOUS
370
    -2
100
AcDbLine
 10
1631.66930622
 20
-876.39921402
 30
0.0
 11
1632.00306866
 21
-877.62300956
 31
0.0
  0
LINE
  5
257
100
AcDbEntity
  8
Sc.1_5
 62
     9
  6
CONTINUOUS
370
    -2
100
AcDbLine
 10
1631.66930622
 20
-885.73251355
 30
0.0
 11
1632.00306841
 21
-886.95630818
 31
0.0
  0
LINE
  5
258
100
AcDbEntity
  8
Sc.1_5
 62
     9
  6
CONTINUOUS
370
    -2
100
AcDbLine
 10
1631.66930622
 20
-895.06581308
 30
0.0
 11
1632.00306816
 21
-896.28960679
 31
0.0
  0
LINE
  5
259
100
AcDbEntity
  8
Sc.1_5
 62
     9
  6
CONTINUOUS
370
    -2
100
AcDbLine
 10
1631.66930622
 20
-828.4828298
 30
0.0
 11
1632.00307149
 21
-827.25902323
 31
0.0
  0
LINE
  5
25A
100
AcDbEntity
  8
Sc.1_5
 62
     9
  6
CONTINUOUS
370
    -2
100
AcDbLine
 10
1631.66930622
 20
-837.81613389
 30
0.0
 11
1632.00307298
 21
-836.59232185
 31
0.0
  0
LINE
  5
25B
100
AcDbEntity
  8
Sc.1_5
 62
     9
  6
CONTINUOUS
370
    -2
100
AcDbLine
 10
1631.66930751
 20
-847.14943325
 30
0.0
 11
1632.00307447
 21
-845.92562046
 31
0.0
  0
LINE
  5
25C
100
AcDbEntity
  8
Sc.1_5
 62
     9
  6
CONTINUOUS
370
    -2
100
AcDbLine
 10
1631.669309
 20
-856.48273187
 30
0.0
 11
1632.00307597
 21
-855.25891907
 31
0.0
  0
LINE
  5
25D
100
AcDbEntity
  8
Sc.1_5
 62
     9
  6
CONTINUOUS
370
    -2
100
AcDbLine
 10
1631.66931049
 20
-865.81603048
 30
0.0
 11
1632.00307746
 21
-864.59221768
 31
0.0
  0
LINE
  5
25E
100
AcDbEntity
  8
Sc.1_5
 62
     9
  6
CONTINUOUS
370
    -2
100
AcDbLine
 10
1631.66931199
 20
-875.14932909
 30
0.0
 11
1632.00307895
 21
-873.9255163
 31
0.0
  0
LINE
  5
25F
100
AcDbEntity
  8
Sc.1_5
 62
     9
  6
CONTINUOUS
370
    -2
100
AcDbLine
 10
1631.66931348
 20
-884.4826277
 30
0.0
 11
1632.00308045
 21
-883.25881491
 31
0.0
  0
LINE
  5
260
100
AcDbEntity
  8
Sc.1_5
 62
     9
  6
CONTINUOUS
370
    -2
100
AcDbLine
 10
1631.66931497
 20
-893.81592632
 30
0.0
 11
1632.00308194
 21
-892.59211352
 31
0.0
  0
LINE
  5
261
100
AcDbEntity
  8
Sc.1_5
 62
     9
  6
CONTINUOUS
370
    -2
100
AcDbLine
 10
1659.3354363
 20
-822.59234327
 30
0.0
 11
1659.66920343
 21
-823.81615602
 31
0.0
  0
LINE
  5
262
100
AcDbEntity
  8
Sc.1_5
 62
     9
  6
CONTINUOUS
370
    -2
100
AcDbLine
 10
1659.33543605
 20
-831.92564188
 30
0.0
 11
1659.66920318
 21
-833.14945463
 31
0.0
  0
LINE
  5
263
100
AcDbEntity
  8
Sc.1_5
 62
     9
  6
CONTINUOUS
370
    -2
100
AcDbLine
 10
1659.3354358
 20
-841.25894049
 30
0.0
 11
1659.66920293
 21
-842.48275324
 31
0.0
  0
LINE
  5
264
100
AcDbEntity
  8
Sc.1_5
 62
     9
  6
CONTINUOUS
370
    -2
100
AcDbLine
 10
1659.33543555
 20
-850.59223911
 30
0.0
 11
1659.66920268
 21
-851.81605186
 31
0.0
  0
LINE
  5
265
100
AcDbEntity
  8
Sc.1_5
 62
     9
  6
CONTINUOUS
370
    -2
100
AcDbLine
 10
1659.3354353
 20
-859.92553772
 30
0.0
 11
1659.66920242
 21
-861.14935047
 31
0.0
  0
LINE
  5
266
100
AcDbEntity
  8
Sc.1_5
 62
     9
  6
CONTINUOUS
370
    -2
100
AcDbLine
 10
1659.33543505
 20
-869.25883633
 30
0.0
 11
1659.66920217
 21
-870.48264908
 31
0.0
  0
LINE
  5
267
100
AcDbEntity
  8
Sc.1_5
 62
     9
  6
CONTINUOUS
370
    -2
100
AcDbLine
 10
1659.3354348
 20
-878.59213495
 30
0.0
 11
1659.66920192
 21
-879.8159477
 31
0.0
  0
LINE
  5
268
100
AcDbEntity
  8
Sc.1_5
 62
     9
  6
CONTINUOUS
370
    -2
100
AcDbLine
 10
1659.33543455
 20
-887.92543356
 30
0.0
 11
1659.66920167
 21
-889.14924631
 31
0.0
  0
LINE
  5
269
100
AcDbEntity
  8
Sc.1_5
 62
     9
  6
CONTINUOUS
370
    -2
100
AcDbLine
 10
1659.66920417
 20
-890.39917075
 30
0.0
 11
1659.33543704
 21
-891.6229835
 31
0.0
  0
LINE
  5
26A
100
AcDbEntity
  8
Sc.1_5
 62
     9
  6
CONTINUOUS
370
    -2
100
AcDbLine
 10
1659.66920392
 20
-881.06587214
 30
0.0
 11
1659.33543679
 21
-882.28968489
 31
0.0
  0
LINE
  5
26B
100
AcDbEntity
  8
Sc.1_5
 62
     9
  6
CONTINUOUS
370
    -2
100
AcDbLine
 10
1659.66920367
 20
-871.73257353
 30
0.0
 11
1659.33543654
 21
-872.95638628
 31
0.0
  0
LINE
  5
26C
100
AcDbEntity
  8
Sc.1_5
 62
     9
  6
CONTINUOUS
370
    -2
100
AcDbLine
 10
1659.66920342
 20
-862.39927491
 30
0.0
 11
1659.33543629
 21
-863.62308766
 31
0.0
  0
LINE
  5
26D
100
AcDbEntity
  8
Sc.1_5
 62
     9
  6
CONTINUOUS
370
    -2
100
AcDbLine
 10
1659.66920317
 20
-853.0659763
 30
0.0
 11
1659.33543604
 21
-854.28978905
 31
0.0
  0
LINE
  5
26E
100
AcDbEntity
  8
Sc.1_5
 62
     9
  6
CONTINUOUS
370
    -2
100
AcDbLine
 10
1659.66920292
 20
-843.73267769
 30
0.0
 11
1659.33543579
 21
-844.95649044
 31
0.0
  0
LINE
  5
26F
100
AcDbEntity
  8
Sc.1_5
 62
     9
  6
CONTINUOUS
370
    -2
100
AcDbLine
 10
1659.66920267
 20
-834.39937908
 30
0.0
 11
1659.33543554
 21
-835.62319183
 31
0.0
  0
LINE
  5
270
100
AcDbEntity
  8
Sc.1_5
 62
     9
  6
CONTINUOUS
370
    -2
100
AcDbLine
 10
1659.66920242
 20
-825.06608046
 30
0.0
 11
1659.33543529
 21
-826.28989321
 31
0.0
  0
LINE
  5
271
100
AcDbEntity
  8
Sc.1_5
 62
     9
  6
CONTINUOUS
370
    -2
100
AcDbLine
 10
1632.00307599
 20
-821.62323593
 30
0.0
 11
1632.63007097
 21
-822.66822757
 31
0.0
  0
LINE
  5
272
100
AcDbEntity
  8
Sc.1_5
 62
     9
  6
CONTINUOUS
370
    -2
100
AcDbLine
 10
1632.00307605
 20
-830.95653645
 30
0.0
 11
1632.63007103
 21
-832.00152809
 31
0.0
  0
LINE
  5
273
100
AcDbEntity
  8
Sc.1_5
 62
     9
  6
CONTINUOUS
370
    -2
100
AcDbLine
 10
1632.00307611
 20
-840.28983697
 30
0.0
 11
1632.63007109
 21
-841.33482861
 31
0.0
  0
LINE
  5
274
100
AcDbEntity
  8
Sc.1_5
 62
     9
  6
CONTINUOUS
370
    -2
100
AcDbLine
 10
1632.00307617
 20
-849.62313749
 30
0.0
 11
1632.63007116
 21
-850.66812912
 31
0.0
  0
LINE
  5
275
100
AcDbEntity
  8
Sc.1_5
 62
     9
  6
CONTINUOUS
370
    -2
100
AcDbLine
 10
1632.00307623
 20
-858.95643801
 30
0.0
 11
1632.63007122
 21
-860.00142964
 31
0.0
  0
LINE
  5
276
100
AcDbEntity
  8
Sc.1_5
 62
     9
  6
CONTINUOUS
370
    -2
100
AcDbLine
 10
1632.0030763
 20
-868.28973852
 30
0.0
 11
1632.63007128
 21
-869.33473016
 31
0.0
  0
LINE
  5
277
100
AcDbEntity
  8
Sc.1_5
 62
     9
  6
CONTINUOUS
370
    -2
100
AcDbLine
 10
1632.00307636
 20
-877.62303904
 30
0.0
 11
1632.63007134
 21
-878.66803068
 31
0.0
  0
LINE
  5
278
100
AcDbEntity
  8
Sc.1_5
 62
     9
  6
CONTINUOUS
370
    -2
100
AcDbLine
 10
1632.00307642
 20
-886.95633956
 30
0.0
 11
1632.6300714
 21
-888.0013312
 31
0.0
  0
LINE
  5
279
100
AcDbEntity
  8
Sc.1_5
 62
     9
  6
CONTINUOUS
370
    -2
100
AcDbLine
 10
1632.00307648
 20
-896.28964008
 30
0.0
 11
1632.09921887
 21
-896.44987739
 31
0.0
  0
LINE
  5
27A
100
AcDbEntity
  8
Sc.1_5
 62
     9
  6
CONTINUOUS
370
    -2
100
AcDbLine
 10
1632.0030753
 20
-827.25209688
 30
0.0
 11
1632.63007036
 21
-826.20710528
 31
0.0
  0
LINE
  5
27B
100
AcDbEntity
  8
Sc.1_5
 62
     9
  6
CONTINUOUS
370
    -2
100
AcDbLine
 10
1632.00307462
 20
-836.58539739
 30
0.0
 11
1632.63006967
 21
-835.5404058
 31
0.0
  0
LINE
  5
27C
100
AcDbEntity
  8
Sc.1_5
 62
     9
  6
CONTINUOUS
370
    -2
100
AcDbLine
 10
1632.00307394
 20
-845.91869791
 30
0.0
 11
1632.63006899
 21
-844.87370632
 31
0.0
  0
LINE
  5
27D
100
AcDbEntity
  8
Sc.1_5
 62
     9
  6
CONTINUOUS
370
    -2
100
AcDbLine
 10
1632.00307325
 20
-855.25199843
 30
0.0
 11
1632.63006831
 21
-854.20700683
 31
0.0
  0
LINE
  5
27E
100
AcDbEntity
  8
Sc.1_5
 62
     9
  6
CONTINUOUS
370
    -2
100
AcDbLine
 10
1632.00307257
 20
-864.58529895
 30
0.0
 11
1632.63006762
 21
-863.54030735
 31
0.0
  0
LINE
  5
27F
100
AcDbEntity
  8
Sc.1_5
 62
     9
  6
CONTINUOUS
370
    -2
100
AcDbLine
 10
1632.00307189
 20
-873.91859947
 30
0.0
 11
1632.63006694
 21
-872.87360787
 31
0.0
  0
LINE
  5
280
100
AcDbEntity
  8
Sc.1_5
 62
     9
  6
CONTINUOUS
370
    -2
100
AcDbLine
 10
1632.0030712
 20
-883.25189999
 30
0.0
 11
1632.63006626
 21
-882.20690839
 31
0.0
  0
LINE
  5
281
100
AcDbEntity
  8
Sc.1_5
 62
     9
  6
CONTINUOUS
370
    -2
100
AcDbLine
 10
1632.00307052
 20
-892.5852005
 30
0.0
 11
1632.63006557
 21
-891.54020891
 31
0.0
  0
LINE
  5
282
100
AcDbEntity
  8
Sc.1_5
 62
     9
  6
CONTINUOUS
370
    -2
100
AcDbLine
 10
1658.70844464
 20
-821.54737299
 30
0.0
 11
1659.33543962
 21
-822.59236462
 31
0.0
  0
LINE
  5
283
100
AcDbEntity
  8
Sc.1_5
 62
     9
  6
CONTINUOUS
370
    -2
100
AcDbLine
 10
1658.7084447
 20
-830.8806735
 30
0.0
 11
1659.33543968
 21
-831.92566514
 31
0.0
  0
LINE
  5
284
100
AcDbEntity
  8
Sc.1_5
 62
     9
  6
CONTINUOUS
370
    -2
100
AcDbLine
 10
1658.70844476
 20
-840.21397402
 30
0.0
 11
1659.33543975
 21
-841.25896566
 31
0.0
  0
LINE
  5
285
100
AcDbEntity
  8
Sc.1_5
 62
     9
  6
CONTINUOUS
370
    -2
100
AcDbLine
 10
1658.70844482
 20
-849.54727454
 30
0.0
 11
1659.33543981
 21
-850.59226618
 31
0.0
  0
LINE
  5
286
100
AcDbEntity
  8
Sc.1_5
 62
     9
  6
CONTINUOUS
370
    -2
100
AcDbLine
 10
1658.70844489
 20
-858.88057506
 30
0.0
 11
1659.33543987
 21
-859.9255667
 31
0.0
  0
LINE
  5
287
100
AcDbEntity
  8
Sc.1_5
 62
     9
  6
CONTINUOUS
370
    -2
100
AcDbLine
 10
1658.70844495
 20
-868.21387558
 30
0.0
 11
1659.33543993
 21
-869.25886722
 31
0.0
  0
LINE
  5
288
100
AcDbEntity
  8
Sc.1_5
 62
     9
  6
CONTINUOUS
370
    -2
100
AcDbLine
 10
1658.70844501
 20
-877.5471761
 30
0.0
 11
1659.33543999
 21
-878.59216773
 31
0.0
  0
LINE
  5
289
100
AcDbEntity
  8
Sc.1_5
 62
     9
  6
CONTINUOUS
370
    -2
100
AcDbLine
 10
1658.70844507
 20
-886.88047662
 30
0.0
 11
1659.33544006
 21
-887.92546825
 31
0.0
  0
LINE
  5
28A
100
AcDbEntity
  8
Sc.1_5
 62
     9
  6
CONTINUOUS
370
    -2
100
AcDbLine
 10
1658.70844513
 20
-896.21377713
 30
0.0
 11
1658.85010529
 21
-896.44987739
 31
0.0
  0
LINE
  5
28B
100
AcDbEntity
  8
Sc.1_5
 62
     9
  6
CONTINUOUS
370
    -2
100
AcDbLine
 10
1659.33544162
 20
-891.62297859
 30
0.0
 11
1658.70844663
 21
-892.66797022
 31
0.0
  0
LINE
  5
28C
100
AcDbEntity
  8
Sc.1_5
 62
     9
  6
CONTINUOUS
370
    -2
100
AcDbLine
 10
1659.33544168
 20
-882.28967807
 30
0.0
 11
1658.70844669
 21
-883.3346697
 31
0.0
  0
LINE
  5
28D
100
AcDbEntity
  8
Sc.1_5
 62
     9
  6
CONTINUOUS
370
    -2
100
AcDbLine
 10
1659.33544174
 20
-872.95637755
 30
0.0
 11
1658.70844676
 21
-874.00136919
 31
0.0
  0
LINE
  5
28E
100
AcDbEntity
  8
Sc.1_5
 62
     9
  6
CONTINUOUS
370
    -2
100
AcDbLine
 10
1659.3354418
 20
-863.62307703
 30
0.0
 11
1658.70844682
 21
-864.66806867
 31
0.0
  0
LINE
  5
28F
100
AcDbEntity
  8
Sc.1_5
 62
     9
  6
CONTINUOUS
370
    -2
100
AcDbLine
 10
1659.33544186
 20
-854.28977651
 30
0.0
 11
1658.70844688
 21
-855.33476815
 31
0.0
  0
LINE
  5
290
100
AcDbEntity
  8
Sc.1_5
 62
     9
  6
CONTINUOUS
370
    -2
100
AcDbLine
 10
1659.33544193
 20
-844.95647599
 30
0.0
 11
1658.70844694
 21
-846.00146763
 31
0.0
  0
LINE
  5
291
100
AcDbEntity
  8
Sc.1_5
 62
     9
  6
CONTINUOUS
370
    -2
100
AcDbLine
 10
1659.33544199
 20
-835.62317547
 30
0.0
 11
1658.708447
 21
-836.66816711
 31
0.0
  0
LINE
  5
292
100
AcDbEntity
  8
Sc.1_5
 62
     9
  6
CONTINUOUS
370
    -2
100
AcDbLine
 10
1659.33544205
 20
-826.28987496
 30
0.0
 11
1658.70844707
 21
-827.33486659
 31
0.0
  0
LINE
  5
293
100
AcDbEntity
  8
Sc.1_5
 62
     9
  6
CONTINUOUS
370
    -2
100
AcDbLine
 10
1632.63006981
 20
-822.66822385
 30
0.0
 11
1633.36288518
 21
-823.40103923
 31
0.0
  0
LINE
  5
294
100
AcDbEntity
  8
Sc.1_5
 62
     9
  6
CONTINUOUS
370
    -2
100
AcDbLine
 10
1632.63006981
 20
-832.00152522
 30
0.0
 11
1633.36288518
 21
-832.7343406
 31
0.0
  0
LINE
  5
295
100
AcDbEntity
  8
Sc.1_5
 62
     9
  6
CONTINUOUS
370
    -2
100
AcDbLine
 10
1632.63006981
 20
-841.33482658
 30
0.0
 11
1633.36288518
 21
-842.06764196
 31
0.0
  0
LINE
  5
296
100
AcDbEntity
  8
Sc.1_5
 62
     9
  6
CONTINUOUS
370
    -2
100
AcDbLine
 10
1632.63006981
 20
-850.66812795
 30
0.0
 11
1633.36288518
 21
-851.40094333
 31
0.0
  0
LINE
  5
297
100
AcDbEntity
  8
Sc.1_5
 62
     9
  6
CONTINUOUS
370
    -2
100
AcDbLine
 10
1632.63006981
 20
-860.00142932
 30
0.0
 11
1633.36288518
 21
-860.7342447
 31
0.0
  0
LINE
  5
298
100
AcDbEntity
  8
Sc.1_5
 62
     9
  6
CONTINUOUS
370
    -2
100
AcDbLine
 10
1632.63006981
 20
-869.33473069
 30
0.0
 11
1633.36288518
 21
-870.06754606
 31
0.0
  0
LINE
  5
299
100
AcDbEntity
  8
Sc.1_5
 62
     9
  6
CONTINUOUS
370
    -2
100
AcDbLine
 10
1632.63006981
 20
-878.66803205
 30
0.0
 11
1633.36288518
 21
-879.40084743
 31
0.0
  0
LINE
  5
29A
100
AcDbEntity
  8
Sc.1_5
 62
     9
  6
CONTINUOUS
370
    -2
100
AcDbLine
 10
1632.63006981
 20
-888.00133342
 30
0.0
 11
1633.36288518
 21
-888.7341488
 31
0.0
  0
LINE
  5
29B
100
AcDbEntity
  8
Sc.1_5
 62
     9
  6
CONTINUOUS
370
    -2
100
AcDbLine
 10
1632.63006981
 20
-826.21401634
 30
0.0
 11
1633.36288518
 21
-825.48120096
 31
0.0
  0
LINE
  5
29C
100
AcDbEntity
  8
Sc.1_5
 62
     9
  6
CONTINUOUS
370
    -2
100
AcDbLine
 10
1632.63006981
 20
-835.54731771
 30
0.0
 11
1633.36288518
 21
-834.81450233
 31
0.0
  0
LINE
  5
29D
100
AcDbEntity
  8
Sc.1_5
 62
     9
  6
CONTINUOUS
370
    -2
100
AcDbLine
 10
1632.63006981
 20
-844.88061907
 30
0.0
 11
1633.36288518
 21
-844.1478037
 31
0.0
  0
LINE
  5
29E
100
AcDbEntity
  8
Sc.1_5
 62
     9
  6
CONTINUOUS
370
    -2
100
AcDbLine
 10
1632.63006981
 20
-854.21392044
 30
0.0
 11
1633.36288518
 21
-853.48110506
 31
0.0
  0
LINE
  5
29F
100
AcDbEntity
  8
Sc.1_5
 62
     9
  6
CONTINUOUS
370
    -2
100
AcDbLine
 10
1632.63006981
 20
-863.54722181
 30
0.0
 11
1633.36288518
 21
-862.81440643
 31
0.0
  0
LINE
  5
2A0
100
AcDbEntity
  8
Sc.1_5
 62
     9
  6
CONTINUOUS
370
    -2
100
AcDbLine
 10
1632.63006981
 20
-872.88052318
 30
0.0
 11
1633.36288518
 21
-872.1477078
 31
0.0
  0
LINE
  5
2A1
100
AcDbEntity
  8
Sc.1_5
 62
     9
  6
CONTINUOUS
370
    -2
100
AcDbLine
 10
1632.63006981
 20
-882.21382454
 30
0.0
 11
1633.36288518
 21
-881.48100916
 31
0.0
  0
LINE
  5
2A2
100
AcDbEntity
  8
Sc.1_5
 62
     9
  6
CONTINUOUS
370
    -2
100
AcDbLine
 10
1632.63006981
 20
-891.54712591
 30
0.0
 11
1633.36288518
 21
-890.81431053
 31
0.0
  0
LINE
  5
2A3
100
AcDbEntity
  8
Sc.1_5
 62
     9
  6
CONTINUOUS
370
    -2
100
AcDbLine
 10
1657.97562976
 20
-820.81455766
 30
0.0
 11
1658.70844514
 21
-821.54737304
 31
0.0
  0
LINE
  5
2A4
100
AcDbEntity
  8
Sc.1_5
 62
     9
  6
CONTINUOUS
370
    -2
100
AcDbLine
 10
1657.97562976
 20
-830.14785903
 30
0.0
 11
1658.70844514
 21
-830.88067441
 31
0.0
  0
LINE
  5
2A5
100
AcDbEntity
  8
Sc.1_5
 62
     9
  6
CONTINUOUS
370
    -2
100
AcDbLine
 10
1657.97562976
 20
-839.4811604
 30
0.0
 11
1658.70844514
 21
-840.21397577
 31
0.0
  0
LINE
  5
2A6
100
AcDbEntity
  8
Sc.1_5
 62
     9
  6
CONTINUOUS
370
    -2
100
AcDbLine
 10
1657.97562976
 20
-848.81446176
 30
0.0
 11
1658.70844514
 21
-849.54727714
 31
0.0
  0
LINE
  5
2A7
100
AcDbEntity
  8
Sc.1_5
 62
     9
  6
CONTINUOUS
370
    -2
100
AcDbLine
 10
1657.97562976
 20
-858.14776313
 30
0.0
 11
1658.70844514
 21
-858.88057851
 31
0.0
  0
LINE
  5
2A8
100
AcDbEntity
  8
Sc.1_5
 62
     9
  6
CONTINUOUS
370
    -2
100
AcDbLine
 10
1657.97562976
 20
-867.4810645
 30
0.0
 11
1658.70844514
 21
-868.21387987
 31
0.0
  0
LINE
  5
2A9
100
AcDbEntity
  8
Sc.1_5
 62
     9
  6
CONTINUOUS
370
    -2
100
AcDbLine
 10
1657.97562976
 20
-876.81436586
 30
0.0
 11
1658.70844514
 21
-877.54718124
 31
0.0
  0
LINE
  5
2AA
100
AcDbEntity
  8
Sc.1_5
 62
     9
  6
CONTINUOUS
370
    -2
100
AcDbLine
 10
1657.97562976
 20
-886.14766723
 30
0.0
 11
1658.70844514
 21
-886.88048261
 31
0.0
  0
LINE
  5
2AB
100
AcDbEntity
  8
Sc.1_5
 62
     9
  6
CONTINUOUS
370
    -2
100
AcDbLine
 10
1657.97562976
 20
-895.4809686
 30
0.0
 11
1658.70844514
 21
-896.21378397
 31
0.0
  0
LINE
  5
2AC
100
AcDbEntity
  8
Sc.1_5
 62
     9
  6
CONTINUOUS
370
    -2
100
AcDbLine
 10
1658.7084423
 20
-892.66797652
 30
0.0
 11
1657.97562692
 21
-893.40079189
 31
0.0
  0
LINE
  5
2AD
100
AcDbEntity
  8
Sc.1_5
 62
     9
  6
CONTINUOUS
370
    -2
100
AcDbLine
 10
1658.7084423
 20
-883.33467515
 30
0.0
 11
1657.97562692
 21
-884.06749053
 31
0.0
  0
LINE
  5
2AE
100
AcDbEntity
  8
Sc.1_5
 62
     9
  6
CONTINUOUS
370
    -2
100
AcDbLine
 10
1658.7084423
 20
-874.00137378
 30
0.0
 11
1657.97562692
 21
-874.73418916
 31
0.0
  0
LINE
  5
2AF
100
AcDbEntity
  8
Sc.1_5
 62
     9
  6
CONTINUOUS
370
    -2
100
AcDbLine
 10
1658.7084423
 20
-864.66807242
 30
0.0
 11
1657.97562692
 21
-865.40088779
 31
0.0
  0
LINE
  5
2B0
100
AcDbEntity
  8
Sc.1_5
 62
     9
  6
CONTINUOUS
370
    -2
100
AcDbLine
 10
1658.7084423
 20
-855.33477105
 30
0.0
 11
1657.97562692
 21
-856.06758643
 31
0.0
  0
LINE
  5
2B1
100
AcDbEntity
  8
Sc.1_5
 62
     9
  6
CONTINUOUS
370
    -2
100
AcDbLine
 10
1658.7084423
 20
-846.00146968
 30
0.0
 11
1657.97562692
 21
-846.73428506
 31
0.0
  0
LINE
  5
2B2
100
AcDbEntity
  8
Sc.1_5
 62
     9
  6
CONTINUOUS
370
    -2
100
AcDbLine
 10
1658.7084423
 20
-836.66816832
 30
0.0
 11
1657.97562692
 21
-837.40098369
 31
0.0
  0
LINE
  5
2B3
100
AcDbEntity
  8
Sc.1_5
 62
     9
  6
CONTINUOUS
370
    -2
100
AcDbLine
 10
1658.7084423
 20
-827.33486695
 30
0.0
 11
1657.97562692
 21
-828.06768233
 31
0.0
  0
LINE
  5
2B4
100
AcDbEntity
  8
Sc.1_5
 62
     9
  6
CONTINUOUS
370
    -2
100
AcDbLine
 10
1633.362887
 20
-823.40103783
 30
0.0
 11
1634.26735673
 21
-824.00401764
 31
0.0
  0
LINE
  5
2B5
100
AcDbEntity
  8
Sc.1_5
 62
     9
  6
CONTINUOUS
370
    -2
100
AcDbLine
 10
1633.36288806
 20
-832.7343381
 30
0.0
 11
1634.26735779
 21
-833.33731791
 31
0.0
  0
LINE
  5
2B6
100
AcDbEntity
  8
Sc.1_5
 62
     9
  6
CONTINUOUS
370
    -2
100
AcDbLine
 10
1633.36288911
 20
-842.06763836
 30
0.0
 11
1634.26735885
 21
-842.67061818
 31
0.0
  0
LINE
  5
2B7
100
AcDbEntity
  8
Sc.1_5
 62
     9
  6
CONTINUOUS
370
    -2
100
AcDbLine
 10
1633.36289017
 20
-851.40093863
 30
0.0
 11
1634.2673599
 21
-852.00391844
 31
0.0
  0
LINE
  5
2B8
100
AcDbEntity
  8
Sc.1_5
 62
     9
  6
CONTINUOUS
370
    -2
100
AcDbLine
 10
1633.36289123
 20
-860.7342389
 30
0.0
 11
1634.26736096
 21
-861.33721871
 31
0.0
  0
LINE
  5
2B9
100
AcDbEntity
  8
Sc.1_5
 62
     9
  6
CONTINUOUS
370
    -2
100
AcDbLine
 10
1633.36289228
 20
-870.06753916
 30
0.0
 11
1634.26736202
 21
-870.67051898
 31
0.0
  0
LINE
  5
2BA
100
AcDbEntity
  8
Sc.1_5
 62
     9
  6
CONTINUOUS
370
    -2
100
AcDbLine
 10
1633.36289334
 20
-879.40083943
 30
0.0
 11
1634.26736307
 21
-880.00381924
 31
0.0
  0
LINE
  5
2BB
100
AcDbEntity
  8
Sc.1_5
 62
     9
  6
CONTINUOUS
370
    -2
100
AcDbLine
 10
1633.3628944
 20
-888.7341397
 30
0.0
 11
1634.26736413
 21
-889.33711951
 31
0.0
  0
LINE
  5
2BC
100
AcDbEntity
  8
Sc.1_5
 62
     9
  6
CONTINUOUS
370
    -2
100
AcDbLine
 10
1633.36288532
 20
-825.4811994
 30
0.0
 11
1634.2673551
 21
-824.87821964
 31
0.0
  0
LINE
  5
2BD
100
AcDbEntity
  8
Sc.1_5
 62
     9
  6
CONTINUOUS
370
    -2
100
AcDbLine
 10
1633.36288365
 20
-834.81449967
 30
0.0
 11
1634.26735342
 21
-834.21151991
 31
0.0
  0
LINE
  5
2BE
100
AcDbEntity
  8
Sc.1_5
 62
     9
  6
CONTINUOUS
370
    -2
100
AcDbLine
 10
1633.36288197
 20
-844.14779993
 30
0.0
 11
1634.26735174
 21
-843.54482018
 31
0.0
  0
LINE
  5
2BF
100
AcDbEntity
  8
Sc.1_5
 62
     9
  6
CONTINUOUS
370
    -2
100
AcDbLine
 10
1633.36288029
 20
-853.4811002
 30
0.0
 11
1634.26735006
 21
-852.87812044
 31
0.0
  0
LINE
  5
2C0
100
AcDbEntity
  8
Sc.1_5
 62
     9
  6
CONTINUOUS
370
    -2
100
AcDbLine
 10
1633.36287861
 20
-862.81440047
 30
0.0
 11
1634.26734838
 21
-862.21142071
 31
0.0
  0
LINE
  5
2C1
100
AcDbEntity
  8
Sc.1_5
 62
     9
  6
CONTINUOUS
370
    -2
100
AcDbLine
 10
1633.36287693
 20
-872.14770073
 30
0.0
 11
1634.26734671
 21
-871.54472098
 31
0.0
  0
LINE
  5
2C2
100
AcDbEntity
  8
Sc.1_5
 62
     9
  6
CONTINUOUS
370
    -2
100
AcDbLine
 10
1633.36287526
 20
-881.481001
 30
0.0
 11
1634.26734503
 21
-880.87802124
 31
0.0
  0
LINE
  5
2C3
100
AcDbEntity
  8
Sc.1_5
 62
     9
  6
CONTINUOUS
370
    -2
100
AcDbLine
 10
1633.36287358
 20
-890.81430127
 30
0.0
 11
1634.26734335
 21
-890.21132151
 31
0.0
  0
LINE
  5
2C4
100
AcDbEntity
  8
Sc.1_5
 62
     9
  6
CONTINUOUS
370
    -2
100
AcDbLine
 10
1657.0711622
 20
-820.21157484
 30
0.0
 11
1657.97563193
 21
-820.81455465
 31
0.0
  0
LINE
  5
2C5
100
AcDbEntity
  8
Sc.1_5
 62
     9
  6
CONTINUOUS
370
    -2
100
AcDbLine
 10
1657.07116325
 20
-829.5448751
 30
0.0
 11
1657.97563298
 21
-830.14785492
 31
0.0
  0
LINE
  5
2C6
100
AcDbEntity
  8
Sc.1_5
 62
     9
  6
CONTINUOUS
370
    -2
100
AcDbLine
 10
1657.07116431
 20
-838.87817537
 30
0.0
 11
1657.97563404
 21
-839.48115519
 31
0.0
  0
LINE
  5
2C7
100
AcDbEntity
  8
Sc.1_5
 62
     9
  6
CONTINUOUS
370
    -2
100
AcDbLine
 10
1657.07116537
 20
-848.21147564
 30
0.0
 11
1657.9756351
 21
-848.81445545
 31
0.0
  0
LINE
  5
2C8
100
AcDbEntity
  8
Sc.1_5
 62
     9
  6
CONTINUOUS
370
    -2
100
AcDbLine
 10
1657.07116642
 20
-857.5447759
 30
0.0
 11
1657.97563615
 21
-858.14775572
 31
0.0
  0
LINE
  5
2C9
100
AcDbEntity
  8
Sc.1_5
 62
     9
  6
CONTINUOUS
370
    -2
100
AcDbLine
 10
1657.07116748
 20
-866.87807617
 30
0.0
 11
1657.97563721
 21
-867.48105599
 31
0.0
  0
LINE
  5
2CA
100
AcDbEntity
  8
Sc.1_5
 62
     9
  6
CONTINUOUS
370
    -2
100
AcDbLine
 10
1657.07116854
 20
-876.21137644
 30
0.0
 11
1657.97563827
 21
-876.81435625
 31
0.0
  0
LINE
  5
2CB
100
AcDbEntity
  8
Sc.1_5
 62
     9
  6
CONTINUOUS
370
    -2
100
AcDbLine
 10
1657.07116959
 20
-885.54467671
 30
0.0
 11
1657.97563932
 21
-886.14765652
 31
0.0
  0
LINE
  5
2CC
100
AcDbEntity
  8
Sc.1_5
 62
     9
  6
CONTINUOUS
370
    -2
100
AcDbLine
 10
1657.07117065
 20
-894.87797697
 30
0.0
 11
1657.97564038
 21
-895.48095679
 31
0.0
  0
LINE
  5
2CD
100
AcDbEntity
  8
Sc.1_5
 62
     9
  6
CONTINUOUS
370
    -2
100
AcDbLine
 10
1657.97562619
 20
-893.40078692
 30
0.0
 11
1657.07115646
 21
-894.00376674
 31
0.0
  0
LINE
  5
2CE
100
AcDbEntity
  8
Sc.1_5
 62
     9
  6
CONTINUOUS
370
    -2
100
AcDbLine
 10
1657.97562725
 20
-884.06748665
 30
0.0
 11
1657.07115751
 21
-884.67046647
 31
0.0
  0
LINE
  5
2CF
100
AcDbEntity
  8
Sc.1_5
 62
     9
  6
CONTINUOUS
370
    -2
100
AcDbLine
 10
1657.9756283
 20
-874.73418639
 30
0.0
 11
1657.07115857
 21
-875.3371662
 31
0.0
  0
LINE
  5
2D0
100
AcDbEntity
  8
Sc.1_5
 62
     9
  6
CONTINUOUS
370
    -2
100
AcDbLine
 10
1657.97562936
 20
-865.40088612
 30
0.0
 11
1657.07115963
 21
-866.00386594
 31
0.0
  0
LINE
  5
2D1
100
AcDbEntity
  8
Sc.1_5
 62
     9
  6
CONTINUOUS
370
    -2
100
AcDbLine
 10
1657.97563042
 20
-856.06758585
 30
0.0
 11
1657.07116068
 21
-856.67056567
 31
0.0
  0
LINE
  5
2D2
100
AcDbEntity
  8
Sc.1_5
 62
     9
  6
CONTINUOUS
370
    -2
100
AcDbLine
 10
1657.97563147
 20
-846.73428559
 30
0.0
 11
1657.07116174
 21
-847.3372654
 31
0.0
  0
LINE
  5
2D3
100
AcDbEntity
  8
Sc.1_5
 62
     9
  6
CONTINUOUS
370
    -2
100
AcDbLine
 10
1657.97563253
 20
-837.40098532
 30
0.0
 11
1657.0711628
 21
-838.00396514
 31
0.0
  0
LINE
  5
2D4
100
AcDbEntity
  8
Sc.1_5
 62
     9
  6
CONTINUOUS
370
    -2
100
AcDbLine
 10
1657.97563359
 20
-828.06768505
 30
0.0
 11
1657.07116385
 21
-828.67066487
 31
0.0
  0
LINE
  5
2D5
100
AcDbEntity
  8
Sc.1_5
 62
     9
  6
CONTINUOUS
370
    -2
100
AcDbLine
 10
1634.26735312
 20
-824.00401591
 30
0.0
 11
1635.57866398
 21
-824.4411196
 31
0.0
  0
LINE
  5
2D6
100
AcDbEntity
  8
Sc.1_5
 62
     9
  6
CONTINUOUS
370
    -2
100
AcDbLine
 10
1634.26735359
 20
-833.33731684
 30
0.0
 11
1635.57866445
 21
-833.77442053
 31
0.0
  0
LINE
  5
2D7
100
AcDbEntity
  8
Sc.1_5
 62
     9
  6
CONTINUOUS
370
    -2
100
AcDbLine
 10
1634.26735406
 20
-842.67061777
 30
0.0
 11
1635.57866492
 21
-843.10772146
 31
0.0
  0
LINE
  5
2D8
100
AcDbEntity
  8
Sc.1_5
 62
     9
  6
CONTINUOUS
370
    -2
100
AcDbLine
 10
1634.26735452
 20
-852.00391869
 30
0.0
 11
1635.57866539
 21
-852.44102239
 31
0.0
  0
LINE
  5
2D9
100
AcDbEntity
  8
Sc.1_5
 62
     9
  6
CONTINUOUS
370
    -2
100
AcDbLine
 10
1634.26735499
 20
-861.33721962
 30
0.0
 11
1635.57866586
 21
-861.77432332
 31
0.0
  0
LINE
  5
2DA
100
AcDbEntity
  8
Sc.1_5
 62
     9
  6
CONTINUOUS
370
    -2
100
AcDbLine
 10
1634.26735546
 20
-870.67052055
 30
0.0
 11
1635.57866632
 21
-871.10762425
 31
0.0
  0
LINE
  5
2DB
100
AcDbEntity
  8
Sc.1_5
 62
     9
  6
CONTINUOUS
370
    -2
100
AcDbLine
 10
1634.26735593
 20
-880.00382148
 30
0.0
 11
1635.57866679
 21
-880.44092518
 31
0.0
  0
LINE
  5
2DC
100
AcDbEntity
  8
Sc.1_5
 62
     9
  6
CONTINUOUS
370
    -2
100
AcDbLine
 10
1634.26735639
 20
-889.33712241
 30
0.0
 11
1635.57866726
 21
-889.77422611
 31
0.0
  0
LINE
  5
2DD
100
AcDbEntity
  8
Sc.1_5
 62
     9
  6
CONTINUOUS
370
    -2
100
AcDbLine
 10
1634.26735265
 20
-824.87822385
 30
0.0
 11
1635.57866352
 21
-824.44112015
 31
0.0
  0
LINE
  5
2DE
100
AcDbEntity
  8
Sc.1_5
 62
     9
  6
CONTINUOUS
370
    -2
100
AcDbLine
 10
1634.26735218
 20
-834.21152478
 30
0.0
 11
1635.57866305
 21
-833.77442108
 31
0.0
  0
LINE
  5
2DF
100
AcDbEntity
  8
Sc.1_5
 62
     9
  6
CONTINUOUS
370
    -2
100
AcDbLine
 10
1634.26735172
 20
-843.54482571
 30
0.0
 11
1635.57866258
 21
-843.10772201
 31
0.0
  0
LINE
  5
2E0
100
AcDbEntity
  8
Sc.1_5
 62
     9
  6
CONTINUOUS
370
    -2
100
AcDbLine
 10
1634.26735125
 20
-852.87812664
 30
0.0
 11
1635.57866211
 21
-852.44102294
 31
0.0
  0
LINE
  5
2E1
100
AcDbEntity
  8
Sc.1_5
 62
     9
  6
CONTINUOUS
370
    -2
100
AcDbLine
 10
1634.26735078
 20
-862.21142757
 30
0.0
 11
1635.57866164
 21
-861.77432387
 31
0.0
  0
LINE
  5
2E2
100
AcDbEntity
  8
Sc.1_5
 62
     9
  6
CONTINUOUS
370
    -2
100
AcDbLine
 10
1634.26735031
 20
-871.54472849
 30
0.0
 11
1635.57866118
 21
-871.1076248
 31
0.0
  0
LINE
  5
2E3
100
AcDbEntity
  8
Sc.1_5
 62
     9
  6
CONTINUOUS
370
    -2
100
AcDbLine
 10
1634.26734984
 20
-880.87802942
 30
0.0
 11
1635.57866071
 21
-880.44092573
 31
0.0
  0
LINE
  5
2E4
100
AcDbEntity
  8
Sc.1_5
 62
     9
  6
CONTINUOUS
370
    -2
100
AcDbLine
 10
1634.26734938
 20
-890.21133035
 30
0.0
 11
1635.57866024
 21
-889.77422666
 31
0.0
  0
LINE
  5
2E5
100
AcDbEntity
  8
Sc.1_5
 62
     9
  6
CONTINUOUS
370
    -2
100
AcDbLine
 10
1655.75985128
 20
-819.77446941
 30
0.0
 11
1657.07115994
 21
-820.21157238
 31
0.0
  0
LINE
  5
2E6
100
AcDbEntity
  8
Sc.1_5
 62
     9
  6
CONTINUOUS
370
    -2
100
AcDbLine
 10
1655.75984955
 20
-829.10776961
 30
0.0
 11
1657.07116041
 21
-829.54487331
 31
0.0
  0
LINE
  5
2E7
100
AcDbEntity
  8
Sc.1_5
 62
     9
  6
CONTINUOUS
370
    -2
100
AcDbLine
 10
1655.75985002
 20
-838.44107054
 30
0.0
 11
1657.07116088
 21
-838.87817423
 31
0.0
  0
LINE
  5
2E8
100
AcDbEntity
  8
Sc.1_5
 62
     9
  6
CONTINUOUS
370
    -2
100
AcDbLine
 10
1655.75985048
 20
-847.77437147
 30
0.0
 11
1657.07116135
 21
-848.21147516
 31
0.0
  0
LINE
  5
2E9
100
AcDbEntity
  8
Sc.1_5
 62
     9
  6
CONTINUOUS
370
    -2
100
AcDbLine
 10
1655.75985095
 20
-857.1076724
 30
0.0
 11
1657.07116182
 21
-857.54477609
 31
0.0
  0
LINE
  5
2EA
100
AcDbEntity
  8
Sc.1_5
 62
     9
  6
CONTINUOUS
370
    -2
100
AcDbLine
 10
1655.75985142
 20
-866.44097333
 30
0.0
 11
1657.07116228
 21
-866.87807702
 31
0.0
  0
LINE
  5
2EB
100
AcDbEntity
  8
Sc.1_5
 62
     9
  6
CONTINUOUS
370
    -2
100
AcDbLine
 10
1655.75985189
 20
-875.77427425
 30
0.0
 11
1657.07116275
 21
-876.21137795
 31
0.0
  0
LINE
  5
2EC
100
AcDbEntity
  8
Sc.1_5
 62
     9
  6
CONTINUOUS
370
    -2
100
AcDbLine
 10
1655.75985235
 20
-885.10757518
 30
0.0
 11
1657.07116322
 21
-885.54467888
 31
0.0
  0
LINE
  5
2ED
100
AcDbEntity
  8
Sc.1_5
 62
     9
  6
CONTINUOUS
370
    -2
100
AcDbLine
 10
1655.75985282
 20
-894.44087611
 30
0.0
 11
1657.07116369
 21
-894.87797981
 31
0.0
  0
LINE
  5
2EE
100
AcDbEntity
  8
Sc.1_5
 62
     9
  6
CONTINUOUS
370
    -2
100
AcDbLine
 10
1657.07115548
 20
-894.00377166
 30
0.0
 11
1655.75984462
 21
-894.44087536
 31
0.0
  0
LINE
  5
2EF
100
AcDbEntity
  8
Sc.1_5
 62
     9
  6
CONTINUOUS
370
    -2
100
AcDbLine
 10
1657.07115595
 20
-884.67047073
 30
0.0
 11
1655.75984509
 21
-885.10757443
 31
0.0
  0
LINE
  5
2F0
100
AcDbEntity
  8
Sc.1_5
 62
     9
  6
CONTINUOUS
370
    -2
100
AcDbLine
 10
1657.07115642
 20
-875.3371698
 30
0.0
 11
1655.75984556
 21
-875.7742735
 31
0.0
  0
LINE
  5
2F1
100
AcDbEntity
  8
Sc.1_5
 62
     9
  6
CONTINUOUS
370
    -2
100
AcDbLine
 10
1657.07115689
 20
-866.00386888
 30
0.0
 11
1655.75984602
 21
-866.44097257
 31
0.0
  0
LINE
  5
2F2
100
AcDbEntity
  8
Sc.1_5
 62
     9
  6
CONTINUOUS
370
    -2
100
AcDbLine
 10
1657.07115736
 20
-856.67056795
 30
0.0
 11
1655.75984649
 21
-857.10767164
 31
0.0
  0
LINE
  5
2F3
100
AcDbEntity
  8
Sc.1_5
 62
     9
  6
CONTINUOUS
370
    -2
100
AcDbLine
 10
1657.07115782
 20
-847.33726702
 30
0.0
 11
1655.75984696
 21
-847.77437071
 31
0.0
  0
LINE
  5
2F4
100
AcDbEntity
  8
Sc.1_5
 62
     9
  6
CONTINUOUS
370
    -2
100
AcDbLine
 10
1657.07115829
 20
-838.00396609
 30
0.0
 11
1655.75984743
 21
-838.44106978
 31
0.0
  0
LINE
  5
2F5
100
AcDbEntity
  8
Sc.1_5
 62
     9
  6
CONTINUOUS
370
    -2
100
AcDbLine
 10
1657.07115876
 20
-828.67066516
 30
0.0
 11
1655.7598479
 21
-829.10776885
 31
0.0
  0
LINE
  5
2F6
100
AcDbEntity
  8
Sc.1_5
 62
     9
  6
CONTINUOUS
370
    -2
100
AcDbLine
 10
1636.33597096
 20
-824.44111898
 30
0.0
 11
1637.33702019
 21
-824.55234673
 31
0.0
  0
LINE
  5
2F7
100
AcDbEntity
  8
Sc.1_5
 62
     9
  6
CONTINUOUS
370
    -2
100
AcDbLine
 10
1636.33598236
 20
-833.77441826
 30
0.0
 11
1637.3370316
 21
-833.885646
 31
0.0
  0
LINE
  5
2F8
100
AcDbEntity
  8
Sc.1_5
 62
     9
  6
CONTINUOUS
370
    -2
100
AcDbLine
 10
1636.33599377
 20
-843.10771753
 30
0.0
 11
1637.33704301
 21
-843.21894527
 31
0.0
  0
LINE
  5
2F9
100
AcDbEntity
  8
Sc.1_5
 62
     9
  6
CONTINUOUS
370
    -2
100
AcDbLine
 10
1636.33600517
 20
-852.4410168
 30
0.0
 11
1637.33705441
 21
-852.55224455
 31
0.0
  0
LINE
  5
2FA
100
AcDbEntity
  8
Sc.1_5
 62
     9
  6
CONTINUOUS
370
    -2
100
AcDbLine
 10
1636.33601658
 20
-861.77431607
 30
0.0
 11
1637.33706582
 21
-861.88554382
 31
0.0
  0
LINE
  5
2FB
100
AcDbEntity
  8
Sc.1_5
 62
     9
  6
CONTINUOUS
370
    -2
100
AcDbLine
 10
1636.33602799
 20
-871.10761534
 30
0.0
 11
1637.33707722
 21
-871.21884309
 31
0.0
  0
LINE
  5
2FC
100
AcDbEntity
  8
Sc.1_5
 62
     9
  6
CONTINUOUS
370
    -2
100
AcDbLine
 10
1636.33603939
 20
-880.44091462
 30
0.0
 11
1637.33708863
 21
-880.55214236
 31
0.0
  0
LINE
  5
2FD
100
AcDbEntity
  8
Sc.1_5
 62
     9
  6
CONTINUOUS
370
    -2
100
AcDbLine
 10
1636.3360508
 20
-889.77421389
 30
0.0
 11
1637.33710003
 21
-889.88544163
 31
0.0
  0
LINE
  5
2FE
100
AcDbEntity
  8
Sc.1_5
 62
     9
  6
CONTINUOUS
370
    -2
100
AcDbLine
 10
1636.33595955
 20
-824.44111911
 30
0.0
 11
1637.33700879
 21
-824.32989137
 31
0.0
  0
LINE
  5
2FF
100
AcDbEntity
  8
Sc.1_5
 62
     9
  6
CONTINUOUS
370
    -2
100
AcDbLine
 10
1636.33594814
 20
-833.77441839
 30
0.0
 11
1637.33699738
 21
-833.66319064
 31
0.0
  0
LINE
  5
300
100
AcDbEntity
  8
Sc.1_5
 62
     9
  6
CONTINUOUS
370
    -2
100
AcDbLine
 10
1636.33593674
 20
-843.10771766
 30
0.0
 11
1637.33698598
 21
-842.99648991
 31
0.0
  0
LINE
  5
301
100
AcDbEntity
  8
Sc.1_5
 62
     9
  6
CONTINUOUS
370
    -2
100
AcDbLine
 10
1636.33592533
 20
-852.44101693
 30
0.0
 11
1637.33697457
 21
-852.32978918
 31
0.0
  0
LINE
  5
302
100
AcDbEntity
  8
Sc.1_5
 62
     9
  6
CONTINUOUS
370
    -2
100
AcDbLine
 10
1636.33591393
 20
-861.7743162
 30
0.0
 11
1637.33696316
 21
-861.66308846
 31
0.0
  0
LINE
  5
303
100
AcDbEntity
  8
Sc.1_5
 62
     9
  6
CONTINUOUS
370
    -2
100
AcDbLine
 10
1636.33590252
 20
-871.10761547
 30
0.0
 11
1637.33695176
 21
-870.99638773
 31
0.0
  0
LINE
  5
304
100
AcDbEntity
  8
Sc.1_5
 62
     9
  6
CONTINUOUS
370
    -2
100
AcDbLine
 10
1636.33589112
 20
-880.44091475
 30
0.0
 11
1637.33694035
 21
-880.329687
 31
0.0
  0
LINE
  5
305
100
AcDbEntity
  8
Sc.1_5
 62
     9
  6
CONTINUOUS
370
    -2
100
AcDbLine
 10
1636.33587971
 20
-889.77421402
 30
0.0
 11
1637.33692895
 21
-889.66298627
 31
0.0
  0
LINE
  5
306
100
AcDbEntity
  8
Sc.1_5
 62
     9
  6
CONTINUOUS
370
    -2
100
AcDbLine
 10
1655.00267116
 20
-894.44086946
 30
0.0
 11
1654.0016219
 21
-894.32964198
 31
0.0
  0
LINE
  5
307
100
AcDbEntity
  8
Sc.1_5
 62
     9
  6
CONTINUOUS
370
    -2
100
AcDbLine
 10
1655.00265727
 20
-885.10757019
 30
0.0
 11
1654.00160801
 21
-884.99634271
 31
0.0
  0
LINE
  5
308
100
AcDbEntity
  8
Sc.1_5
 62
     9
  6
CONTINUOUS
370
    -2
100
AcDbLine
 10
1655.00264338
 20
-875.77427092
 30
0.0
 11
1654.00159411
 21
-875.66304344
 31
0.0
  0
LINE
  5
309
100
AcDbEntity
  8
Sc.1_5
 62
     9
  6
CONTINUOUS
370
    -2
100
AcDbLine
 10
1655.00262949
 20
-866.44097165
 30
0.0
 11
1654.00158022
 21
-866.32974417
 31
0.0
  0
LINE
  5
30A
100
AcDbEntity
  8
Sc.1_5
 62
     9
  6
CONTINUOUS
370
    -2
100
AcDbLine
 10
1655.0026156
 20
-857.10767237
 30
0.0
 11
1654.00156633
 21
-856.9964449
 31
0.0
  0
LINE
  5
30B
100
AcDbEntity
  8
Sc.1_5
 62
     9
  6
CONTINUOUS
370
    -2
100
AcDbLine
 10
1655.00260171
 20
-847.7743731
 30
0.0
 11
1654.00155244
 21
-847.66314562
 31
0.0
  0
LINE
  5
30C
100
AcDbEntity
  8
Sc.1_5
 62
     9
  6
CONTINUOUS
370
    -2
100
AcDbLine
 10
1655.00258782
 20
-838.44107383
 30
0.0
 11
1654.00153855
 21
-838.32984635
 31
0.0
  0
LINE
  5
30D
100
AcDbEntity
  8
Sc.1_5
 62
     9
  6
CONTINUOUS
370
    -2
100
AcDbLine
 10
1655.00257392
 20
-829.10777456
 30
0.0
 11
1654.00152466
 21
-828.99654708
 31
0.0
  0
LINE
  5
30E
100
AcDbEntity
  8
Sc.1_5
 62
     9
  6
CONTINUOUS
370
    -2
100
AcDbLine
 10
1655.00256003
 20
-819.77447529
 30
0.0
 11
1655.00250717
 21
-819.77446941
 31
0.0
  0
LINE
  5
30F
100
AcDbEntity
  8
Sc.1_5
 62
     9
  6
CONTINUOUS
370
    -2
100
AcDbLine
 10
1655.00246879
 20
-894.44086517
 30
0.0
 11
1654.00141955
 21
-894.55209292
 31
0.0
  0
LINE
  5
310
100
AcDbEntity
  8
Sc.1_5
 62
     9
  6
CONTINUOUS
370
    -2
100
AcDbLine
 10
1655.00248019
 20
-885.1075659
 30
0.0
 11
1654.00143095
 21
-885.21879365
 31
0.0
  0
LINE
  5
311
100
AcDbEntity
  8
Sc.1_5
 62
     9
  6
CONTINUOUS
370
    -2
100
AcDbLine
 10
1655.0024916
 20
-875.77426663
 30
0.0
 11
1654.00144236
 21
-875.88549437
 31
0.0
  0
LINE
  5
312
100
AcDbEntity
  8
Sc.1_5
 62
     9
  6
CONTINUOUS
370
    -2
100
AcDbLine
 10
1655.002503
 20
-866.44096736
 30
0.0
 11
1654.00145377
 21
-866.5521951
 31
0.0
  0
LINE
  5
313
100
AcDbEntity
  8
Sc.1_5
 62
     9
  6
CONTINUOUS
370
    -2
100
AcDbLine
 10
1655.00251441
 20
-857.10766808
 30
0.0
 11
1654.00146517
 21
-857.21889583
 31
0.0
  0
LINE
  5
314
100
AcDbEntity
  8
Sc.1_5
 62
     9
  6
CONTINUOUS
370
    -2
100
AcDbLine
 10
1655.00252581
 20
-847.77436881
 30
0.0
 11
1654.00147658
 21
-847.88559656
 31
0.0
  0
LINE
  5
315
100
AcDbEntity
  8
Sc.1_5
 62
     9
  6
CONTINUOUS
370
    -2
100
AcDbLine
 10
1655.00253722
 20
-838.44106954
 30
0.0
 11
1654.00148798
 21
-838.55229728
 31
0.0
  0
LINE
  5
316
100
AcDbEntity
  8
Sc.1_5
 62
     9
  6
CONTINUOUS
370
    -2
100
AcDbLine
 10
1655.00254863
 20
-829.10777027
 30
0.0
 11
1654.00149939
 21
-829.21899801
 31
0.0
  0
LINE
  5
317
100
AcDbEntity
  8
Sc.1_5
 62
     9
  6
CONTINUOUS
370
    -2
100
AcDbLine
 10
1655.00256003
 20
-819.774471
 30
0.0
 11
1654.0015108
 21
-819.88569874
 31
0.0
  0
ENDBLK
  5
318
100
AcDbEntity
100
AcDbBlockEnd
  0
BLOCK
  5
319
100
AcDbEntity
  8
Sc.1_5
100
AcDbBlockBegin
  2
*X2013
 70
     1
 10
0.0
 20
0.0
 30
0.0
  3
*X2013
  1

  4
Cadwork hatch
  0
LINE
  5
31A
100
AcDbEntity
  8
Sc.1_5
 62
     9
  6
CONTINUOUS
370
    -2
100
AcDbLine
 10
1631.66920672
 20
-962.54966006
 30
0.0
 11
1631.66920782
 21
-961.92470848
 31
0.0
  0
LINE
  5
31B
100
AcDbEntity
  8
Sc.1_5
 62
     9
  6
CONTINUOUS
370
    -2
100
AcDbLine
 10
1631.66921383
 20
-958.50794409
 30
0.0
 11
1631.66921603
 21
-957.25804092
 31
0.0
  0
LINE
  5
31C
100
AcDbEntity
  8
Sc.1_5
 62
     9
  6
CONTINUOUS
370
    -2
100
AcDbLine
 10
1631.66922205
 20
-953.84127653
 30
0.0
 11
1631.66922425
 21
-952.59137336
 31
0.0
  0
LINE
  5
31D
100
AcDbEntity
  8
Sc.1_5
 62
     9
  6
CONTINUOUS
370
    -2
100
AcDbLine
 10
1631.66923026
 20
-949.17460897
 30
0.0
 11
1631.66923246
 21
-947.9247058
 31
0.0
  0
LINE
  5
31E
100
AcDbEntity
  8
Sc.1_5
 62
     9
  6
CONTINUOUS
370
    -2
100
AcDbLine
 10
1631.66923848
 20
-944.50794141
 30
0.0
 11
1631.66924067
 21
-943.25803824
 31
0.0
  0
LINE
  5
31F
100
AcDbEntity
  8
Sc.1_5
 62
     9
  6
CONTINUOUS
370
    -2
100
AcDbLine
 10
1631.66924669
 20
-939.84127385
 30
0.0
 11
1631.66924889
 21
-938.59137068
 31
0.0
  0
LINE
  5
320
100
AcDbEntity
  8
Sc.1_5
 62
     9
  6
CONTINUOUS
370
    -2
100
AcDbLine
 10
1631.6692549
 20
-935.17460628
 30
0.0
 11
1631.6692571
 21
-933.92470312
 31
0.0
  0
LINE
  5
321
100
AcDbEntity
  8
Sc.1_5
 62
     9
  6
CONTINUOUS
370
    -2
100
AcDbLine
 10
1631.66926312
 20
-930.50793872
 30
0.0
 11
1631.66926532
 21
-929.25803556
 31
0.0
  0
LINE
  5
322
100
AcDbEntity
  8
Sc.1_5
 62
     9
  6
CONTINUOUS
370
    -2
100
AcDbLine
 10
1631.66927133
 20
-925.84127116
 30
0.0
 11
1631.66927353
 21
-924.59136799
 31
0.0
  0
LINE
  5
323
100
AcDbEntity
  8
Sc.1_5
 62
     9
  6
CONTINUOUS
370
    -2
100
AcDbLine
 10
1631.66927954
 20
-921.1746036
 30
0.0
 11
1631.66928174
 21
-919.92470043
 31
0.0
  0
LINE
  5
324
100
AcDbEntity
  8
Sc.1_5
 62
     9
  6
CONTINUOUS
370
    -2
100
AcDbLine
 10
1631.66928776
 20
-916.50793604
 30
0.0
 11
1631.66928996
 21
-915.25803287
 31
0.0
  0
LINE
  5
325
100
AcDbEntity
  8
Sc.1_5
 62
     9
  6
CONTINUOUS
370
    -2
100
AcDbLine
 10
1631.66929597
 20
-911.84126848
 30
0.0
 11
1631.66929817
 21
-910.59136531
 31
0.0
  0
LINE
  5
326
100
AcDbEntity
  8
Sc.1_5
 62
     9
  6
CONTINUOUS
370
    -2
100
AcDbLine
 10
1631.66930419
 20
-907.17460092
 30
0.0
 11
1631.66930639
 21
-905.92469775
 31
0.0
  0
LINE
  5
327
100
AcDbEntity
  8
Sc.1_5
 62
     9
  6
CONTINUOUS
370
    -2
100
AcDbLine
 10
1655.75984234
 20
-957.88303499
 30
0.0
 11
1655.00254598
 21
-957.88303366
 31
0.0
  0
LINE
  5
328
100
AcDbEntity
  8
Sc.1_5
 62
     9
  6
CONTINUOUS
370
    -2
100
AcDbLine
 10
1655.75985877
 20
-948.54970271
 30
0.0
 11
1655.00256241
 21
-948.54970137
 31
0.0
  0
LINE
  5
329
100
AcDbEntity
  8
Sc.1_5
 62
     9
  6
CONTINUOUS
370
    -2
100
AcDbLine
 10
1655.75987519
 20
-939.21637042
 30
0.0
 11
1655.00257883
 21
-939.21636909
 31
0.0
  0
LINE
  5
32A
100
AcDbEntity
  8
Sc.1_5
 62
     9
  6
CONTINUOUS
370
    -2
100
AcDbLine
 10
1655.75989162
 20
-929.88303814
 30
0.0
 11
1655.00259526
 21
-929.8830368
 31
0.0
  0
LINE
  5
32B
100
AcDbEntity
  8
Sc.1_5
 62
     9
  6
CONTINUOUS
370
    -2
100
AcDbLine
 10
1655.75990805
 20
-920.54970585
 30
0.0
 11
1655.00261169
 21
-920.54970452
 31
0.0
  0
LINE
  5
32C
100
AcDbEntity
  8
Sc.1_5
 62
     9
  6
CONTINUOUS
370
    -2
100
AcDbLine
 10
1655.75992448
 20
-911.21637357
 30
0.0
 11
1655.00262812
 21
-911.21637224
 31
0.0
  0
LINE
  5
32D
100
AcDbEntity
  8
Sc.1_5
 62
     9
  6
CONTINUOUS
370
    -2
100
AcDbLine
 10
1636.33588962
 20
-953.21633499
 30
0.0
 11
1635.57859327
 21
-953.21633366
 31
0.0
  0
LINE
  5
32E
100
AcDbEntity
  8
Sc.1_5
 62
     9
  6
CONTINUOUS
370
    -2
100
AcDbLine
 10
1636.33590605
 20
-943.88300271
 30
0.0
 11
1635.57860969
 21
-943.88300138
 31
0.0
  0
LINE
  5
32F
100
AcDbEntity
  8
Sc.1_5
 62
     9
  6
CONTINUOUS
370
    -2
100
AcDbLine
 10
1636.33592248
 20
-934.54967043
 30
0.0
 11
1635.57862612
 21
-934.54966909
 31
0.0
  0
LINE
  5
330
100
AcDbEntity
  8
Sc.1_5
 62
     9
  6
CONTINUOUS
370
    -2
100
AcDbLine
 10
1636.33593891
 20
-925.21633814
 30
0.0
 11
1635.57864255
 21
-925.21633681
 31
0.0
  0
LINE
  5
331
100
AcDbEntity
  8
Sc.1_5
 62
     9
  6
CONTINUOUS
370
    -2
100
AcDbLine
 10
1636.33595533
 20
-915.88300586
 30
0.0
 11
1635.57865898
 21
-915.88300452
 31
0.0
  0
LINE
  5
332
100
AcDbEntity
  8
Sc.1_5
 62
     9
  6
CONTINUOUS
370
    -2
100
AcDbLine
 10
1636.33597176
 20
-906.54967357
 30
0.0
 11
1635.5786754
 21
-906.54967224
 31
0.0
  0
LINE
  5
333
100
AcDbEntity
  8
Sc.1_5
 62
     9
  6
CONTINUOUS
370
    -2
100
AcDbLine
 10
1654.00134526
 20
-957.9937479
 30
0.0
 11
1637.33677571
 21
-962.437928
 31
0.0
  0
LINE
  5
334
100
AcDbEntity
  8
Sc.1_5
 62
     9
  6
CONTINUOUS
370
    -2
100
AcDbLine
 10
1654.00137769
 20
-948.66041751
 30
0.0
 11
1637.33680815
 21
-953.10459762
 31
0.0
  0
LINE
  5
335
100
AcDbEntity
  8
Sc.1_5
 62
     9
  6
CONTINUOUS
370
    -2
100
AcDbLine
 10
1654.00141012
 20
-939.32708713
 30
0.0
 11
1637.33684058
 21
-943.77126723
 31
0.0
  0
LINE
  5
336
100
AcDbEntity
  8
Sc.1_5
 62
     9
  6
CONTINUOUS
370
    -2
100
AcDbLine
 10
1654.00144256
 20
-929.99375675
 30
0.0
 11
1637.33687301
 21
-934.43793685
 31
0.0
  0
LINE
  5
337
100
AcDbEntity
  8
Sc.1_5
 62
     9
  6
CONTINUOUS
370
    -2
100
AcDbLine
 10
1654.00147499
 20
-920.66042636
 30
0.0
 11
1637.33690545
 21
-925.10460646
 31
0.0
  0
LINE
  5
338
100
AcDbEntity
  8
Sc.1_5
 62
     9
  6
CONTINUOUS
370
    -2
100
AcDbLine
 10
1654.00150743
 20
-911.32709598
 30
0.0
 11
1637.33693788
 21
-915.77127608
 31
0.0
  0
LINE
  5
339
100
AcDbEntity
  8
Sc.1_5
 62
     9
  6
CONTINUOUS
370
    -2
100
AcDbLine
 10
1641.04198061
 20
-905.44987739
 30
0.0
 11
1637.33697032
 21
-906.4379457
 31
0.0
  0
LINE
  5
33A
100
AcDbEntity
  8
Sc.1_5
 62
     9
  6
CONTINUOUS
370
    -2
100
AcDbLine
 10
1654.00134565
 20
-957.77231856
 30
0.0
 11
1637.33679174
 21
-953.32807979
 31
0.0
  0
LINE
  5
33B
100
AcDbEntity
  8
Sc.1_5
 62
     9
  6
CONTINUOUS
370
    -2
100
AcDbLine
 10
1654.00134607
 20
-948.43898817
 30
0.0
 11
1637.33679217
 21
-943.99474941
 31
0.0
  0
LINE
  5
33C
100
AcDbEntity
  8
Sc.1_5
 62
     9
  6
CONTINUOUS
370
    -2
100
AcDbLine
 10
1654.00134649
 20
-939.10565779
 30
0.0
 11
1637.33679259
 21
-934.66141902
 31
0.0
  0
LINE
  5
33D
100
AcDbEntity
  8
Sc.1_5
 62
     9
  6
CONTINUOUS
370
    -2
100
AcDbLine
 10
1654.00134691
 20
-929.77232741
 30
0.0
 11
1637.33679301
 21
-925.32808864
 31
0.0
  0
LINE
  5
33E
100
AcDbEntity
  8
Sc.1_5
 62
     9
  6
CONTINUOUS
370
    -2
100
AcDbLine
 10
1654.00134733
 20
-920.43899702
 30
0.0
 11
1637.33679343
 21
-915.99475825
 31
0.0
  0
LINE
  5
33F
100
AcDbEntity
  8
Sc.1_5
 62
     9
  6
CONTINUOUS
370
    -2
100
AcDbLine
 10
1654.00134775
 20
-911.10566664
 30
0.0
 11
1637.33679385
 21
-906.66142787
 31
0.0
  0
LINE
  5
340
100
AcDbEntity
  8
Sc.1_5
 62
     9
  6
CONTINUOUS
370
    -2
100
AcDbLine
 10
1659.66920614
 20
-961.92475557
 30
0.0
 11
1659.33544429
 21
-960.70095367
 31
0.0
  0
LINE
  5
341
100
AcDbEntity
  8
Sc.1_5
 62
     9
  6
CONTINUOUS
370
    -2
100
AcDbLine
 10
1659.66920621
 20
-952.59136266
 30
0.0
 11
1659.33546097
 21
-951.36762168
 31
0.0
  0
LINE
  5
342
100
AcDbEntity
  8
Sc.1_5
 62
     9
  6
CONTINUOUS
370
    -2
100
AcDbLine
 10
1659.66920627
 20
-943.25796975
 30
0.0
 11
1659.33547764
 21
-942.03428969
 31
0.0
  0
LINE
  5
343
100
AcDbEntity
  8
Sc.1_5
 62
     9
  6
CONTINUOUS
370
    -2
100
AcDbLine
 10
1659.66920633
 20
-933.92457684
 30
0.0
 11
1659.33549432
 21
-932.7009577
 31
0.0
  0
LINE
  5
344
100
AcDbEntity
  8
Sc.1_5
 62
     9
  6
CONTINUOUS
370
    -2
100
AcDbLine
 10
1659.6692064
 20
-924.59118394
 30
0.0
 11
1659.335511
 21
-923.36762571
 31
0.0
  0
LINE
  5
345
100
AcDbEntity
  8
Sc.1_5
 62
     9
  6
CONTINUOUS
370
    -2
100
AcDbLine
 10
1659.66920646
 20
-915.25779103
 30
0.0
 11
1659.33552768
 21
-914.03429372
 31
0.0
  0
LINE
  5
346
100
AcDbEntity
  8
Sc.1_5
 62
     9
  6
CONTINUOUS
370
    -2
100
AcDbLine
 10
1659.66920653
 20
-905.92439812
 30
0.0
 11
1659.53979267
 21
-905.44987739
 31
0.0
  0
LINE
  5
347
100
AcDbEntity
  8
Sc.1_5
 62
     9
  6
CONTINUOUS
370
    -2
100
AcDbLine
 10
1659.6692062
 20
-953.8413739
 30
0.0
 11
1659.33545288
 21
-955.06512817
 31
0.0
  0
LINE
  5
348
100
AcDbEntity
  8
Sc.1_5
 62
     9
  6
CONTINUOUS
370
    -2
100
AcDbLine
 10
1659.66920626
 20
-944.50809643
 30
0.0
 11
1659.33546781
 21
-945.73179618
 31
0.0
  0
LINE
  5
349
100
AcDbEntity
  8
Sc.1_5
 62
     9
  6
CONTINUOUS
370
    -2
100
AcDbLine
 10
1659.66920633
 20
-935.17481896
 30
0.0
 11
1659.33548275
 21
-936.39846419
 31
0.0
  0
LINE
  5
34A
100
AcDbEntity
  8
Sc.1_5
 62
     9
  6
CONTINUOUS
370
    -2
100
AcDbLine
 10
1659.66920639
 20
-925.8415415
 30
0.0
 11
1659.33549768
 21
-927.0651322
 31
0.0
  0
LINE
  5
34B
100
AcDbEntity
  8
Sc.1_5
 62
     9
  6
CONTINUOUS
370
    -2
100
AcDbLine
 10
1659.66920645
 20
-916.50826403
 30
0.0
 11
1659.33551262
 21
-917.73180021
 31
0.0
  0
LINE
  5
34C
100
AcDbEntity
  8
Sc.1_5
 62
     9
  6
CONTINUOUS
370
    -2
100
AcDbLine
 10
1659.66920652
 20
-907.17498656
 30
0.0
 11
1659.33552755
 21
-908.39846822
 31
0.0
  0
LINE
  5
34D
100
AcDbEntity
  8
Sc.1_5
 62
     9
  6
CONTINUOUS
370
    -2
100
AcDbLine
 10
1632.00298211
 20
-959.73177672
 30
0.0
 11
1631.66921594
 21
-958.507959
 31
0.0
  0
LINE
  5
34E
100
AcDbEntity
  8
Sc.1_5
 62
     9
  6
CONTINUOUS
370
    -2
100
AcDbLine
 10
1632.00299878
 20
-950.39844473
 30
0.0
 11
1631.66923262
 21
-949.17462701
 31
0.0
  0
LINE
  5
34F
100
AcDbEntity
  8
Sc.1_5
 62
     9
  6
CONTINUOUS
370
    -2
100
AcDbLine
 10
1632.00301546
 20
-941.06511274
 30
0.0
 11
1631.66924929
 21
-939.84129502
 31
0.0
  0
LINE
  5
350
100
AcDbEntity
  8
Sc.1_5
 62
     9
  6
CONTINUOUS
370
    -2
100
AcDbLine
 10
1632.00303214
 20
-931.73178074
 30
0.0
 11
1631.66926597
 21
-930.50796303
 31
0.0
  0
LINE
  5
351
100
AcDbEntity
  8
Sc.1_5
 62
     9
  6
CONTINUOUS
370
    -2
100
AcDbLine
 10
1632.00304882
 20
-922.39844875
 30
0.0
 11
1631.66928265
 21
-921.17463104
 31
0.0
  0
LINE
  5
352
100
AcDbEntity
  8
Sc.1_5
 62
     9
  6
CONTINUOUS
370
    -2
100
AcDbLine
 10
1632.00306549
 20
-913.06511676
 30
0.0
 11
1631.66929933
 21
-911.84129905
 31
0.0
  0
LINE
  5
353
100
AcDbEntity
  8
Sc.1_5
 62
     9
  6
CONTINUOUS
370
    -2
100
AcDbLine
 10
1631.66930003
 20
-910.59137013
 30
0.0
 11
1632.00307051
 21
-909.3675536
 31
0.0
  0
LINE
  5
354
100
AcDbEntity
  8
Sc.1_5
 62
     9
  6
CONTINUOUS
370
    -2
100
AcDbLine
 10
1631.66928386
 20
-919.92470213
 30
0.0
 11
1632.00305433
 21
-918.70088559
 31
0.0
  0
LINE
  5
355
100
AcDbEntity
  8
Sc.1_5
 62
     9
  6
CONTINUOUS
370
    -2
100
AcDbLine
 10
1631.66926768
 20
-929.25803412
 30
0.0
 11
1632.00303815
 21
-928.03421758
 31
0.0
  0
LINE
  5
356
100
AcDbEntity
  8
Sc.1_5
 62
     9
  6
CONTINUOUS
370
    -2
100
AcDbLine
 10
1631.6692515
 20
-938.59136611
 30
0.0
 11
1632.00302198
 21
-937.36754957
 31
0.0
  0
LINE
  5
357
100
AcDbEntity
  8
Sc.1_5
 62
     9
  6
CONTINUOUS
370
    -2
100
AcDbLine
 10
1631.66923532
 20
-947.9246981
 30
0.0
 11
1632.0030058
 21
-946.70088156
 31
0.0
  0
LINE
  5
358
100
AcDbEntity
  8
Sc.1_5
 62
     9
  6
CONTINUOUS
370
    -2
100
AcDbLine
 10
1631.66921915
 20
-957.25803009
 30
0.0
 11
1632.00298962
 21
-956.03421355
 31
0.0
  0
LINE
  5
359
100
AcDbEntity
  8
Sc.1_5
 62
     9
  6
CONTINUOUS
370
    -2
100
AcDbLine
 10
1659.33543846
 20
-960.70093563
 30
0.0
 11
1658.70844307
 21
-959.65593915
 31
0.0
  0
LINE
  5
35A
100
AcDbEntity
  8
Sc.1_5
 62
     9
  6
CONTINUOUS
370
    -2
100
AcDbLine
 10
1659.33545483
 20
-951.36760173
 30
0.0
 11
1658.70845944
 21
-950.32260525
 31
0.0
  0
LINE
  5
35B
100
AcDbEntity
  8
Sc.1_5
 62
     9
  6
CONTINUOUS
370
    -2
100
AcDbLine
 10
1659.33547119
 20
-942.03426784
 30
0.0
 11
1658.70847581
 21
-940.98927136
 31
0.0
  0
LINE
  5
35C
100
AcDbEntity
  8
Sc.1_5
 62
     9
  6
CONTINUOUS
370
    -2
100
AcDbLine
 10
1659.33548756
 20
-932.70093394
 30
0.0
 11
1658.70849217
 21
-931.65593746
 31
0.0
  0
LINE
  5
35D
100
AcDbEntity
  8
Sc.1_5
 62
     9
  6
CONTINUOUS
370
    -2
100
AcDbLine
 10
1659.33550392
 20
-923.36760004
 30
0.0
 11
1658.70850854
 21
-922.32260356
 31
0.0
  0
LINE
  5
35E
100
AcDbEntity
  8
Sc.1_5
 62
     9
  6
CONTINUOUS
370
    -2
100
AcDbLine
 10
1659.33552029
 20
-914.03426614
 30
0.0
 11
1658.7085249
 21
-912.98926967
 31
0.0
  0
LINE
  5
35F
100
AcDbEntity
  8
Sc.1_5
 62
     9
  6
CONTINUOUS
370
    -2
100
AcDbLine
 10
1659.33544905
 20
-955.07205456
 30
0.0
 11
1658.70844992
 21
-956.11704878
 31
0.0
  0
LINE
  5
360
100
AcDbEntity
  8
Sc.1_5
 62
     9
  6
CONTINUOUS
370
    -2
100
AcDbLine
 10
1659.33546616
 20
-945.73872066
 30
0.0
 11
1658.70846703
 21
-946.78371489
 31
0.0
  0
LINE
  5
361
100
AcDbEntity
  8
Sc.1_5
 62
     9
  6
CONTINUOUS
370
    -2
100
AcDbLine
 10
1659.33548327
 20
-936.40538676
 30
0.0
 11
1658.70848414
 21
-937.45038099
 31
0.0
  0
LINE
  5
362
100
AcDbEntity
  8
Sc.1_5
 62
     9
  6
CONTINUOUS
370
    -2
100
AcDbLine
 10
1659.33550038
 20
-927.07205286
 30
0.0
 11
1658.70850125
 21
-928.11704709
 31
0.0
  0
LINE
  5
363
100
AcDbEntity
  8
Sc.1_5
 62
     9
  6
CONTINUOUS
370
    -2
100
AcDbLine
 10
1659.3355175
 20
-917.73871897
 30
0.0
 11
1658.70851836
 21
-918.7837132
 31
0.0
  0
LINE
  5
364
100
AcDbEntity
  8
Sc.1_5
 62
     9
  6
CONTINUOUS
370
    -2
100
AcDbLine
 10
1659.33553461
 20
-908.40538507
 30
0.0
 11
1658.70853547
 21
-909.4503793
 31
0.0
  0
LINE
  5
365
100
AcDbEntity
  8
Sc.1_5
 62
     9
  6
CONTINUOUS
370
    -2
100
AcDbLine
 10
1632.62997417
 20
-960.77675184
 30
0.0
 11
1632.00297878
 21
-959.73175536
 31
0.0
  0
LINE
  5
366
100
AcDbEntity
  8
Sc.1_5
 62
     9
  6
CONTINUOUS
370
    -2
100
AcDbLine
 10
1632.62999053
 20
-951.44341795
 30
0.0
 11
1632.00299515
 21
-950.39842147
 31
0.0
  0
LINE
  5
367
100
AcDbEntity
  8
Sc.1_5
 62
     9
  6
CONTINUOUS
370
    -2
100
AcDbLine
 10
1632.6300069
 20
-942.11008405
 30
0.0
 11
1632.00301151
 21
-941.06508757
 31
0.0
  0
LINE
  5
368
100
AcDbEntity
  8
Sc.1_5
 62
     9
  6
CONTINUOUS
370
    -2
100
AcDbLine
 10
1632.63002326
 20
-932.77675015
 30
0.0
 11
1632.00302788
 21
-931.73175367
 31
0.0
  0
LINE
  5
369
100
AcDbEntity
  8
Sc.1_5
 62
     9
  6
CONTINUOUS
370
    -2
100
AcDbLine
 10
1632.63003963
 20
-923.44341625
 30
0.0
 11
1632.00304424
 21
-922.39841978
 31
0.0
  0
LINE
  5
36A
100
AcDbEntity
  8
Sc.1_5
 62
     9
  6
CONTINUOUS
370
    -2
100
AcDbLine
 10
1632.630056
 20
-914.11008236
 30
0.0
 11
1632.00306061
 21
-913.06508588
 31
0.0
  0
LINE
  5
36B
100
AcDbEntity
  8
Sc.1_5
 62
     9
  6
CONTINUOUS
370
    -2
100
AcDbLine
 10
1632.00306531
 20
-909.36756232
 30
0.0
 11
1632.63006437
 21
-908.32256805
 31
0.0
  0
LINE
  5
36C
100
AcDbEntity
  8
Sc.1_5
 62
     9
  6
CONTINUOUS
370
    -2
100
AcDbLine
 10
1632.00304882
 20
-918.70089622
 30
0.0
 11
1632.63004789
 21
-917.65590195
 31
0.0
  0
LINE
  5
36D
100
AcDbEntity
  8
Sc.1_5
 62
     9
  6
CONTINUOUS
370
    -2
100
AcDbLine
 10
1632.00303233
 20
-928.03423012
 30
0.0
 11
1632.6300314
 21
-926.98923585
 31
0.0
  0
LINE
  5
36E
100
AcDbEntity
  8
Sc.1_5
 62
     9
  6
CONTINUOUS
370
    -2
100
AcDbLine
 10
1632.00301584
 20
-937.36756401
 30
0.0
 11
1632.63001491
 21
-936.32256974
 31
0.0
  0
LINE
  5
36F
100
AcDbEntity
  8
Sc.1_5
 62
     9
  6
CONTINUOUS
370
    -2
100
AcDbLine
 10
1632.00299935
 20
-946.70089791
 30
0.0
 11
1632.62999842
 21
-945.65590364
 31
0.0
  0
LINE
  5
370
100
AcDbEntity
  8
Sc.1_5
 62
     9
  6
CONTINUOUS
370
    -2
100
AcDbLine
 10
1632.00298286
 20
-956.03423181
 30
0.0
 11
1632.62998193
 21
-954.98923754
 31
0.0
  0
LINE
  5
371
100
AcDbEntity
  8
Sc.1_5
 62
     9
  6
CONTINUOUS
370
    -2
100
AcDbLine
 10
1658.70844424
 20
-959.65594287
 30
0.0
 11
1657.97562753
 21
-958.92312358
 31
0.0
  0
LINE
  5
372
100
AcDbEntity
  8
Sc.1_5
 62
     9
  6
CONTINUOUS
370
    -2
100
AcDbLine
 10
1658.70846066
 20
-950.32260812
 30
0.0
 11
1657.97564396
 21
-949.58978884
 31
0.0
  0
LINE
  5
373
100
AcDbEntity
  8
Sc.1_5
 62
     9
  6
CONTINUOUS
370
    -2
100
AcDbLine
 10
1658.70847709
 20
-940.98927338
 30
0.0
 11
1657.97566038
 21
-940.25645409
 31
0.0
  0
LINE
  5
374
100
AcDbEntity
  8
Sc.1_5
 62
     9
  6
CONTINUOUS
370
    -2
100
AcDbLine
 10
1658.70849352
 20
-931.65593863
 30
0.0
 11
1657.97567681
 21
-930.92311934
 31
0.0
  0
LINE
  5
375
100
AcDbEntity
  8
Sc.1_5
 62
     9
  6
CONTINUOUS
370
    -2
100
AcDbLine
 10
1658.70850995
 20
-922.32260389
 30
0.0
 11
1657.97569324
 21
-921.5897846
 31
0.0
  0
LINE
  5
376
100
AcDbEntity
  8
Sc.1_5
 62
     9
  6
CONTINUOUS
370
    -2
100
AcDbLine
 10
1658.70852638
 20
-912.98926914
 30
0.0
 11
1657.97570967
 21
-912.25644985
 31
0.0
  0
LINE
  5
377
100
AcDbEntity
  8
Sc.1_5
 62
     9
  6
CONTINUOUS
370
    -2
100
AcDbLine
 10
1658.70845048
 20
-956.1101377
 30
0.0
 11
1657.97563119
 21
-956.84295441
 31
0.0
  0
LINE
  5
378
100
AcDbEntity
  8
Sc.1_5
 62
     9
  6
CONTINUOUS
370
    -2
100
AcDbLine
 10
1658.70846691
 20
-946.77680295
 30
0.0
 11
1657.97564762
 21
-947.50961966
 31
0.0
  0
LINE
  5
379
100
AcDbEntity
  8
Sc.1_5
 62
     9
  6
CONTINUOUS
370
    -2
100
AcDbLine
 10
1658.70848333
 20
-937.44346821
 30
0.0
 11
1657.97566405
 21
-938.17628492
 31
0.0
  0
LINE
  5
37A
100
AcDbEntity
  8
Sc.1_5
 62
     9
  6
CONTINUOUS
370
    -2
100
AcDbLine
 10
1658.70849976
 20
-928.11013346
 30
0.0
 11
1657.97568047
 21
-928.84295017
 31
0.0
  0
LINE
  5
37B
100
AcDbEntity
  8
Sc.1_5
 62
     9
  6
CONTINUOUS
370
    -2
100
AcDbLine
 10
1658.70851619
 20
-918.77679872
 30
0.0
 11
1657.9756969
 21
-919.50961543
 31
0.0
  0
LINE
  5
37C
100
AcDbEntity
  8
Sc.1_5
 62
     9
  6
CONTINUOUS
370
    -2
100
AcDbLine
 10
1658.70853262
 20
-909.44346397
 30
0.0
 11
1657.97571333
 21
-910.17628068
 31
0.0
  0
LINE
  5
37D
100
AcDbEntity
  8
Sc.1_5
 62
     9
  6
CONTINUOUS
370
    -2
100
AcDbLine
 10
1633.36279038
 20
-961.50957108
 30
0.0
 11
1632.62997367
 21
-960.77675179
 31
0.0
  0
LINE
  5
37E
100
AcDbEntity
  8
Sc.1_5
 62
     9
  6
CONTINUOUS
370
    -2
100
AcDbLine
 10
1633.3628068
 20
-952.17623633
 30
0.0
 11
1632.62999009
 21
-951.44341704
 31
0.0
  0
LINE
  5
37F
100
AcDbEntity
  8
Sc.1_5
 62
     9
  6
CONTINUOUS
370
    -2
100
AcDbLine
 10
1633.36282323
 20
-942.84290159
 30
0.0
 11
1632.63000652
 21
-942.1100823
 31
0.0
  0
LINE
  5
380
100
AcDbEntity
  8
Sc.1_5
 62
     9
  6
CONTINUOUS
370
    -2
100
AcDbLine
 10
1633.36283966
 20
-933.50956684
 30
0.0
 11
1632.63002295
 21
-932.77674755
 31
0.0
  0
LINE
  5
381
100
AcDbEntity
  8
Sc.1_5
 62
     9
  6
CONTINUOUS
370
    -2
100
AcDbLine
 10
1633.36285609
 20
-924.1762321
 30
0.0
 11
1632.63003938
 21
-923.44341281
 31
0.0
  0
LINE
  5
382
100
AcDbEntity
  8
Sc.1_5
 62
     9
  6
CONTINUOUS
370
    -2
100
AcDbLine
 10
1633.36287251
 20
-914.84289735
 30
0.0
 11
1632.63005581
 21
-914.11007806
 31
0.0
  0
LINE
  5
383
100
AcDbEntity
  8
Sc.1_5
 62
     9
  6
CONTINUOUS
370
    -2
100
AcDbLine
 10
1633.36288894
 20
-905.5095626
 30
0.0
 11
1633.30320394
 21
-905.44987739
 31
0.0
  0
LINE
  5
384
100
AcDbEntity
  8
Sc.1_5
 62
     9
  6
CONTINUOUS
370
    -2
100
AcDbLine
 10
1632.63006883
 20
-908.32256345
 30
0.0
 11
1633.36288812
 21
-907.58974675
 31
0.0
  0
LINE
  5
385
100
AcDbEntity
  8
Sc.1_5
 62
     9
  6
CONTINUOUS
370
    -2
100
AcDbLine
 10
1632.6300524
 20
-917.6558982
 30
0.0
 11
1633.36287169
 21
-916.92308149
 31
0.0
  0
LINE
  5
386
100
AcDbEntity
  8
Sc.1_5
 62
     9
  6
CONTINUOUS
370
    -2
100
AcDbLine
 10
1632.63003598
 20
-926.98923295
 30
0.0
 11
1633.36285527
 21
-926.25641624
 31
0.0
  0
LINE
  5
387
100
AcDbEntity
  8
Sc.1_5
 62
     9
  6
CONTINUOUS
370
    -2
100
AcDbLine
 10
1632.63001955
 20
-936.32256769
 30
0.0
 11
1633.36283884
 21
-935.58975098
 31
0.0
  0
LINE
  5
388
100
AcDbEntity
  8
Sc.1_5
 62
     9
  6
CONTINUOUS
370
    -2
100
AcDbLine
 10
1632.63000312
 20
-945.65590244
 30
0.0
 11
1633.36282241
 21
-944.92308573
 31
0.0
  0
LINE
  5
389
100
AcDbEntity
  8
Sc.1_5
 62
     9
  6
CONTINUOUS
370
    -2
100
AcDbLine
 10
1632.62998669
 20
-954.98923718
 30
0.0
 11
1633.36280598
 21
-954.25642047
 31
0.0
  0
LINE
  5
38A
100
AcDbEntity
  8
Sc.1_5
 62
     9
  6
CONTINUOUS
370
    -2
100
AcDbLine
 10
1657.97562571
 20
-958.92312498
 30
0.0
 11
1657.07115381
 21
-958.32014142
 31
0.0
  0
LINE
  5
38B
100
AcDbEntity
  8
Sc.1_5
 62
     9
  6
CONTINUOUS
370
    -2
100
AcDbLine
 10
1657.97564108
 20
-949.58979134
 30
0.0
 11
1657.07116918
 21
-948.98680777
 31
0.0
  0
LINE
  5
38C
100
AcDbEntity
  8
Sc.1_5
 62
     9
  6
CONTINUOUS
370
    -2
100
AcDbLine
 10
1657.97565645
 20
-940.25645769
 30
0.0
 11
1657.07118455
 21
-939.65347413
 31
0.0
  0
LINE
  5
38D
100
AcDbEntity
  8
Sc.1_5
 62
     9
  6
CONTINUOUS
370
    -2
100
AcDbLine
 10
1657.97567182
 20
-930.92312405
 30
0.0
 11
1657.07119992
 21
-930.32014048
 31
0.0
  0
LINE
  5
38E
100
AcDbEntity
  8
Sc.1_5
 62
     9
  6
CONTINUOUS
370
    -2
100
AcDbLine
 10
1657.97568719
 20
-921.5897904
 30
0.0
 11
1657.07121529
 21
-920.98680684
 31
0.0
  0
LINE
  5
38F
100
AcDbEntity
  8
Sc.1_5
 62
     9
  6
CONTINUOUS
370
    -2
100
AcDbLine
 10
1657.97570257
 20
-912.25645675
 30
0.0
 11
1657.07123066
 21
-911.65347319
 31
0.0
  0
LINE
  5
390
100
AcDbEntity
  8
Sc.1_5
 62
     9
  6
CONTINUOUS
370
    -2
100
AcDbLine
 10
1657.97563105
 20
-956.84295597
 30
0.0
 11
1657.07115698
 21
-957.44593629
 31
0.0
  0
LINE
  5
391
100
AcDbEntity
  8
Sc.1_5
 62
     9
  6
CONTINUOUS
370
    -2
100
AcDbLine
 10
1657.97564916
 20
-947.50962233
 30
0.0
 11
1657.07117509
 21
-948.11260265
 31
0.0
  0
LINE
  5
392
100
AcDbEntity
  8
Sc.1_5
 62
     9
  6
CONTINUOUS
370
    -2
100
AcDbLine
 10
1657.97566726
 20
-938.17628868
 30
0.0
 11
1657.07119319
 21
-938.779269
 31
0.0
  0
LINE
  5
393
100
AcDbEntity
  8
Sc.1_5
 62
     9
  6
CONTINUOUS
370
    -2
100
AcDbLine
 10
1657.97568537
 20
-928.84295503
 30
0.0
 11
1657.0712113
 21
-929.44593536
 31
0.0
  0
LINE
  5
394
100
AcDbEntity
  8
Sc.1_5
 62
     9
  6
CONTINUOUS
370
    -2
100
AcDbLine
 10
1657.97570347
 20
-919.50962139
 30
0.0
 11
1657.0712294
 21
-920.11260171
 31
0.0
  0
LINE
  5
395
100
AcDbEntity
  8
Sc.1_5
 62
     9
  6
CONTINUOUS
370
    -2
100
AcDbLine
 10
1657.97572158
 20
-910.17628774
 30
0.0
 11
1657.07124751
 21
-910.77926806
 31
0.0
  0
LINE
  5
396
100
AcDbEntity
  8
Sc.1_5
 62
     9
  6
CONTINUOUS
370
    -2
100
AcDbLine
 10
1634.26726011
 20
-962.11255765
 30
0.0
 11
1633.36278821
 21
-961.50957409
 31
0.0
  0
LINE
  5
397
100
AcDbEntity
  8
Sc.1_5
 62
     9
  6
CONTINUOUS
370
    -2
100
AcDbLine
 10
1634.26727549
 20
-952.779224
 30
0.0
 11
1633.36280358
 21
-952.17624044
 31
0.0
  0
LINE
  5
398
100
AcDbEntity
  8
Sc.1_5
 62
     9
  6
CONTINUOUS
370
    -2
100
AcDbLine
 10
1634.26729086
 20
-943.44589036
 30
0.0
 11
1633.36281895
 21
-942.84290679
 31
0.0
  0
LINE
  5
399
100
AcDbEntity
  8
Sc.1_5
 62
     9
  6
CONTINUOUS
370
    -2
100
AcDbLine
 10
1634.26730623
 20
-934.11255671
 30
0.0
 11
1633.36283432
 21
-933.50957315
 31
0.0
  0
LINE
  5
39A
100
AcDbEntity
  8
Sc.1_5
 62
     9
  6
CONTINUOUS
370
    -2
100
AcDbLine
 10
1634.2673216
 20
-924.77922307
 30
0.0
 11
1633.36284969
 21
-924.1762395
 31
0.0
  0
LINE
  5
39B
100
AcDbEntity
  8
Sc.1_5
 62
     9
  6
CONTINUOUS
370
    -2
100
AcDbLine
 10
1634.26733697
 20
-915.44588942
 30
0.0
 11
1633.36286506
 21
-914.84290586
 31
0.0
  0
LINE
  5
39C
100
AcDbEntity
  8
Sc.1_5
 62
     9
  6
CONTINUOUS
370
    -2
100
AcDbLine
 10
1634.26735234
 20
-906.11255578
 30
0.0
 11
1633.36288044
 21
-905.50957221
 31
0.0
  0
LINE
  5
39D
100
AcDbEntity
  8
Sc.1_5
 62
     9
  6
CONTINUOUS
370
    -2
100
AcDbLine
 10
1633.36288674
 20
-907.58974952
 30
0.0
 11
1634.26736077
 21
-906.98676914
 31
0.0
  0
LINE
  5
39E
100
AcDbEntity
  8
Sc.1_5
 62
     9
  6
CONTINUOUS
370
    -2
100
AcDbLine
 10
1633.36286925
 20
-916.92308316
 30
0.0
 11
1634.26734328
 21
-916.32010278
 31
0.0
  0
LINE
  5
39F
100
AcDbEntity
  8
Sc.1_5
 62
     9
  6
CONTINUOUS
370
    -2
100
AcDbLine
 10
1633.36285177
 20
-926.25641681
 30
0.0
 11
1634.2673258
 21
-925.65343643
 31
0.0
  0
LINE
  5
3A0
100
AcDbEntity
  8
Sc.1_5
 62
     9
  6
CONTINUOUS
370
    -2
100
AcDbLine
 10
1633.36283429
 20
-935.58975045
 30
0.0
 11
1634.26730831
 21
-934.98677007
 31
0.0
  0
LINE
  5
3A1
100
AcDbEntity
  8
Sc.1_5
 62
     9
  6
CONTINUOUS
370
    -2
100
AcDbLine
 10
1633.3628168
 20
-944.9230841
 30
0.0
 11
1634.26729083
 21
-944.32010372
 31
0.0
  0
LINE
  5
3A2
100
AcDbEntity
  8
Sc.1_5
 62
     9
  6
CONTINUOUS
370
    -2
100
AcDbLine
 10
1633.36279932
 20
-954.25641775
 30
0.0
 11
1634.26727335
 21
-953.65343736
 31
0.0
  0
LINE
  5
3A3
100
AcDbEntity
  8
Sc.1_5
 62
     9
  6
CONTINUOUS
370
    -2
100
AcDbLine
 10
1657.07115742
 20
-958.32014315
 30
0.0
 11
1655.75984263
 21
-957.88303559
 31
0.0
  0
LINE
  5
3A4
100
AcDbEntity
  8
Sc.1_5
 62
     9
  6
CONTINUOUS
370
    -2
100
AcDbLine
 10
1657.07117338
 20
-948.98680885
 30
0.0
 11
1655.75985859
 21
-948.54970128
 31
0.0
  0
LINE
  5
3A5
100
AcDbEntity
  8
Sc.1_5
 62
     9
  6
CONTINUOUS
370
    -2
100
AcDbLine
 10
1657.07118934
 20
-939.65347454
 30
0.0
 11
1655.75987455
 21
-939.21636697
 31
0.0
  0
LINE
  5
3A6
100
AcDbEntity
  8
Sc.1_5
 62
     9
  6
CONTINUOUS
370
    -2
100
AcDbLine
 10
1657.0712053
 20
-930.32014023
 30
0.0
 11
1655.75989051
 21
-929.88303266
 31
0.0
  0
LINE
  5
3A7
100
AcDbEntity
  8
Sc.1_5
 62
     9
  6
CONTINUOUS
370
    -2
100
AcDbLine
 10
1657.07122126
 20
-920.98680592
 30
0.0
 11
1655.75990647
 21
-920.54969836
 31
0.0
  0
LINE
  5
3A8
100
AcDbEntity
  8
Sc.1_5
 62
     9
  6
CONTINUOUS
370
    -2
100
AcDbLine
 10
1657.07123722
 20
-911.65347162
 30
0.0
 11
1655.75992243
 21
-911.21636405
 31
0.0
  0
LINE
  5
3A9
100
AcDbEntity
  8
Sc.1_5
 62
     9
  6
CONTINUOUS
370
    -2
100
AcDbLine
 10
1657.07115943
 20
-957.44593209
 30
0.0
 11
1655.7598431
 21
-957.88303504
 31
0.0
  0
LINE
  5
3AA
100
AcDbEntity
  8
Sc.1_5
 62
     9
  6
CONTINUOUS
370
    -2
100
AcDbLine
 10
1657.07117632
 20
-948.11259778
 30
0.0
 11
1655.75986
 21
-948.54970073
 31
0.0
  0
LINE
  5
3AB
100
AcDbEntity
  8
Sc.1_5
 62
     9
  6
CONTINUOUS
370
    -2
100
AcDbLine
 10
1657.07119322
 20
-938.77926347
 30
0.0
 11
1655.75987689
 21
-939.21636642
 31
0.0
  0
LINE
  5
3AC
100
AcDbEntity
  8
Sc.1_5
 62
     9
  6
CONTINUOUS
370
    -2
100
AcDbLine
 10
1657.07121011
 20
-929.44592916
 30
0.0
 11
1655.75989379
 21
-929.88303211
 31
0.0
  0
LINE
  5
3AD
100
AcDbEntity
  8
Sc.1_5
 62
     9
  6
CONTINUOUS
370
    -2
100
AcDbLine
 10
1657.07122701
 20
-920.11259486
 30
0.0
 11
1655.75991068
 21
-920.54969781
 31
0.0
  0
LINE
  5
3AE
100
AcDbEntity
  8
Sc.1_5
 62
     9
  6
CONTINUOUS
370
    -2
100
AcDbLine
 10
1657.0712439
 20
-910.77926055
 30
0.0
 11
1655.75992758
 21
-911.2163635
 31
0.0
  0
LINE
  5
3AF
100
AcDbEntity
  8
Sc.1_5
 62
     9
  6
CONTINUOUS
370
    -2
100
AcDbLine
 10
1635.5785538
 20
-962.54965989
 30
0.0
 11
1634.26726237
 21
-962.11256011
 31
0.0
  0
LINE
  5
3B0
100
AcDbEntity
  8
Sc.1_5
 62
     9
  6
CONTINUOUS
370
    -2
100
AcDbLine
 10
1635.57859311
 20
-953.21633337
 30
0.0
 11
1634.26727833
 21
-952.7792258
 31
0.0
  0
LINE
  5
3B1
100
AcDbEntity
  8
Sc.1_5
 62
     9
  6
CONTINUOUS
370
    -2
100
AcDbLine
 10
1635.57860907
 20
-943.88299906
 30
0.0
 11
1634.26729429
 21
-943.4458915
 31
0.0
  0
LINE
  5
3B2
100
AcDbEntity
  8
Sc.1_5
 62
     9
  6
CONTINUOUS
370
    -2
100
AcDbLine
 10
1635.57862503
 20
-934.54966476
 30
0.0
 11
1634.26731025
 21
-934.11255719
 31
0.0
  0
LINE
  5
3B3
100
AcDbEntity
  8
Sc.1_5
 62
     9
  6
CONTINUOUS
370
    -2
100
AcDbLine
 10
1635.57864099
 20
-925.21633045
 30
0.0
 11
1634.26732621
 21
-924.77922288
 31
0.0
  0
LINE
  5
3B4
100
AcDbEntity
  8
Sc.1_5
 62
     9
  6
CONTINUOUS
370
    -2
100
AcDbLine
 10
1635.57865695
 20
-915.88299614
 30
0.0
 11
1634.26734217
 21
-915.44588857
 31
0.0
  0
LINE
  5
3B5
100
AcDbEntity
  8
Sc.1_5
 62
     9
  6
CONTINUOUS
370
    -2
100
AcDbLine
 10
1635.57867291
 20
-906.54966183
 30
0.0
 11
1634.26735812
 21
-906.11255426
 31
0.0
  0
LINE
  5
3B6
100
AcDbEntity
  8
Sc.1_5
 62
     9
  6
CONTINUOUS
370
    -2
100
AcDbLine
 10
1634.26736292
 20
-906.98676554
 30
0.0
 11
1635.57867924
 21
-906.54966259
 31
0.0
  0
LINE
  5
3B7
100
AcDbEntity
  8
Sc.1_5
 62
     9
  6
CONTINUOUS
370
    -2
100
AcDbLine
 10
1634.26734602
 20
-916.32009985
 30
0.0
 11
1635.57866235
 21
-915.88299689
 31
0.0
  0
LINE
  5
3B8
100
AcDbEntity
  8
Sc.1_5
 62
     9
  6
CONTINUOUS
370
    -2
100
AcDbLine
 10
1634.26732913
 20
-925.65343415
 30
0.0
 11
1635.57864545
 21
-925.2163312
 31
0.0
  0
LINE
  5
3B9
100
AcDbEntity
  8
Sc.1_5
 62
     9
  6
CONTINUOUS
370
    -2
100
AcDbLine
 10
1634.26731223
 20
-934.98676846
 30
0.0
 11
1635.57862855
 21
-934.54966551
 31
0.0
  0
LINE
  5
3BA
100
AcDbEntity
  8
Sc.1_5
 62
     9
  6
CONTINUOUS
370
    -2
100
AcDbLine
 10
1634.26729534
 20
-944.32010277
 30
0.0
 11
1635.57861166
 21
-943.88299982
 31
0.0
  0
LINE
  5
3BB
100
AcDbEntity
  8
Sc.1_5
 62
     9
  6
CONTINUOUS
370
    -2
100
AcDbLine
 10
1634.26727844
 20
-953.65343708
 30
0.0
 11
1635.57859476
 21
-953.21633413
 31
0.0
  0
LINE
  5
3BC
100
AcDbEntity
  8
Sc.1_5
 62
     9
  6
CONTINUOUS
370
    -2
100
AcDbLine
 10
1655.00253295
 20
-957.88303487
 30
0.0
 11
1654.00148033
 21
-957.77180497
 31
0.0
  0
LINE
  5
3BD
100
AcDbEntity
  8
Sc.1_5
 62
     9
  6
CONTINUOUS
370
    -2
100
AcDbLine
 10
1655.00253798
 20
-948.54970222
 30
0.0
 11
1654.00148535
 21
-948.43847232
 31
0.0
  0
LINE
  5
3BE
100
AcDbEntity
  8
Sc.1_5
 62
     9
  6
CONTINUOUS
370
    -2
100
AcDbLine
 10
1655.002543
 20
-939.21636957
 30
0.0
 11
1654.00149038
 21
-939.10513967
 31
0.0
  0
LINE
  5
3BF
100
AcDbEntity
  8
Sc.1_5
 62
     9
  6
CONTINUOUS
370
    -2
100
AcDbLine
 10
1655.00254802
 20
-929.88303692
 30
0.0
 11
1654.0014954
 21
-929.77180702
 31
0.0
  0
LINE
  5
3C0
100
AcDbEntity
  8
Sc.1_5
 62
     9
  6
CONTINUOUS
370
    -2
100
AcDbLine
 10
1655.00255304
 20
-920.54970427
 30
0.0
 11
1654.00150042
 21
-920.43847437
 31
0.0
  0
LINE
  5
3C1
100
AcDbEntity
  8
Sc.1_5
 62
     9
  6
CONTINUOUS
370
    -2
100
AcDbLine
 10
1655.00255806
 20
-911.21637162
 30
0.0
 11
1654.00150544
 21
-911.10514171
 31
0.0
  0
LINE
  5
3C2
100
AcDbEntity
  8
Sc.1_5
 62
     9
  6
CONTINUOUS
370
    -2
100
AcDbLine
 10
1655.00254436
 20
-957.88303474
 30
0.0
 11
1654.00149135
 21
-957.99426112
 31
0.0
  0
LINE
  5
3C3
100
AcDbEntity
  8
Sc.1_5
 62
     9
  6
CONTINUOUS
370
    -2
100
AcDbLine
 10
1655.00257219
 20
-948.54970209
 30
0.0
 11
1654.00151918
 21
-948.66092847
 31
0.0
  0
LINE
  5
3C4
100
AcDbEntity
  8
Sc.1_5
 62
     9
  6
CONTINUOUS
370
    -2
100
AcDbLine
 10
1655.00260003
 20
-939.21636944
 30
0.0
 11
1654.00154701
 21
-939.32759582
 31
0.0
  0
LINE
  5
3C5
100
AcDbEntity
  8
Sc.1_5
 62
     9
  6
CONTINUOUS
370
    -2
100
AcDbLine
 10
1655.00262786
 20
-929.88303679
 30
0.0
 11
1654.00157485
 21
-929.99426317
 31
0.0
  0
LINE
  5
3C6
100
AcDbEntity
  8
Sc.1_5
 62
     9
  6
CONTINUOUS
370
    -2
100
AcDbLine
 10
1655.00265569
 20
-920.54970414
 30
0.0
 11
1654.00160268
 21
-920.66093052
 31
0.0
  0
LINE
  5
3C7
100
AcDbEntity
  8
Sc.1_5
 62
     9
  6
CONTINUOUS
370
    -2
100
AcDbLine
 10
1655.00268353
 20
-911.21637149
 30
0.0
 11
1654.00163051
 21
-911.32759787
 31
0.0
  0
LINE
  5
3C8
100
AcDbEntity
  8
Sc.1_5
 62
     9
  6
CONTINUOUS
370
    -2
100
AcDbLine
 10
1636.33588412
 20
-906.5496665
 30
0.0
 11
1637.33693677
 21
-906.66089614
 31
0.0
  0
LINE
  5
3C9
100
AcDbEntity
  8
Sc.1_5
 62
     9
  6
CONTINUOUS
370
    -2
100
AcDbLine
 10
1636.33588159
 20
-915.88299915
 30
0.0
 11
1637.33693424
 21
-915.99422879
 31
0.0
  0
LINE
  5
3CA
100
AcDbEntity
  8
Sc.1_5
 62
     9
  6
CONTINUOUS
370
    -2
100
AcDbLine
 10
1636.33587905
 20
-925.2163318
 30
0.0
 11
1637.3369317
 21
-925.32756144
 31
0.0
  0
LINE
  5
3CB
100
AcDbEntity
  8
Sc.1_5
 62
     9
  6
CONTINUOUS
370
    -2
100
AcDbLine
 10
1636.33587652
 20
-934.54966445
 30
0.0
 11
1637.33692917
 21
-934.66089409
 31
0.0
  0
LINE
  5
3CC
100
AcDbEntity
  8
Sc.1_5
 62
     9
  6
CONTINUOUS
370
    -2
100
AcDbLine
 10
1636.33587398
 20
-943.8829971
 30
0.0
 11
1637.33692663
 21
-943.99422674
 31
0.0
  0
LINE
  5
3CD
100
AcDbEntity
  8
Sc.1_5
 62
     9
  6
CONTINUOUS
370
    -2
100
AcDbLine
 10
1636.33587144
 20
-953.21632975
 30
0.0
 11
1637.33692409
 21
-953.32755939
 31
0.0
  0
LINE
  5
3CE
100
AcDbEntity
  8
Sc.1_5
 62
     9
  6
CONTINUOUS
370
    -2
100
AcDbLine
 10
1636.33603591
 20
-906.54967079
 30
0.0
 11
1637.33708892
 21
-906.43844441
 31
0.0
  0
LINE
  5
3CF
100
AcDbEntity
  8
Sc.1_5
 62
     9
  6
CONTINUOUS
370
    -2
100
AcDbLine
 10
1636.33600807
 20
-915.88300344
 30
0.0
 11
1637.33706109
 21
-915.77177706
 31
0.0
  0
LINE
  5
3D0
100
AcDbEntity
  8
Sc.1_5
 62
     9
  6
CONTINUOUS
370
    -2
100
AcDbLine
 10
1636.33598024
 20
-925.21633609
 30
0.0
 11
1637.33703325
 21
-925.10510971
 31
0.0
  0
LINE
  5
3D1
100
AcDbEntity
  8
Sc.1_5
 62
     9
  6
CONTINUOUS
370
    -2
100
AcDbLine
 10
1636.33595241
 20
-934.54966874
 30
0.0
 11
1637.33700542
 21
-934.43844236
 31
0.0
  0
LINE
  5
3D2
100
AcDbEntity
  8
Sc.1_5
 62
     9
  6
CONTINUOUS
370
    -2
100
AcDbLine
 10
1636.33592457
 20
-943.88300139
 30
0.0
 11
1637.33697759
 21
-943.77177501
 31
0.0
  0
LINE
  5
3D3
100
AcDbEntity
  8
Sc.1_5
 62
     9
  6
CONTINUOUS
370
    -2
100
AcDbLine
 10
1636.33589674
 20
-953.21633405
 30
0.0
 11
1637.33694975
 21
-953.10510766
 31
0.0
  0
LINE
  5
3D4
100
AcDbEntity
  8
Sc.1_5
 62
     9
  6
CONTINUOUS
370
    -2
100
AcDbLine
 10
1636.33593042
 20
-962.54965986
 30
0.0
 11
1637.33692192
 21
-962.43844031
 31
0.0
  0
ENDBLK
  5
3D5
100
AcDbEntity
100
AcDbBlockEnd
  0
BLOCK
  5
3D6
100
AcDbEntity
  8
Sc.1_5
100
AcDbBlockBegin
  2
*X2014
 70
     1
 10
0.0
 20
0.0
 30
0.0
  3
*X2014
  1

  4
Cadwork hatch
  0
LINE
  5
3D7
100
AcDbEntity
  8
Sc.1_5
 62
     9
  6
CONTINUOUS
370
    -2
100
AcDbLine
 10
1659.66920553
 20
-971.54965898
 30
0.0
 11
1659.66920553
 21
-972.17461056
 31
0.0
  0
LINE
  5
3D8
100
AcDbEntity
  8
Sc.1_5
 62
     9
  6
CONTINUOUS
370
    -2
100
AcDbLine
 10
1659.66920553
 20
-975.59137495
 30
0.0
 11
1659.66920553
 21
-976.84127812
 31
0.0
  0
LINE
  5
3D9
100
AcDbEntity
  8
Sc.1_5
 62
     9
  6
CONTINUOUS
370
    -2
100
AcDbLine
 10
1659.66920553
 20
-980.25804251
 30
0.0
 11
1659.66920553
 21
-981.50794568
 31
0.0
  0
LINE
  5
3DA
100
AcDbEntity
  8
Sc.1_5
 62
     9
  6
CONTINUOUS
370
    -2
100
AcDbLine
 10
1659.66920553
 20
-984.92471007
 30
0.0
 11
1659.66920553
 21
-986.17461324
 31
0.0
  0
LINE
  5
3DB
100
AcDbEntity
  8
Sc.1_5
 62
     9
  6
CONTINUOUS
370
    -2
100
AcDbLine
 10
1659.66920553
 20
-989.59137763
 30
0.0
 11
1659.66920553
 21
-990.8412808
 31
0.0
  0
LINE
  5
3DC
100
AcDbEntity
  8
Sc.1_5
 62
     9
  6
CONTINUOUS
370
    -2
100
AcDbLine
 10
1659.66920553
 20
-994.25804519
 30
0.0
 11
1659.66920553
 21
-995.50794836
 31
0.0
  0
LINE
  5
3DD
100
AcDbEntity
  8
Sc.1_5
 62
     9
  6
CONTINUOUS
370
    -2
100
AcDbLine
 10
1659.66920553
 20
-998.92471276
 30
0.0
 11
1659.66920553
 21
-1000.17461592
 31
0.0
  0
LINE
  5
3DE
100
AcDbEntity
  8
Sc.1_5
 62
     9
  6
CONTINUOUS
370
    -2
100
AcDbLine
 10
1659.66920553
 20
-1003.59138032
 30
0.0
 11
1659.66920553
 21
-1004.84128348
 31
0.0
  0
LINE
  5
3DF
100
AcDbEntity
  8
Sc.1_5
 62
     9
  6
CONTINUOUS
370
    -2
100
AcDbLine
 10
1659.66920553
 20
-1008.25804788
 30
0.0
 11
1659.66920553
 21
-1009.50795105
 31
0.0
  0
LINE
  5
3E0
100
AcDbEntity
  8
Sc.1_5
 62
     9
  6
CONTINUOUS
370
    -2
100
AcDbLine
 10
1635.57857813
 20
-976.21632645
 30
0.0
 11
1636.33587448
 21
-976.21632645
 31
0.0
  0
LINE
  5
3E1
100
AcDbEntity
  8
Sc.1_5
 62
     9
  6
CONTINUOUS
370
    -2
100
AcDbLine
 10
1635.57857813
 20
-985.54965874
 30
0.0
 11
1636.33587448
 21
-985.54965874
 31
0.0
  0
LINE
  5
3E2
100
AcDbEntity
  8
Sc.1_5
 62
     9
  6
CONTINUOUS
370
    -2
100
AcDbLine
 10
1635.57857813
 20
-994.88299102
 30
0.0
 11
1636.33587448
 21
-994.88299102
 31
0.0
  0
LINE
  5
3E3
100
AcDbEntity
  8
Sc.1_5
 62
     9
  6
CONTINUOUS
370
    -2
100
AcDbLine
 10
1635.57857813
 20
-1004.21632331
 30
0.0
 11
1636.33587448
 21
-1004.21632331
 31
0.0
  0
LINE
  5
3E4
100
AcDbEntity
  8
Sc.1_5
 62
     9
  6
CONTINUOUS
370
    -2
100
AcDbLine
 10
1655.00253905
 20
-971.54965998
 30
0.0
 11
1655.75983541
 21
-971.54965998
 31
0.0
  0
LINE
  5
3E5
100
AcDbEntity
  8
Sc.1_5
 62
     9
  6
CONTINUOUS
370
    -2
100
AcDbLine
 10
1655.00253905
 20
-980.88299226
 30
0.0
 11
1655.75983541
 21
-980.88299226
 31
0.0
  0
LINE
  5
3E6
100
AcDbEntity
  8
Sc.1_5
 62
     9
  6
CONTINUOUS
370
    -2
100
AcDbLine
 10
1655.00253905
 20
-990.21632454
 30
0.0
 11
1655.75983541
 21
-990.21632454
 31
0.0
  0
LINE
  5
3E7
100
AcDbEntity
  8
Sc.1_5
 62
     9
  6
CONTINUOUS
370
    -2
100
AcDbLine
 10
1655.00253905
 20
-999.54965683
 30
0.0
 11
1655.75983541
 21
-999.54965683
 31
0.0
  0
LINE
  5
3E8
100
AcDbEntity
  8
Sc.1_5
 62
     9
  6
CONTINUOUS
370
    -2
100
AcDbLine
 10
1655.00253905
 20
-1008.88298911
 30
0.0
 11
1655.75983541
 21
-1008.88298911
 31
0.0
  0
LINE
  5
3E9
100
AcDbEntity
  8
Sc.1_5
 62
     9
  6
CONTINUOUS
370
    -2
100
AcDbLine
 10
1637.33707501
 20
-976.10561045
 30
0.0
 11
1654.00163674
 21
-971.66140101
 31
0.0
  0
LINE
  5
3EA
100
AcDbEntity
  8
Sc.1_5
 62
     9
  6
CONTINUOUS
370
    -2
100
AcDbLine
 10
1637.33705901
 20
-985.43894083
 30
0.0
 11
1654.00162073
 21
-980.9947314
 31
0.0
  0
LINE
  5
3EB
100
AcDbEntity
  8
Sc.1_5
 62
     9
  6
CONTINUOUS
370
    -2
100
AcDbLine
 10
1637.337043
 20
-994.77227122
 30
0.0
 11
1654.00160472
 21
-990.32806178
 31
0.0
  0
LINE
  5
3EC
100
AcDbEntity
  8
Sc.1_5
 62
     9
  6
CONTINUOUS
370
    -2
100
AcDbLine
 10
1637.33702699
 20
-1004.1056016
 30
0.0
 11
1654.00158872
 21
-999.66139217
 31
0.0
  0
LINE
  5
3ED
100
AcDbEntity
  8
Sc.1_5
 62
     9
  6
CONTINUOUS
370
    -2
100
AcDbLine
 10
1651.07773667
 20
-1009.77446941
 30
0.0
 11
1654.00157271
 21
-1008.99472255
 31
0.0
  0
LINE
  5
3EE
100
AcDbEntity
  8
Sc.1_5
 62
     9
  6
CONTINUOUS
370
    -2
100
AcDbLine
 10
1637.33707501
 20
-976.32703979
 30
0.0
 11
1654.00163674
 21
-980.77124922
 31
0.0
  0
LINE
  5
3EF
100
AcDbEntity
  8
Sc.1_5
 62
     9
  6
CONTINUOUS
370
    -2
100
AcDbLine
 10
1637.33709102
 20
-985.66037017
 30
0.0
 11
1654.00165274
 21
-990.10457961
 31
0.0
  0
LINE
  5
3F0
100
AcDbEntity
  8
Sc.1_5
 62
     9
  6
CONTINUOUS
370
    -2
100
AcDbLine
 10
1637.33710703
 20
-994.99370056
 30
0.0
 11
1654.00166875
 21
-999.43790999
 31
0.0
  0
LINE
  5
3F1
100
AcDbEntity
  8
Sc.1_5
 62
     9
  6
CONTINUOUS
370
    -2
100
AcDbLine
 10
1637.33712303
 20
-1004.32703094
 30
0.0
 11
1654.00168476
 21
-1008.77124038
 31
0.0
  0
LINE
  5
3F2
100
AcDbEntity
  8
Sc.1_5
 62
     9
  6
CONTINUOUS
370
    -2
100
AcDbLine
 10
1631.66920775
 20
-972.17461474
 30
0.0
 11
1632.00297122
 21
-973.39841406
 31
0.0
  0
LINE
  5
3F3
100
AcDbEntity
  8
Sc.1_5
 62
     9
  6
CONTINUOUS
370
    -2
100
AcDbLine
 10
1631.66923219
 20
-981.50803728
 30
0.0
 11
1632.00297097
 21
-982.73174605
 31
0.0
  0
LINE
  5
3F4
100
AcDbEntity
  8
Sc.1_5
 62
     9
  6
CONTINUOUS
370
    -2
100
AcDbLine
 10
1631.66925664
 20
-990.84145981
 30
0.0
 11
1632.00297072
 21
-992.06507804
 31
0.0
  0
LINE
  5
3F5
100
AcDbEntity
  8
Sc.1_5
 62
     9
  6
CONTINUOUS
370
    -2
100
AcDbLine
 10
1631.66928108
 20
-1000.17488235
 30
0.0
 11
1632.00297046
 21
-1001.39841004
 31
0.0
  0
LINE
  5
3F6
100
AcDbEntity
  8
Sc.1_5
 62
     9
  6
CONTINUOUS
370
    -2
100
AcDbLine
 10
1631.66930552
 20
-1009.50830488
 30
0.0
 11
1631.74189585
 21
-1009.77446941
 31
0.0
  0
LINE
  5
3F7
100
AcDbEntity
  8
Sc.1_5
 62
     9
  6
CONTINUOUS
370
    -2
100
AcDbLine
 10
1631.66922892
 20
-980.25796678
 30
0.0
 11
1632.00297255
 21
-979.03423956
 31
0.0
  0
LINE
  5
3F8
100
AcDbEntity
  8
Sc.1_5
 62
     9
  6
CONTINUOUS
370
    -2
100
AcDbLine
 10
1631.66925336
 20
-989.59121462
 30
0.0
 11
1632.00297404
 21
-988.36757155
 31
0.0
  0
LINE
  5
3F9
100
AcDbEntity
  8
Sc.1_5
 62
     9
  6
CONTINUOUS
370
    -2
100
AcDbLine
 10
1631.66927781
 20
-998.92446246
 30
0.0
 11
1632.00297553
 21
-997.70090355
 31
0.0
  0
LINE
  5
3FA
100
AcDbEntity
  8
Sc.1_5
 62
     9
  6
CONTINUOUS
370
    -2
100
AcDbLine
 10
1631.66930225
 20
-1008.2577103
 30
0.0
 11
1632.00297702
 21
-1007.03423554
 31
0.0
  0
LINE
  5
3FB
100
AcDbEntity
  8
Sc.1_5
 62
     9
  6
CONTINUOUS
370
    -2
100
AcDbLine
 10
1659.3354351
 20
-974.36754291
 30
0.0
 11
1659.66920343
 21
-975.59136004
 31
0.0
  0
LINE
  5
3FC
100
AcDbEntity
  8
Sc.1_5
 62
     9
  6
CONTINUOUS
370
    -2
100
AcDbLine
 10
1659.33543485
 20
-983.7008749
 30
0.0
 11
1659.66920318
 21
-984.92469203
 31
0.0
  0
LINE
  5
3FD
100
AcDbEntity
  8
Sc.1_5
 62
     9
  6
CONTINUOUS
370
    -2
100
AcDbLine
 10
1659.3354346
 20
-993.03420689
 30
0.0
 11
1659.66920293
 21
-994.25802402
 31
0.0
  0
LINE
  5
3FE
100
AcDbEntity
  8
Sc.1_5
 62
     9
  6
CONTINUOUS
370
    -2
100
AcDbLine
 10
1659.33543435
 20
-1002.36753888
 30
0.0
 11
1659.66920268
 21
-1003.59135601
 31
0.0
  0
LINE
  5
3FF
100
AcDbEntity
  8
Sc.1_5
 62
     9
  6
CONTINUOUS
370
    -2
100
AcDbLine
 10
1659.66920317
 20
-1004.84128492
 30
0.0
 11
1659.33543485
 21
-1006.06510205
 31
0.0
  0
LINE
  5
400
100
AcDbEntity
  8
Sc.1_5
 62
     9
  6
CONTINUOUS
370
    -2
100
AcDbLine
 10
1659.66920292
 20
-995.50795293
 30
0.0
 11
1659.3354346
 21
-996.73177006
 31
0.0
  0
LINE
  5
401
100
AcDbEntity
  8
Sc.1_5
 62
     9
  6
CONTINUOUS
370
    -2
100
AcDbLine
 10
1659.66920267
 20
-986.17462094
 30
0.0
 11
1659.33543435
 21
-987.39843807
 31
0.0
  0
LINE
  5
402
100
AcDbEntity
  8
Sc.1_5
 62
     9
  6
CONTINUOUS
370
    -2
100
AcDbLine
 10
1659.66920242
 20
-976.84128895
 30
0.0
 11
1659.3354341
 21
-978.06510608
 31
0.0
  0
LINE
  5
403
100
AcDbEntity
  8
Sc.1_5
 62
     9
  6
CONTINUOUS
370
    -2
100
AcDbLine
 10
1632.00297704
 20
-973.39843211
 30
0.0
 11
1632.62997427
 21
-974.44342748
 31
0.0
  0
LINE
  5
404
100
AcDbEntity
  8
Sc.1_5
 62
     9
  6
CONTINUOUS
370
    -2
100
AcDbLine
 10
1632.00297711
 20
-982.731766
 30
0.0
 11
1632.62997433
 21
-983.77676138
 31
0.0
  0
LINE
  5
405
100
AcDbEntity
  8
Sc.1_5
 62
     9
  6
CONTINUOUS
370
    -2
100
AcDbLine
 10
1632.00297717
 20
-992.0650999
 30
0.0
 11
1632.62997439
 21
-993.11009527
 31
0.0
  0
LINE
  5
406
100
AcDbEntity
  8
Sc.1_5
 62
     9
  6
CONTINUOUS
370
    -2
100
AcDbLine
 10
1632.00297723
 20
-1001.3984338
 30
0.0
 11
1632.62997446
 21
-1002.44342917
 31
0.0
  0
LINE
  5
407
100
AcDbEntity
  8
Sc.1_5
 62
     9
  6
CONTINUOUS
370
    -2
100
AcDbLine
 10
1632.00297636
 20
-979.02731318
 30
0.0
 11
1632.62997366
 21
-977.98231785
 31
0.0
  0
LINE
  5
408
100
AcDbEntity
  8
Sc.1_5
 62
     9
  6
CONTINUOUS
370
    -2
100
AcDbLine
 10
1632.00297568
 20
-988.36064708
 30
0.0
 11
1632.62997297
 21
-987.31565174
 31
0.0
  0
LINE
  5
409
100
AcDbEntity
  8
Sc.1_5
 62
     9
  6
CONTINUOUS
370
    -2
100
AcDbLine
 10
1632.00297499
 20
-997.69398097
 30
0.0
 11
1632.62997229
 21
-996.64898564
 31
0.0
  0
LINE
  5
40A
100
AcDbEntity
  8
Sc.1_5
 62
     9
  6
CONTINUOUS
370
    -2
100
AcDbLine
 10
1632.00297431
 20
-1007.02731487
 30
0.0
 11
1632.62997161
 21
-1005.98231954
 31
0.0
  0
LINE
  5
40B
100
AcDbEntity
  8
Sc.1_5
 62
     9
  6
CONTINUOUS
370
    -2
100
AcDbLine
 10
1658.7084412
 20
-973.32256889
 30
0.0
 11
1659.33543843
 21
-974.36756426
 31
0.0
  0
LINE
  5
40C
100
AcDbEntity
  8
Sc.1_5
 62
     9
  6
CONTINUOUS
370
    -2
100
AcDbLine
 10
1658.70844126
 20
-982.65590279
 30
0.0
 11
1659.33543849
 21
-983.70089816
 31
0.0
  0
LINE
  5
40D
100
AcDbEntity
  8
Sc.1_5
 62
     9
  6
CONTINUOUS
370
    -2
100
AcDbLine
 10
1658.70844133
 20
-991.98923668
 30
0.0
 11
1659.33543855
 21
-993.03423206
 31
0.0
  0
LINE
  5
40E
100
AcDbEntity
  8
Sc.1_5
 62
     9
  6
CONTINUOUS
370
    -2
100
AcDbLine
 10
1658.70844139
 20
-1001.32257058
 30
0.0
 11
1659.33543861
 21
-1002.36756595
 31
0.0
  0
LINE
  5
40F
100
AcDbEntity
  8
Sc.1_5
 62
     9
  6
CONTINUOUS
370
    -2
100
AcDbLine
 10
1659.33544067
 20
-1006.06508951
 30
0.0
 11
1658.70844344
 21
-1007.11008489
 31
0.0
  0
LINE
  5
410
100
AcDbEntity
  8
Sc.1_5
 62
     9
  6
CONTINUOUS
370
    -2
100
AcDbLine
 10
1659.33544073
 20
-996.73175561
 30
0.0
 11
1658.70844351
 21
-997.77675099
 31
0.0
  0
LINE
  5
411
100
AcDbEntity
  8
Sc.1_5
 62
     9
  6
CONTINUOUS
370
    -2
100
AcDbLine
 10
1659.33544079
 20
-987.39842172
 30
0.0
 11
1658.70844357
 21
-988.44341709
 31
0.0
  0
LINE
  5
412
100
AcDbEntity
  8
Sc.1_5
 62
     9
  6
CONTINUOUS
370
    -2
100
AcDbLine
 10
1659.33544086
 20
-978.06508782
 30
0.0
 11
1658.70844363
 21
-979.11008319
 31
0.0
  0
LINE
  5
413
100
AcDbEntity
  8
Sc.1_5
 62
     9
  6
CONTINUOUS
370
    -2
100
AcDbLine
 10
1632.62997311
 20
-974.44342376
 30
0.0
 11
1633.3627911
 21
-975.17624176
 31
0.0
  0
LINE
  5
414
100
AcDbEntity
  8
Sc.1_5
 62
     9
  6
CONTINUOUS
370
    -2
100
AcDbLine
 10
1632.62997311
 20
-983.77675851
 30
0.0
 11
1633.3627911
 21
-984.50957651
 31
0.0
  0
LINE
  5
415
100
AcDbEntity
  8
Sc.1_5
 62
     9
  6
CONTINUOUS
370
    -2
100
AcDbLine
 10
1632.62997311
 20
-993.11009325
 30
0.0
 11
1633.3627911
 21
-993.84291125
 31
0.0
  0
LINE
  5
416
100
AcDbEntity
  8
Sc.1_5
 62
     9
  6
CONTINUOUS
370
    -2
100
AcDbLine
 10
1632.62997311
 20
-1002.443428
 30
0.0
 11
1633.3627911
 21
-1003.176246
 31
0.0
  0
LINE
  5
417
100
AcDbEntity
  8
Sc.1_5
 62
     9
  6
CONTINUOUS
370
    -2
100
AcDbLine
 10
1632.62997311
 20
-977.98922893
 30
0.0
 11
1633.3627911
 21
-977.25641093
 31
0.0
  0
LINE
  5
418
100
AcDbEntity
  8
Sc.1_5
 62
     9
  6
CONTINUOUS
370
    -2
100
AcDbLine
 10
1632.62997311
 20
-987.32256368
 30
0.0
 11
1633.3627911
 21
-986.58974568
 31
0.0
  0
LINE
  5
419
100
AcDbEntity
  8
Sc.1_5
 62
     9
  6
CONTINUOUS
370
    -2
100
AcDbLine
 10
1632.62997311
 20
-996.65589842
 30
0.0
 11
1633.3627911
 21
-995.92308043
 31
0.0
  0
LINE
  5
41A
100
AcDbEntity
  8
Sc.1_5
 62
     9
  6
CONTINUOUS
370
    -2
100
AcDbLine
 10
1632.62997311
 20
-1005.98923317
 30
0.0
 11
1633.3627911
 21
-1005.25641517
 31
0.0
  0
LINE
  5
41B
100
AcDbEntity
  8
Sc.1_5
 62
     9
  6
CONTINUOUS
370
    -2
100
AcDbLine
 10
1657.97562371
 20
-972.58975094
 30
0.0
 11
1658.7084417
 21
-973.32256894
 31
0.0
  0
LINE
  5
41C
100
AcDbEntity
  8
Sc.1_5
 62
     9
  6
CONTINUOUS
370
    -2
100
AcDbLine
 10
1657.97562371
 20
-981.92308569
 30
0.0
 11
1658.7084417
 21
-982.65590369
 31
0.0
  0
LINE
  5
41D
100
AcDbEntity
  8
Sc.1_5
 62
     9
  6
CONTINUOUS
370
    -2
100
AcDbLine
 10
1657.97562371
 20
-991.25642043
 30
0.0
 11
1658.7084417
 21
-991.98923843
 31
0.0
  0
LINE
  5
41E
100
AcDbEntity
  8
Sc.1_5
 62
     9
  6
CONTINUOUS
370
    -2
100
AcDbLine
 10
1657.97562371
 20
-1000.58975518
 30
0.0
 11
1658.7084417
 21
-1001.32257318
 31
0.0
  0
LINE
  5
41F
100
AcDbEntity
  8
Sc.1_5
 62
     9
  6
CONTINUOUS
370
    -2
100
AcDbLine
 10
1658.70843886
 20
-1007.11008779
 30
0.0
 11
1657.97562086
 21
-1007.84290578
 31
0.0
  0
LINE
  5
420
100
AcDbEntity
  8
Sc.1_5
 62
     9
  6
CONTINUOUS
370
    -2
100
AcDbLine
 10
1658.70843886
 20
-997.77675304
 30
0.0
 11
1657.97562086
 21
-998.50957104
 31
0.0
  0
LINE
  5
421
100
AcDbEntity
  8
Sc.1_5
 62
     9
  6
CONTINUOUS
370
    -2
100
AcDbLine
 10
1658.70843886
 20
-988.44341829
 30
0.0
 11
1657.97562086
 21
-989.17623629
 31
0.0
  0
LINE
  5
422
100
AcDbEntity
  8
Sc.1_5
 62
     9
  6
CONTINUOUS
370
    -2
100
AcDbLine
 10
1658.70843886
 20
-979.11008355
 30
0.0
 11
1657.97562086
 21
-979.84290155
 31
0.0
  0
LINE
  5
423
100
AcDbEntity
  8
Sc.1_5
 62
     9
  6
CONTINUOUS
370
    -2
100
AcDbLine
 10
1633.36279292
 20
-975.17624036
 30
0.0
 11
1634.26726589
 21
-975.77922233
 31
0.0
  0
LINE
  5
424
100
AcDbEntity
  8
Sc.1_5
 62
     9
  6
CONTINUOUS
370
    -2
100
AcDbLine
 10
1633.36279398
 20
-984.50957401
 30
0.0
 11
1634.26726695
 21
-985.11255598
 31
0.0
  0
LINE
  5
425
100
AcDbEntity
  8
Sc.1_5
 62
     9
  6
CONTINUOUS
370
    -2
100
AcDbLine
 10
1633.36279504
 20
-993.84290765
 30
0.0
 11
1634.267268
 21
-994.44588962
 31
0.0
  0
LINE
  5
426
100
AcDbEntity
  8
Sc.1_5
 62
     9
  6
CONTINUOUS
370
    -2
100
AcDbLine
 10
1633.36279609
 20
-1003.1762413
 30
0.0
 11
1634.26726906
 21
-1003.77922327
 31
0.0
  0
LINE
  5
427
100
AcDbEntity
  8
Sc.1_5
 62
     9
  6
CONTINUOUS
370
    -2
100
AcDbLine
 10
1633.36279124
 20
-977.25640937
 30
0.0
 11
1634.26726425
 21
-976.65342746
 31
0.0
  0
LINE
  5
428
100
AcDbEntity
  8
Sc.1_5
 62
     9
  6
CONTINUOUS
370
    -2
100
AcDbLine
 10
1633.36278957
 20
-986.58974302
 30
0.0
 11
1634.26726257
 21
-985.9867611
 31
0.0
  0
LINE
  5
429
100
AcDbEntity
  8
Sc.1_5
 62
     9
  6
CONTINUOUS
370
    -2
100
AcDbLine
 10
1633.36278789
 20
-995.92307666
 30
0.0
 11
1634.2672609
 21
-995.32009475
 31
0.0
  0
LINE
  5
42A
100
AcDbEntity
  8
Sc.1_5
 62
     9
  6
CONTINUOUS
370
    -2
100
AcDbLine
 10
1633.36278621
 20
-1005.25641031
 30
0.0
 11
1634.26725922
 21
-1004.65342839
 31
0.0
  0
LINE
  5
42B
100
AcDbEntity
  8
Sc.1_5
 62
     9
  6
CONTINUOUS
370
    -2
100
AcDbLine
 10
1657.0711529
 20
-971.98676596
 30
0.0
 11
1657.97562587
 21
-972.58974794
 31
0.0
  0
LINE
  5
42C
100
AcDbEntity
  8
Sc.1_5
 62
     9
  6
CONTINUOUS
370
    -2
100
AcDbLine
 10
1657.07115396
 20
-981.32009961
 30
0.0
 11
1657.97562693
 21
-981.92308158
 31
0.0
  0
LINE
  5
42D
100
AcDbEntity
  8
Sc.1_5
 62
     9
  6
CONTINUOUS
370
    -2
100
AcDbLine
 10
1657.07115502
 20
-990.65343325
 30
0.0
 11
1657.97562798
 21
-991.25641523
 31
0.0
  0
LINE
  5
42E
100
AcDbEntity
  8
Sc.1_5
 62
     9
  6
CONTINUOUS
370
    -2
100
AcDbLine
 10
1657.07115607
 20
-999.9867669
 30
0.0
 11
1657.97562904
 21
-1000.58974887
 31
0.0
  0
LINE
  5
42F
100
AcDbEntity
  8
Sc.1_5
 62
     9
  6
CONTINUOUS
370
    -2
100
AcDbLine
 10
1657.07115713
 20
-1009.32010054
 30
0.0
 11
1657.75271044
 21
-1009.77446941
 31
0.0
  0
LINE
  5
430
100
AcDbEntity
  8
Sc.1_5
 62
     9
  6
CONTINUOUS
370
    -2
100
AcDbLine
 10
1657.97562436
 20
-1007.84290521
 30
0.0
 11
1657.07115139
 21
-1008.44588718
 31
0.0
  0
LINE
  5
431
100
AcDbEntity
  8
Sc.1_5
 62
     9
  6
CONTINUOUS
370
    -2
100
AcDbLine
 10
1657.97562542
 20
-998.50957157
 30
0.0
 11
1657.07115245
 21
-999.11255354
 31
0.0
  0
LINE
  5
432
100
AcDbEntity
  8
Sc.1_5
 62
     9
  6
CONTINUOUS
370
    -2
100
AcDbLine
 10
1657.97562647
 20
-989.17623792
 30
0.0
 11
1657.07115351
 21
-989.77921989
 31
0.0
  0
LINE
  5
433
100
AcDbEntity
  8
Sc.1_5
 62
     9
  6
CONTINUOUS
370
    -2
100
AcDbLine
 10
1657.97562753
 20
-979.84290428
 30
0.0
 11
1657.07115456
 21
-980.44588625
 31
0.0
  0
LINE
  5
434
100
AcDbEntity
  8
Sc.1_5
 62
     9
  6
CONTINUOUS
370
    -2
100
AcDbLine
 10
1634.26726227
 20
-975.77922059
 30
0.0
 11
1635.57857783
 21
-976.21632585
 31
0.0
  0
LINE
  5
435
100
AcDbEntity
  8
Sc.1_5
 62
     9
  6
CONTINUOUS
370
    -2
100
AcDbLine
 10
1634.26726274
 20
-985.1125549
 30
0.0
 11
1635.5785783
 21
-985.54966016
 31
0.0
  0
LINE
  5
436
100
AcDbEntity
  8
Sc.1_5
 62
     9
  6
CONTINUOUS
370
    -2
100
AcDbLine
 10
1634.26726321
 20
-994.44588921
 30
0.0
 11
1635.57857877
 21
-994.88299447
 31
0.0
  0
LINE
  5
437
100
AcDbEntity
  8
Sc.1_5
 62
     9
  6
CONTINUOUS
370
    -2
100
AcDbLine
 10
1634.26726368
 20
-1003.77922352
 30
0.0
 11
1635.57857923
 21
-1004.21632878
 31
0.0
  0
LINE
  5
438
100
AcDbEntity
  8
Sc.1_5
 62
     9
  6
CONTINUOUS
370
    -2
100
AcDbLine
 10
1634.26726181
 20
-976.65343166
 30
0.0
 11
1635.57857736
 21
-976.2163264
 31
0.0
  0
LINE
  5
439
100
AcDbEntity
  8
Sc.1_5
 62
     9
  6
CONTINUOUS
370
    -2
100
AcDbLine
 10
1634.26726134
 20
-985.98676597
 30
0.0
 11
1635.57857689
 21
-985.54966071
 31
0.0
  0
LINE
  5
43A
100
AcDbEntity
  8
Sc.1_5
 62
     9
  6
CONTINUOUS
370
    -2
100
AcDbLine
 10
1634.26726087
 20
-995.32010028
 30
0.0
 11
1635.57857643
 21
-994.88299502
 31
0.0
  0
LINE
  5
43B
100
AcDbEntity
  8
Sc.1_5
 62
     9
  6
CONTINUOUS
370
    -2
100
AcDbLine
 10
1634.2672604
 20
-1004.65343459
 30
0.0
 11
1635.57857596
 21
-1004.21632933
 31
0.0
  0
LINE
  5
43C
100
AcDbEntity
  8
Sc.1_5
 62
     9
  6
CONTINUOUS
370
    -2
100
AcDbLine
 10
1655.75983781
 20
-971.54965915
 30
0.0
 11
1657.07115065
 21
-971.9867635
 31
0.0
  0
LINE
  5
43D
100
AcDbEntity
  8
Sc.1_5
 62
     9
  6
CONTINUOUS
370
    -2
100
AcDbLine
 10
1655.75983557
 20
-980.88299255
 30
0.0
 11
1657.07115112
 21
-981.32009781
 31
0.0
  0
LINE
  5
43E
100
AcDbEntity
  8
Sc.1_5
 62
     9
  6
CONTINUOUS
370
    -2
100
AcDbLine
 10
1655.75983603
 20
-990.21632686
 30
0.0
 11
1657.07115159
 21
-990.65343212
 31
0.0
  0
LINE
  5
43F
100
AcDbEntity
  8
Sc.1_5
 62
     9
  6
CONTINUOUS
370
    -2
100
AcDbLine
 10
1655.7598365
 20
-999.54966117
 30
0.0
 11
1657.07115206
 21
-999.98676643
 31
0.0
  0
LINE
  5
440
100
AcDbEntity
  8
Sc.1_5
 62
     9
  6
CONTINUOUS
370
    -2
100
AcDbLine
 10
1655.75983697
 20
-1008.88299547
 30
0.0
 11
1657.07115252
 21
-1009.32010073
 31
0.0
  0
LINE
  5
441
100
AcDbEntity
  8
Sc.1_5
 62
     9
  6
CONTINUOUS
370
    -2
100
AcDbLine
 10
1657.07114806
 20
-1008.44588946
 30
0.0
 11
1655.75983251
 21
-1008.88299472
 31
0.0
  0
LINE
  5
442
100
AcDbEntity
  8
Sc.1_5
 62
     9
  6
CONTINUOUS
370
    -2
100
AcDbLine
 10
1657.07114853
 20
-999.11255515
 30
0.0
 11
1655.75983298
 21
-999.54966041
 31
0.0
  0
LINE
  5
443
100
AcDbEntity
  8
Sc.1_5
 62
     9
  6
CONTINUOUS
370
    -2
100
AcDbLine
 10
1657.071149
 20
-989.77922084
 30
0.0
 11
1655.75983345
 21
-990.2163261
 31
0.0
  0
LINE
  5
444
100
AcDbEntity
  8
Sc.1_5
 62
     9
  6
CONTINUOUS
370
    -2
100
AcDbLine
 10
1657.07114947
 20
-980.44588654
 30
0.0
 11
1655.75983391
 21
-980.8829918
 31
0.0
  0
LINE
  5
445
100
AcDbEntity
  8
Sc.1_5
 62
     9
  6
CONTINUOUS
370
    -2
100
AcDbLine
 10
1636.33588751
 20
-976.21632524
 30
0.0
 11
1637.33694033
 21
-976.32755338
 31
0.0
  0
LINE
  5
446
100
AcDbEntity
  8
Sc.1_5
 62
     9
  6
CONTINUOUS
370
    -2
100
AcDbLine
 10
1636.33589892
 20
-985.54965789
 30
0.0
 11
1637.33695173
 21
-985.66088603
 31
0.0
  0
LINE
  5
447
100
AcDbEntity
  8
Sc.1_5
 62
     9
  6
CONTINUOUS
370
    -2
100
AcDbLine
 10
1636.33591032
 20
-994.88299054
 30
0.0
 11
1637.33696314
 21
-994.99421868
 31
0.0
  0
LINE
  5
448
100
AcDbEntity
  8
Sc.1_5
 62
     9
  6
CONTINUOUS
370
    -2
100
AcDbLine
 10
1636.33592173
 20
-1004.21632319
 30
0.0
 11
1637.33697454
 21
-1004.32755133
 31
0.0
  0
LINE
  5
449
100
AcDbEntity
  8
Sc.1_5
 62
     9
  6
CONTINUOUS
370
    -2
100
AcDbLine
 10
1636.3358761
 20
-976.21632537
 30
0.0
 11
1637.33692892
 21
-976.10509722
 31
0.0
  0
LINE
  5
44A
100
AcDbEntity
  8
Sc.1_5
 62
     9
  6
CONTINUOUS
370
    -2
100
AcDbLine
 10
1636.3358647
 20
-985.54965802
 30
0.0
 11
1637.33691752
 21
-985.43842987
 31
0.0
  0
LINE
  5
44B
100
AcDbEntity
  8
Sc.1_5
 62
     9
  6
CONTINUOUS
370
    -2
100
AcDbLine
 10
1636.33585329
 20
-994.88299067
 30
0.0
 11
1637.33690611
 21
-994.77176252
 31
0.0
  0
LINE
  5
44C
100
AcDbEntity
  8
Sc.1_5
 62
     9
  6
CONTINUOUS
370
    -2
100
AcDbLine
 10
1636.33584189
 20
-1004.21632332
 30
0.0
 11
1637.3368947
 21
-1004.10509517
 31
0.0
  0
LINE
  5
44D
100
AcDbEntity
  8
Sc.1_5
 62
     9
  6
CONTINUOUS
370
    -2
100
AcDbLine
 10
1655.00259891
 20
-1008.88299545
 30
0.0
 11
1654.00154606
 21
-1008.77176758
 31
0.0
  0
LINE
  5
44E
100
AcDbEntity
  8
Sc.1_5
 62
     9
  6
CONTINUOUS
370
    -2
100
AcDbLine
 10
1655.00258502
 20
-999.5496628
 30
0.0
 11
1654.00153217
 21
-999.43843492
 31
0.0
  0
LINE
  5
44F
100
AcDbEntity
  8
Sc.1_5
 62
     9
  6
CONTINUOUS
370
    -2
100
AcDbLine
 10
1655.00257113
 20
-990.21633015
 30
0.0
 11
1654.00151828
 21
-990.10510227
 31
0.0
  0
LINE
  5
450
100
AcDbEntity
  8
Sc.1_5
 62
     9
  6
CONTINUOUS
370
    -2
100
AcDbLine
 10
1655.00255723
 20
-980.8829975
 30
0.0
 11
1654.00150439
 21
-980.77176962
 31
0.0
  0
LINE
  5
451
100
AcDbEntity
  8
Sc.1_5
 62
     9
  6
CONTINUOUS
370
    -2
100
AcDbLine
 10
1655.00254334
 20
-971.54966485
 30
0.0
 11
1655.00249231
 21
-971.54965918
 31
0.0
  0
LINE
  5
452
100
AcDbEntity
  8
Sc.1_5
 62
     9
  6
CONTINUOUS
370
    -2
100
AcDbLine
 10
1655.00249772
 20
-1008.88299116
 30
0.0
 11
1654.0014449
 21
-1008.9942193
 31
0.0
  0
LINE
  5
453
100
AcDbEntity
  8
Sc.1_5
 62
     9
  6
CONTINUOUS
370
    -2
100
AcDbLine
 10
1655.00250913
 20
-999.54965851
 30
0.0
 11
1654.00145631
 21
-999.66088665
 31
0.0
  0
LINE
  5
454
100
AcDbEntity
  8
Sc.1_5
 62
     9
  6
CONTINUOUS
370
    -2
100
AcDbLine
 10
1655.00252053
 20
-990.21632586
 30
0.0
 11
1654.00146771
 21
-990.327554
 31
0.0
  0
LINE
  5
455
100
AcDbEntity
  8
Sc.1_5
 62
     9
  6
CONTINUOUS
370
    -2
100
AcDbLine
 10
1655.00253194
 20
-980.88299321
 30
0.0
 11
1654.00147912
 21
-980.99422135
 31
0.0
  0
LINE
  5
456
100
AcDbEntity
  8
Sc.1_5
 62
     9
  6
CONTINUOUS
370
    -2
100
AcDbLine
 10
1655.00254334
 20
-971.54966056
 30
0.0
 11
1654.00149053
 21
-971.6608887
 31
0.0
  0
ENDBLK
  5
457
100
AcDbEntity
100
AcDbBlockEnd
  0
ENDSEC
  0
SECTION
  2
ENTITIES
  0
LINE
  5
458
100
AcDbEntity
  8
Sc.1_5
 62
     7
  6
CONTINUOUS
100
AcDbLine
 10
1631.66930622
 20
-953.49172986
 30
0.0
 11
1631.66930622
 21
-962.54965898
 31
0.0
  0
LINE
  5
459
100
AcDbEntity
  8
Sc.1_5
 62
     7
  6
CONTINUOUS
100
AcDbLine
 10
1631.66930622
 20
-905.44987739
 30
0.0
 11
1631.66930622
 21
-943.42007987
 31
0.0
  0
LINE
  5
45A
100
AcDbEntity
  8
Sc.1_5
 62
     7
  6
CONTINUOUS
100
AcDbLine
 10
1631.66930622
 20
-971.54965898
 30
0.0
 11
1631.66930622
 21
-1009.77446941
 31
0.0
  0
LINE
  5
45B
100
AcDbEntity
  8
Sc.1_5
 62
     7
  6
CONTINUOUS
100
AcDbLine
 10
1659.66920653
 20
-1009.77446941
 30
0.0
 11
1659.66920653
 21
-971.54965898
 31
0.0
  0
LINE
  5
45C
100
AcDbEntity
  8
Sc.1_5
 62
     7
  6
CONTINUOUS
100
AcDbLine
 10
1659.66920653
 20
-962.54965898
 30
0.0
 11
1659.66920653
 21
-905.44987739
 31
0.0
  0
LINE
  5
45D
100
AcDbEntity
  8
Sc.1_5
 62
     7
  6
CONTINUOUS
100
AcDbLine
 10
1662.46920653
 20
-886.34925477
 30
0.0
 11
1662.46920653
 21
-900.44987739
 31
0.0
  0
LINE
  5
45E
100
AcDbEntity
  8
Sc.1_5
 62
     7
  6
CONTINUOUS
100
AcDbLine
 10
1662.46920653
 20
-900.44987739
 30
0.0
 11
1665.46920653
 21
-900.44987739
 31
0.0
  0
LINE
  5
45F
100
AcDbEntity
  8
Sc.1_5
 62
     7
  6
CONTINUOUS
100
AcDbLine
 10
1665.46920653
 20
-900.44987739
 30
0.0
 11
1665.46920653
 21
-888.44987739
 31
0.0
  0
LINE
  5
460
100
AcDbEntity
  8
Sc.1_5
 62
     7
  6
CONTINUOUS
100
AcDbLine
 10
1665.46920653
 20
-888.44987739
 30
0.0
 11
1662.46920653
 21
-886.34925477
 31
0.0
  0
LINE
  5
461
100
AcDbEntity
  8
Sc.1_5
 62
     7
  6
CONTINUOUS
100
AcDbLine
 10
1620.32694401
 20
-932.32232628
 30
0.0
 11
1624.12694401
 21
-931.30411935
 31
0.0
  0
LINE
  5
462
100
AcDbEntity
  8
Sc.1_5
 62
     7
  6
CONTINUOUS
100
AcDbLine
 10
1624.12694401
 20
-931.30411935
 30
0.0
 11
1624.12694401
 21
-819.77446941
 31
0.0
  0
LINE
  5
463
100
AcDbEntity
  8
Sc.1_5
 62
     7
  6
CONTINUOUS
100
AcDbLine
 10
1620.32694401
 20
-819.77446941
 30
0.0
 11
1620.32694401
 21
-932.32232628
 31
0.0
  0
LINE
  5
464
100
AcDbEntity
  8
Sc.1_5
 62
     7
  6
CONTINUOUS
100
AcDbLine
 10
1624.12694401
 20
-933.7583352
 30
0.0
 11
1620.32694401
 21
-934.77654213
 31
0.0
  0
LINE
  5
465
100
AcDbEntity
  8
Sc.1_5
 62
     7
  6
CONTINUOUS
100
AcDbLine
 10
1620.32694401
 20
-934.77654213
 30
0.0
 11
1620.32694401
 21
-1009.77446941
 31
0.0
  0
LINE
  5
466
100
AcDbEntity
  8
Sc.1_5
 62
     7
  6
CONTINUOUS
100
AcDbLine
 10
1624.12694401
 20
-1009.77446941
 30
0.0
 11
1624.12694401
 21
-933.7583352
 31
0.0
  0
LINE
  5
467
100
AcDbEntity
  8
Sc.1_5
 62
     7
  6
CONTINUOUS
100
AcDbLine
 10
1622.22694401
 20
-819.77446941
 30
0.0
 11
1622.22694401
 21
-931.81322281
 31
0.0
  0
LINE
  5
468
100
AcDbEntity
  8
Sc.1_5
 62
     7
  6
CONTINUOUS
100
AcDbLine
 10
1622.22694401
 20
-934.26743867
 30
0.0
 11
1622.22694401
 21
-1009.77446941
 31
0.0
  0
LINE
  5
469
100
AcDbEntity
  8
Sc.1_5
 62
     7
  6
CONTINUOUS
100
AcDbLine
 10
1619.82694401
 20
-934.52685324
 30
0.0
 11
1629.051944
 21
-932.05502194
 31
0.0
  0
LINE
  5
46A
100
AcDbEntity
  8
Sc.1_5
 62
     7
  6
CONTINUOUS
100
AcDbLine
 10
1629.051944
 20
-932.05502194
 30
0.0
 11
1629.051944
 21
-921.96793845
 31
0.0
  0
LINE
  5
46B
100
AcDbEntity
  8
Sc.1_5
 62
     7
  6
CONTINUOUS
100
AcDbLine
 10
1619.82694401
 20
-934.52685324
 30
0.0
 11
1619.82694401
 21
-939.77654213
 31
0.0
  0
LINE
  5
46C
100
AcDbEntity
  8
Sc.1_5
 62
     7
  6
CONTINUOUS
100
AcDbLine
 10
1619.82694401
 20
-939.77654213
 30
0.0
 11
1619.43027323
 21
-940.46359607
 31
0.0
  0
LINE
  5
46D
100
AcDbEntity
  8
Sc.1_5
 62
     7
  6
CONTINUOUS
100
AcDbLine
 10
1619.43027323
 20
-940.46359607
 30
0.0
 11
1619.82694401
 21
-940.86026685
 31
0.0
  0
LINE
  5
46E
100
AcDbEntity
  8
Sc.1_5
 62
     7
  6
CONTINUOUS
100
AcDbLine
 10
1631.66920572
 20
-896.44987848
 30
0.0
 11
1631.66920611
 21
-905.44987861
 31
0.0
  0
LINE
  5
46F
100
AcDbEntity
  8
Sc.1_5
 62
     7
  6
CONTINUOUS
100
AcDbLine
 10
1659.66920614
 20
-896.44987725
 30
0.0
 11
1631.66920572
 21
-896.44987848
 31
0.0
  0
LINE
  5
470
100
AcDbEntity
  8
Sc.1_5
 62
     7
  6
CONTINUOUS
100
AcDbLine
 10
1659.66920653
 20
-905.44987739
 30
0.0
 11
1659.66920614
 21
-896.44987725
 31
0.0
  0
LINE
  5
471
100
AcDbEntity
  8
Sc.1_5
 62
     9
  6
CONTINUOUS
100
AcDbLine
 10
1659.66920614
 20
-896.44987725
 30
0.0
 11
1631.66920611
 21
-905.44987861
 31
0.0
  0
LINE
  5
472
100
AcDbEntity
  8
Sc.1_5
 62
     7
  6
CONTINUOUS
100
AcDbLine
 10
1631.66920611
 20
-905.44987861
 30
0.0
 11
1659.66920653
 21
-905.44987739
 31
0.0
  0
LINE
  5
473
100
AcDbEntity
  8
Sc.1_5
 62
     7
  6
CONTINUOUS
100
AcDbLine
 10
1631.66920572
 20
-962.54966006
 30
0.0
 11
1631.66920611
 21
-971.5496602
 31
0.0
  0
LINE
  5
474
100
AcDbEntity
  8
Sc.1_5
 62
     7
  6
CONTINUOUS
100
AcDbLine
 10
1659.66920614
 20
-962.54965884
 30
0.0
 11
1631.66920572
 21
-962.54966006
 31
0.0
  0
LINE
  5
475
100
AcDbEntity
  8
Sc.1_5
 62
     7
  6
CONTINUOUS
100
AcDbLine
 10
1659.66920653
 20
-971.54965898
 30
0.0
 11
1659.66920614
 21
-962.54965884
 31
0.0
  0
LINE
  5
476
100
AcDbEntity
  8
Sc.1_5
 62
     9
  6
CONTINUOUS
100
AcDbLine
 10
1659.66920614
 20
-962.54965884
 30
0.0
 11
1631.66920611
 21
-971.5496602
 31
0.0
  0
LINE
  5
477
100
AcDbEntity
  8
Sc.1_5
 62
     7
  6
CONTINUOUS
100
AcDbLine
 10
1631.66920611
 20
-971.5496602
 30
0.0
 11
1659.66920653
 21
-971.54965898
 31
0.0
  0
LINE
  5
478
100
AcDbEntity
  8
Sc.1_5
 62
     7
  6
CONTINUOUS
100
AcDbLine
 10
1747.66666759
 20
-927.89976811
 30
0.0
 11
1752.6666677
 21
-930.39976808
 31
0.0
  0
LINE
  5
479
100
AcDbEntity
  8
Sc.1_5
 62
     7
  6
CONTINUOUS
100
AcDbLine
 10
1752.6666677
 20
-930.39976808
 30
0.0
 11
1742.66666761
 21
-935.39976828
 31
0.0
  0
LINE
  5
47A
100
AcDbEntity
  8
Sc.1_5
 62
     7
  6
CONTINUOUS
100
AcDbLine
 10
1742.66666761
 20
-935.39976828
 30
0.0
 11
1747.66666771
 21
-937.89976826
 31
0.0
  0
LINE
  5
47B
100
AcDbEntity
  8
Sc.1_5
 62
     7
  6
CONTINUOUS
100
AcDbLine
 10
1747.66666771
 20
-937.89976826
 30
0.0
 11
1747.66666792
 21
-968.99645883
 31
0.0
  0
LINE
  5
47C
100
AcDbEntity
  8
Sc.1_5
 62
     7
  6
CONTINUOUS
100
AcDbLine
 10
1747.66666732
 20
-896.80305357
 30
0.0
 11
1747.66666759
 21
-927.89976811
 31
0.0
  0
LINE
  5
47D
100
AcDbEntity
  8
Sc.1_5
 62
     7
  6
CONTINUOUS
100
AcDbLine
 10
1638.21930615
 20
-819.77446941
 30
0.0
 11
1640.71930618
 21
-814.77446934
 31
0.0
  0
LINE
  5
47E
100
AcDbEntity
  8
Sc.1_5
 62
     7
  6
CONTINUOUS
100
AcDbLine
 10
1640.71930618
 20
-814.77446934
 30
0.0
 11
1645.71930626
 21
-824.77446949
 31
0.0
  0
LINE
  5
47F
100
AcDbEntity
  8
Sc.1_5
 62
     7
  6
CONTINUOUS
100
AcDbLine
 10
1645.71930626
 20
-824.77446949
 30
0.0
 11
1648.2193063
 21
-819.77446941
 31
0.0
  0
LINE
  5
480
100
AcDbEntity
  8
Sc.1_5
 62
     7
  6
CONTINUOUS
100
AcDbLine
 10
1648.2193063
 20
-819.77446941
 30
0.0
 11
1666.50197367
 21
-819.77446941
 31
0.0
  0
LINE
  5
481
100
AcDbEntity
  8
Sc.1_5
 62
     7
  6
CONTINUOUS
100
AcDbLine
 10
1616.75227898
 20
-819.77446941
 30
0.0
 11
1638.21930615
 21
-819.77446941
 31
0.0
  0
LINE
  5
482
100
AcDbEntity
  8
Sc.1_5
 62
     7
  6
CONTINUOUS
100
AcDbLine
 10
1645.2193063
 20
-1009.77446898
 30
0.0
 11
1642.7193067
 21
-1014.77446927
 31
0.0
  0
LINE
  5
483
100
AcDbEntity
  8
Sc.1_5
 62
     7
  6
CONTINUOUS
100
AcDbLine
 10
1642.7193067
 20
-1014.77446927
 30
0.0
 11
1637.71930575
 21
-1004.77446956
 31
0.0
  0
LINE
  5
484
100
AcDbEntity
  8
Sc.1_5
 62
     7
  6
CONTINUOUS
100
AcDbLine
 10
1637.71930575
 20
-1004.77446956
 30
0.0
 11
1635.21930615
 21
-1009.77446985
 31
0.0
  0
LINE
  5
485
100
AcDbEntity
  8
Sc.1_5
 62
     7
  6
CONTINUOUS
100
AcDbLine
 10
1635.21930615
 20
-1009.77446985
 30
0.0
 11
1615.32707019
 21
-1009.77447159
 31
0.0
  0
LINE
  5
486
100
AcDbEntity
  8
Sc.1_5
 62
     7
  6
CONTINUOUS
100
AcDbLine
 10
1666.47512317
 20
-1009.77446712
 30
0.0
 11
1645.2193063
 21
-1009.77446898
 31
0.0
  0
LWPOLYLINE
  5
487
102
{ACAD_REACTORS
330
488
102
}
100
AcDbEntity
  8
Sc.1_5
 62
     7
  6
CONTINUOUS
100
AcDbPolyline
 90
        4
 70
     1
 43
0.0
 10
1747.66666765
 20
-905.44987739
 10
1661.16920653
 20
-905.44987739
 10
1661.16920653
 20
-934.04987739
 10
1747.66666765
 20
-934.04987739
  0
HATCH
  5
488
100
AcDbEntity
  8
Sc.1_5
 62
     9
  6
CONTINUOUS
100
AcDbHatch
 10
0.0
 20
0.0
 30
0.0
210
0.0
220
0.0
230
1.0
  2
Wood
 70
     0
 71
     1
 91
        1
 92
        7
 72
     0
 73
     1
 93
        4
 10
1747.66666765
 20
-905.44987739
 10
1661.16920653
 20
-905.44987739
 10
1661.16920653
 20
-934.04987739
 10
1747.66666765
 20
-934.04987739
 97
        1
330
487
 75
     0
 76
     2
 52
0.0
 41
1.0
 77
     0
 78
    66
 53
0.0
 43
0.0
 44
0.0
 45
0.0
 46
41.23109818
 79
     4
 49
8.24619961
 49
-12.36929989
 49
4.1230998
 49
-16.49239922
 53
0.0
 43
28.86170006
 44
1.03079998
 45
0.0
 46
41.23109818
 79
     2
 49
8.24619961
 49
-32.98479843
 53
0.0
 43
24.73859978
 44
3.09229994
 45
0.0
 46
41.23109818
 79
     2
 49
4.1230998
 49
-37.10800171
 53
0.0
 43
2.06159997
 44
4.1230998
 45
0.0
 46
41.23109818
 79
     4
 49
2.06159997
 49
-28.86170006
 49
2.06159997
 49
-8.24619961
 53
0.0
 43
16.49239922
 44
6.18470001
 45
0.0
 46
41.23109818
 79
     4
 49
8.24619961
 49
-12.36929989
 49
2.06159997
 49
-18.55400085
 53
0.0
 43
6.18470001
 44
7.21540022
 45
0.0
 46
41.23109818
 79
     2
 49
6.18470001
 49
-35.04639816
 53
0.0
 43
16.49239922
 44
8.24619961
 45
0.0
 46
41.23109818
 79
     2
 49
12.36929989
 49
-28.86170006
 53
0.0
 43
4.1230998
 44
9.27700043
 45
0.0
 46
41.23109818
 79
     2
 49
8.24619961
 49
-32.98479843
 53
0.0
 43
20.6154995
 44
10.30780029
 45
0.0
 46
41.23109818
 79
     2
 49
20.6154995
 49
-20.6154995
 53
0.0
 43
8.24619961
 44
12.36929989
 45
0.0
 46
41.23109818
 79
     4
 49
4.1230998
 49
-12.36929989
 49
8.24619961
 49
-16.49239922
 53
0.0
 43
37.10800171
 44
13.40009975
 45
0.0
 46
41.23109818
 79
     2
 49
8.24619961
 49
-32.98479843
 53
0.0
 43
28.86170006
 44
14.43089962
 45
0.0
 46
41.23109818
 79
     2
 49
4.1230998
 49
-37.10800171
 53
0.0
 43
20.6154995
 44
15.4616003
 45
0.0
 46
41.23109818
 79
     2
 49
4.1230998
 49
-37.10800171
 53
0.0
 43
0.0
 44
16.49239922
 45
0.0
 46
41.23109818
 79
     2
 49
8.24619961
 49
-32.98479843
 53
0.0
 43
20.6154995
 44
17.52319908
 45
0.0
 46
41.23109818
 79
     2
 49
8.24619961
 49
-32.98479843
 53
0.0
 43
20.6154995
 44
19.58480072
 45
0.0
 46
41.23109818
 79
     4
 49
8.24619961
 49
-8.24619961
 49
8.24619961
 49
-16.49239922
 53
0.0
 43
12.36929989
 44
21.64629936
 45
0.0
 46
41.23109818
 79
     4
 49
4.1230998
 49
-20.6154995
 49
8.24619961
 49
-8.24619961
 53
0.0
 43
20.6154995
 44
22.67709923
 45
0.0
 46
41.23109818
 79
     2
 49
12.36929989
 49
-28.86170006
 53
0.0
 43
20.6154995
 44
24.73859978
 45
0.0
 46
41.23109818
 79
     2
 49
8.24619961
 49
-32.98479843
 53
0.0
 43
4.1230998
 44
25.76939964
 45
0.0
 46
41.23109818
 79
     4
 49
12.36929989
 49
-16.49239922
 49
4.1230998
 49
-8.24619961
 53
0.0
 43
4.1230998
 44
27.83099937
 45
0.0
 46
41.23109818
 79
     2
 49
20.6154995
 49
-20.6154995
 53
0.0
 43
28.86170006
 44
28.86170006
 45
0.0
 46
41.23109818
 79
     2
 49
4.1230998
 49
-37.10800171
 53
0.0
 43
16.49239922
 44
29.89249992
 45
0.0
 46
41.23109818
 79
     2
 49
8.24619961
 49
-32.98479843
 53
0.0
 43
8.24619961
 44
30.92329979
 45
0.0
 46
41.23109818
 79
     4
 49
4.1230998
 49
-16.49239922
 49
4.1230998
 49
-16.49239922
 53
0.0
 43
4.1230998
 44
31.95409966
 45
0.0
 46
41.23109818
 79
     4
 49
4.1230998
 49
-12.36929989
 49
8.24619961
 49
-16.49239922
 53
0.0
 43
12.36929989
 44
32.98479843
 45
0.0
 46
41.23109818
 79
     4
 49
4.1230998
 49
-20.6154995
 49
4.1230998
 49
-12.36929989
 53
0.0
 43
20.6154995
 44
34.0155983
 45
0.0
 46
41.23109818
 79
     2
 49
12.36929989
 49
-28.86170006
 53
0.0
 43
4.1230998
 44
36.07720184
 45
0.0
 46
41.23109818
 79
     2
 49
8.24619961
 49
-32.98479843
 53
0.0
 43
24.73859978
 44
37.10800171
 45
0.0
 46
41.23109818
 79
     2
 49
4.1230998
 49
-37.10800171
 53
0.0
 43
32.98479843
 44
38.13869858
 45
0.0
 46
41.23109818
 79
     2
 49
4.1230998
 49
-37.10800171
 53
14.03619957
 43
28.86170006
 44
3.09229994
 45
-41.23105626
 46
3.1589938600973E-05
 79
     2
 49
4.24679995
 49
-165.75320435
 53
14.03619957
 43
32.98479843
 44
12.36929989
 45
-41.23105626
 46
3.1589938600973E-05
 79
     2
 49
4.24679995
 49
-165.75320435
 53
14.03619957
 43
28.86170006
 44
37.10800171
 45
-41.23105626
 46
3.1589938600973E-05
 79
     2
 49
4.24679995
 49
-165.75320435
 53
14.03619957
 43
16.49239922
 44
21.64629936
 45
-41.23105626
 46
3.1589938600973E-05
 79
     2
 49
4.24679995
 49
-165.75320435
 53
14.03619957
 43
24.73859978
 44
27.83099937
 45
-41.23105626
 46
3.1589938600973E-05
 79
     2
 49
4.24679995
 49
-165.75320435
 53
14.03619957
 43
28.86170006
 44
24.73859978
 45
-41.23105626
 46
3.1589938600973E-05
 79
     2
 49
4.24679995
 49
-165.75320435
 53
14.03619957
 43
8.24619961
 44
31.95409966
 45
-41.23105626
 46
3.1589938600973E-05
 79
     2
 49
4.24679995
 49
-165.75320435
 53
14.03619957
 43
24.73859978
 44
29.89249992
 45
-41.23105626
 46
3.1589938600973E-05
 79
     2
 49
4.24679995
 49
-165.75320435
 53
14.03619957
 43
32.98479843
 44
14.43089962
 45
-41.23105626
 46
3.1589938600973E-05
 79
     2
 49
8.49359989
 49
-161.50639343
 53
14.03619957
 43
28.86170006
 44
17.52319908
 45
-41.23105626
 46
3.1589938600973E-05
 79
     2
 49
8.49359989
 49
-161.50639343
 53
14.03619957
 43
28.86170006
 44
19.58480072
 45
-41.23105626
 46
3.1589938600973E-05
 79
     2
 49
8.49359989
 49
-161.50639343
 53
165.96380615
 43
16.49239922
 44
6.18470001
 45
-41.23105626
 46
-3.5707624025605E-05
 79
     4
 49
4.24679995
 49
-8.49359989
 49
4.24679995
 49
-153.01280212
 53
165.96380615
 43
8.24619961
 44
12.36929989
 45
-41.23105626
 46
-3.5707624025605E-05
 79
     2
 49
4.24679995
 49
-165.75320435
 53
165.96380615
 43
8.24619961
 44
30.92329979
 45
-41.23105626
 46
-3.5707624025605E-05
 79
     2
 49
8.49359989
 49
-161.50639343
 53
194.03619385
 43
28.86170006
 44
1.03079998
 45
41.23105626
 46
-3.5707624036263E-05
 79
     2
 49
4.24679995
 49
-165.75320435
 53
345.9637146
 43
37.10800171
 44
1.03079998
 45
41.23105626
 46
-3.0175342796923E-05
 79
     2
 49
4.24679995
 49
-165.75320435
 53
345.9637146
 43
24.73859978
 44
15.4616003
 45
41.23105626
 46
-3.0175342796923E-05
 79
     2
 49
4.24679995
 49
-165.75320435
 53
345.9637146
 43
32.98479843
 44
22.67709923
 45
41.23105626
 46
-3.0175342796923E-05
 79
     2
 49
4.24679995
 49
-165.75320435
 53
345.9637146
 43
16.49239922
 44
25.76939964
 45
41.23105626
 46
-3.0175342796923E-05
 79
     2
 49
4.24679995
 49
-165.75320435
 53
345.9637146
 43
12.36929989
 44
30.92329979
 45
41.23105626
 46
-3.0175342796923E-05
 79
     2
 49
4.24679995
 49
-165.75320435
 53
345.9637146
 43
16.49239922
 44
32.98479843
 45
41.23105626
 46
-3.0175342796923E-05
 79
     2
 49
4.24679995
 49
-165.75320435
 53
345.9637146
 43
16.49239922
 44
25.76939964
 45
41.23105626
 46
-3.0175342796923E-05
 79
     2
 49
4.24679995
 49
-165.75320435
 53
345.9637146
 43
28.86170006
 44
31.95409966
 45
41.23105626
 46
-3.0175342796923E-05
 79
     2
 49
16.98719978
 49
-153.01280212
 53
345.9637146
 43
4.1230998
 44
4.1230998
 45
41.23105626
 46
-3.0175342796923E-05
 79
     2
 49
16.98719978
 49
-153.01280212
 53
345.9637146
 43
8.24619961
 44
7.21540022
 45
41.23105626
 46
-3.0175342796923E-05
 79
     2
 49
16.98719978
 49
-153.01280212
 53
345.9637146
 43
12.36929989
 44
9.27700043
 45
41.23105626
 46
-3.0175342796923E-05
 79
     4
 49
4.24679995
 49
-8.49359989
 49
8.49359989
 49
-148.76600647
 53
345.9637146
 43
12.36929989
 44
12.36929989
 45
41.23105626
 46
-3.0175342796923E-05
 79
     4
 49
8.49359989
 49
-8.49359989
 49
8.49359989
 49
-144.51919556
 53
345.9637146
 43
8.24619961
 44
16.49239922
 45
41.23105626
 46
-3.0175342796923E-05
 79
     2
 49
16.98719978
 49
-153.01280212
 53
345.9637146
 43
4.1230998
 44
19.58480072
 45
41.23105626
 46
-3.0175342796923E-05
 79
     2
 49
16.98719978
 49
-153.01280212
 53
345.9637146
 43
4.1230998
 44
21.64629936
 45
41.23105626
 46
-3.0175342796923E-05
 79
     2
 49
16.98719978
 49
-153.01280212
 53
345.9637146
 43
32.98479843
 44
34.0155983
 45
41.23105626
 46
-3.0175342796923E-05
 79
     2
 49
4.24679995
 49
-165.75320435
 53
345.96380615
 43
37.10800171
 44
38.13869858
 45
41.23105626
 46
3.5707624002512E-05
 79
     2
 49
8.49359989
 49
-161.50639343
 53
345.96380615
 43
12.36929989
 44
36.07720184
 45
41.23105626
 46
3.5707624002512E-05
 79
     2
 49
8.49359989
 49
-161.50639343
 53
345.9637146
 43
8.24619961
 44
0.0
 45
41.23105626
 46
-3.0175342796923E-05
 79
     2
 49
16.98719978
 49
-153.01280212
 53
345.9637146
 43
32.98479843
 44
28.86170006
 45
41.23105626
 46
-3.0175342796923E-05
 79
     2
 49
12.74040031
 49
-157.25959778
 53
345.9637146
 43
37.10800171
 44
25.76939964
 45
41.23105626
 46
-3.0175342796923E-05
 79
     2
 49
25.48080063
 49
-144.51919556
 47
0.775229
 98
        1
 10
0.0
 20
0.0
  0
LWPOLYLINE
  5
489
102
{ACAD_REACTORS
330
48A
102
}
100
AcDbEntity
  8
Sc.1_5
 62
     7
  6
CONTINUOUS
100
AcDbPolyline
 90
        4
 70
     1
 43
0.0
 10
1631.16930622
 20
-1009.77446941
 10
1631.16930622
 20
-819.77446941
 10
1629.36930622
 20
-819.77446941
 10
1629.36930622
 20
-1009.77446941
  0
HATCH
  5
48A
100
AcDbEntity
  8
Sc.1_5
 62
     9
  6
CONTINUOUS
100
AcDbHatch
 10
0.0
 20
0.0
 30
0.0
210
0.0
220
0.0
230
1.0
  2
ANSI31
 70
     0
 71
     1
 91
        1
 92
        7
 72
     0
 73
     1
 93
        4
 10
1631.16930622
 20
-1009.77446941
 10
1631.16930622
 20
-819.77446941
 10
1629.36930622
 20
-819.77446941
 10
1629.36930622
 20
-1009.77446941
 97
        1
330
489
 75
     0
 76
     2
 52
0.0
 41
0.3149626
 77
     0
 78
     1
 53
45.0
 43
0.0
 44
0.0
 45
0.70710678
 46
-0.70710678
 79
     0
 47
0.775229
 98
        1
 10
0.0
 20
0.0
  0
LWPOLYLINE
  5
48B
102
{ACAD_REACTORS
330
48C
102
}
100
AcDbEntity
  8
Sc.1_5
 62
     7
  6
CONTINUOUS
100
AcDbPolyline
 90
        4
 70
     1
 43
0.0
 10
1660.16920653
 20
-819.77446941
 10
1660.16920653
 20
-904.94987739
 10
1661.96920653
 20
-904.94987739
 10
1661.96920653
 20
-819.77446941
  0
HATCH
  5
48C
100
AcDbEntity
  8
Sc.1_5
 62
     9
  6
CONTINUOUS
100
AcDbHatch
 10
0.0
 20
0.0
 30
0.0
210
0.0
220
0.0
230
1.0
  2
CDWK12A
 70
     0
 71
     1
 91
        1
 92
        7
 72
     0
 73
     1
 93
        4
 10
1660.16920653
 20
-819.77446941
 10
1660.16920653
 20
-904.94987739
 10
1661.96920653
 20
-904.94987739
 10
1661.96920653
 20
-819.77446941
 97
        1
330
48B
 75
     0
 76
     2
 52
0.0
 41
1.0
 77
     0
 78
    15
 53
0.0
 43
0.0
 44
0.0
 45
2.70000005
 46
4.9000001
 79
     2
 49
0.0
 49
-3.70000005
 53
0.0
 43
0.0
 44
0.0
 45
4.4000001
 46
4.80000019
 79
     2
 49
0.0
 49
-5.4000001
 53
0.0
 43
0.0
 44
0.0
 45
1.39999998
 46
4.5999999
 79
     2
 49
0.0
 49
-2.4000001
 53
0.0
 43
0.0
 44
0.0
 45
2.20000005
 46
4.19999981
 79
     2
 49
0.0
 49
-3.20000005
 53
0.0
 43
0.0
 44
0.0
 45
3.79999995
 46
4.0
 79
     2
 49
0.0
 49
-4.80000019
 53
0.0
 43
0.0
 44
0.0
 45
1.20000005
 46
3.79999995
 79
     2
 49
0.0
 49
-2.20000005
 53
0.0
 43
0.0
 44
0.0
 45
2.9000001
 46
3.5
 79
     2
 49
0.0
 49
-3.9000001
 53
0.0
 43
0.0
 44
0.0
 45
4.5999999
 46
3.4000001
 79
     2
 49
0.0
 49
-5.5999999
 53
0.0
 43
0.0
 44
0.0
 45
1.89999998
 46
2.9000001
 79
     2
 49
0.0
 49
-2.9000001
 53
0.0
 43
0.0
 44
0.0
 45
3.20000005
 46
2.79999995
 79
     2
 49
0.0
 49
-4.19999981
 53
0.0
 43
0.0
 44
0.0
 45
3.9000001
 46
2.4000001
 79
     2
 49
0.0
 49
-4.9000001
 53
0.0
 43
0.0
 44
0.0
 45
2.4000001
 46
2.0999999
 79
     2
 49
0.0
 49
-3.4000001
 53
0.0
 43
0.0
 44
0.0
 45
4.9000001
 46
2.0999999
 79
     2
 49
0.0
 49
-5.9000001
 53
0.0
 43
0.0
 44
0.0
 45
3.5999999
 46
1.5
 79
     2
 49
0.0
 49
-4.5999999
 53
0.0
 43
0.0
 44
0.0
 45
1.60000002
 46
1.39999998
 79
     2
 49
0.0
 49
-2.5999999
 47
0.775229
 98
        1
 10
0.0
 20
0.0
  0
LWPOLYLINE
  5
48D
100
AcDbEntity
  8
Sc.1_5
 62
     7
  6
CONTINUOUS
100
AcDbPolyline
 90
        4
 70
     1
 43
0.0
 10
1747.66666765
 20
-900.94987739
 10
1662.46920653
 20
-900.94987739
 10
1662.46920653
 20
-904.94987739
 10
1747.66666765
 20
-904.94987739
  0
LWPOLYLINE
  5
48E
102
{ACAD_REACTORS
330
48F
102
}
100
AcDbEntity
  8
Sc.1_5
 62
     7
  6
CONTINUOUS
100
AcDbPolyline
 90
        4
 70
     1
 43
0.0
 10
1661.96920653
 20
-1009.77446941
 10
1661.96920653
 20
-963.04965898
 10
1660.16920653
 20
-963.04965898
 10
1660.16920653
 20
-1009.77446941
  0
HATCH
  5
48F
100
AcDbEntity
  8
Sc.1_5
 62
     9
  6
CONTINUOUS
100
AcDbHatch
 10
0.0
 20
0.0
 30
0.0
210
0.0
220
0.0
230
1.0
  2
CDWK12A
 70
     0
 71
     1
 91
        1
 92
        7
 72
     0
 73
     1
 93
        4
 10
1661.96920653
 20
-1009.77446941
 10
1661.96920653
 20
-963.04965898
 10
1660.16920653
 20
-963.04965898
 10
1660.16920653
 20
-1009.77446941
 97
        1
330
48E
 75
     0
 76
     2
 52
0.0
 41
1.0
 77
     0
 78
    15
 53
0.0
 43
0.0
 44
0.0
 45
2.70000005
 46
4.9000001
 79
     2
 49
0.0
 49
-3.70000005
 53
0.0
 43
0.0
 44
0.0
 45
4.4000001
 46
4.80000019
 79
     2
 49
0.0
 49
-5.4000001
 53
0.0
 43
0.0
 44
0.0
 45
1.39999998
 46
4.5999999
 79
     2
 49
0.0
 49
-2.4000001
 53
0.0
 43
0.0
 44
0.0
 45
2.20000005
 46
4.19999981
 79
     2
 49
0.0
 49
-3.20000005
 53
0.0
 43
0.0
 44
0.0
 45
3.79999995
 46
4.0
 79
     2
 49
0.0
 49
-4.80000019
 53
0.0
 43
0.0
 44
0.0
 45
1.20000005
 46
3.79999995
 79
     2
 49
0.0
 49
-2.20000005
 53
0.0
 43
0.0
 44
0.0
 45
2.9000001
 46
3.5
 79
     2
 49
0.0
 49
-3.9000001
 53
0.0
 43
0.0
 44
0.0
 45
4.5999999
 46
3.4000001
 79
     2
 49
0.0
 49
-5.5999999
 53
0.0
 43
0.0
 44
0.0
 45
1.89999998
 46
2.9000001
 79
     2
 49
0.0
 49
-2.9000001
 53
0.0
 43
0.0
 44
0.0
 45
3.20000005
 46
2.79999995
 79
     2
 49
0.0
 49
-4.19999981
 53
0.0
 43
0.0
 44
0.0
 45
3.9000001
 46
2.4000001
 79
     2
 49
0.0
 49
-4.9000001
 53
0.0
 43
0.0
 44
0.0
 45
2.4000001
 46
2.0999999
 79
     2
 49
0.0
 49
-3.4000001
 53
0.0
 43
0.0
 44
0.0
 45
4.9000001
 46
2.0999999
 79
     2
 49
0.0
 49
-5.9000001
 53
0.0
 43
0.0
 44
0.0
 45
3.5999999
 46
1.5
 79
     2
 49
0.0
 49
-4.5999999
 53
0.0
 43
0.0
 44
0.0
 45
1.60000002
 46
1.39999998
 79
     2
 49
0.0
 49
-2.5999999
 47
0.775229
 98
        1
 10
0.0
 20
0.0
  0
LINE
  5
490
100
AcDbEntity
  8
Sc.1_5
 62
     7
  6
CONTINUOUS
 48
0.5
370
    -3
100
AcDbLine
 10
1708.27145962
 20
-844.39291031
 30
500.0
 11
1651.35719349
 21
-844.39291031
 31
500.0
  0
INSERT
  5
491
100
AcDbEntity
  8
Sc.1_5
 62
     7
  6
CONTINUOUS
370
    -3
100
AcDbBlockReference
  2
CDWK_EXTR_2
 10
1651.35719349
 20
-844.39291031
 30
500.0
 41
1.0
 42
1.0
 43
1.0
  0
LINE
  5
492
100
AcDbEntity
  8
Sc.1_5
 62
     7
  6
CONTINUOUS
 48
0.5
370
    -3
100
AcDbLine
 10
1709.49010312
 20
-970.86132211
 30
500.0
 11
1699.49905464
 21
-963.93369792
 31
500.0
  0
INSERT
  5
493
100
AcDbEntity
  8
Sc.1_5
 62
     7
  6
CONTINUOUS
370
    -3
100
AcDbBlockReference
  2
CDWK_EXTR_2
 10
1699.49905464
 20
-963.93369792
 30
500.0
 41
1.0
 42
1.0
 43
1.0
 50
325.26321469
  0
LINE
  5
494
100
AcDbEntity
  8
Sc.1_5
 62
     7
  6
CONTINUOUS
 48
0.5
370
    -3
100
AcDbLine
 10
1709.18799977
 20
-893.00631386
 30
500.0
 11
1686.9212101
 21
-907.89733233
 31
500.0
  0
INSERT
  5
495
100
AcDbEntity
  8
Sc.1_5
 62
     7
  6
CONTINUOUS
370
    -3
100
AcDbBlockReference
  2
CDWK_EXTR_2
 10
1686.9212101
 20
-907.89733233
 30
500.0
 41
1.0
 42
1.0
 43
1.0
 50
33.77280916
  0
LWPOLYLINE
  5
496
102
{ACAD_REACTORS
330
497
102
}
100
AcDbEntity
  8
Sc.1_5
 62
     7
  6
CONTINUOUS
100
AcDbPolyline
 90
        4
 70
     1
 43
0.0
 10
1747.66666792
 20
-963.04965898
 10
1662.36920653
 20
-963.04965898
 10
1662.36920653
 20
-964.84965898
 10
1747.66666792
 20
-964.84965898
  0
HATCH
  5
497
100
AcDbEntity
  8
Sc.1_5
 62
     9
  6
CONTINUOUS
100
AcDbHatch
 10
0.0
 20
0.0
 30
0.0
210
0.0
220
0.0
230
1.0
  2
CDWK12A
 70
     0
 71
     1
 91
        1
 92
        7
 72
     0
 73
     1
 93
        4
 10
1747.66666792
 20
-963.04965898
 10
1662.36920653
 20
-963.04965898
 10
1662.36920653
 20
-964.84965898
 10
1747.66666792
 20
-964.84965898
 97
        1
330
496
 75
     0
 76
     2
 52
-2.0
 41
1.0
 77
     0
 78
    15
 53
0.0
 43
0.0
 44
0.0
 45
10.55672872
 46
-5.96414065
 79
     2
 49
0.0
 49
-13.30672872
 53
0.0
 43
0.0
 44
0.0
 45
8.36118466
 46
-10.10066569
 79
     2
 49
0.0
 49
-11.11118531
 53
0.0
 43
0.0
 44
0.0
 45
11.29428244
 46
-2.37008068
 79
     2
 49
0.0
 49
-14.04428244
 53
0.0
 43
0.0
 44
0.0
 45
9.37853289
 46
-3.91277394
 79
     2
 49
0.0
 49
-12.12853289
 53
0.0
 43
0.0
 44
0.0
 45
7.04737329
 46
-7.68480122
 79
     2
 49
0.0
 49
-9.79737329
 53
0.0
 43
0.0
 44
0.0
 45
9.52270925
 46
-0.95444416
 79
     2
 49
0.0
 49
-12.27270925
 53
0.0
 43
0.0
 44
0.0
 45
6.82705289
 46
-4.86208853
 79
     2
 49
0.0
 49
-9.57705289
 53
0.0
 43
0.0
 44
0.0
 45
4.63150981
 46
-8.99861324
 79
     2
 49
0.0
 49
-7.38150948
 53
0.0
 43
0.0
 44
0.0
 45
6.47111565
 46
-1.67487825
 79
     2
 49
0.0
 49
-9.22111565
 53
0.0
 43
0.0
 44
0.0
 45
4.73333374
 46
-4.81117624
 79
     2
 49
0.0
 49
-7.48333341
 53
0.0
 43
0.0
 44
0.0
 45
2.93202382
 46
-6.10381269
 79
     2
 49
0.0
 49
-5.68202382
 53
0.0
 43
0.0
 44
0.0
 45
3.89845943
 46
-2.00963928
 79
     2
 49
0.0
 49
-6.64845943
 53
0.0
 43
0.0
 44
0.0
 45
1.03744984
 46
-8.26105952
 79
     2
 49
0.0
 49
-3.78744984
 53
0.0
 43
0.0
 44
0.0
 45
1.02483421
 46
-4.32367834
 79
     2
 49
0.0
 49
-3.77483413
 53
0.0
 43
0.0
 44
0.0
 45
3.0635848
 46
0.79189768
 79
     2
 49
0.0
 49
-5.8135848
 47
0.775229
 98
        1
 10
0.0
 20
0.0
  0
LWPOLYLINE
  5
498
100
AcDbEntity
  8
Sc.1_5
 62
     7
  6
CONTINUOUS
370
    20
100
AcDbPolyline
 90
        4
 70
     0
 43
0.0
 38
548.63999023
 10
1631.66930622
 20
-953.49172986
 10
1634.66930627
 20
-953.49172986
 10
1634.66930627
 20
-943.42007987
 10
1631.66930622
 20
-943.42007987
  0
LINE
  5
499
100
AcDbEntity
  8
Sc.1_5
 62
     7
  6
CONTINUOUS
370
    20
100
AcDbLine
 10
1631.66930622
 20
-943.42007987
 30
548.63999023
 11
1631.66930622
 21
-953.49172986
 31
548.63999023
  0
LWPOLYLINE
  5
49A
100
AcDbEntity
  8
Sc.1_1
 62
     7
  6
DASHDOT
370
     5
100
AcDbPolyline
 90
        4
 70
     1
 43
0.0
 10
1604.1442253
 20
-1064.11666848
 10
1636.04729741
 20
-1064.11666848
 10
1636.04729741
 20
-1048.11966148
 10
1604.1442253
 20
-1048.11966148
  0
LWPOLYLINE
  5
49B
100
AcDbEntity
  8
LEGEND
 62
     5
  6
CONTINUOUS
370
    -3
100
AcDbPolyline
 90
        4
 70
     1
 43
0.0
 10
1635.72952177
 20
-1064.75031721
 10
1693.54487601
 20
-1064.75031721
 10
1693.54487601
 20
-1047.48795572
 10
1635.72952177
 20
-1047.48795572
  0
LWPOLYLINE
  5
49C
100
AcDbEntity
  8
LEGEND
 62
     5
  6
CONTINUOUS
370
    -3
100
AcDbPolyline
 90
        4
 70
     1
 43
0.0
 10
1693.54487601
 20
-1064.75031721
 10
1766.93702756
 20
-1064.75031721
 10
1766.93702756
 20
-1047.48795572
 10
1693.54487601
 20
-1047.48795572
  0
LWPOLYLINE
  5
49D
100
AcDbEntity
  8
LEGEND
 62
     5
  6
CONTINUOUS
370
    -3
100
AcDbPolyline
 90
        4
 70
     1
 43
0.0
 10
1766.93702756
 20
-1064.75031721
 10
1801.46102669
 20
-1064.75031721
 10
1801.46102669
 20
-1056.11913647
 10
1766.93702756
 20
-1056.11913647
  0
LWPOLYLINE
  5
49E
100
AcDbEntity
  8
LEGEND
 62
     5
  6
CONTINUOUS
370
    -3
100
AcDbPolyline
 90
        4
 70
     1
 43
0.0
 10
1766.93702756
 20
-1056.11913647
 10
1781.84527623
 20
-1056.11913647
 10
1781.84527623
 20
-1047.48795572
 10
1766.93702756
 20
-1047.48795572
  0
LWPOLYLINE
  5
49F
100
AcDbEntity
  8
LEGEND
 62
     5
  6
CONTINUOUS
370
    -3
100
AcDbPolyline
 90
        4
 70
     1
 43
0.0
 10
1604.46102669
 20
-1064.75031721
 10
1801.46102669
 20
-1064.75031721
 10
1801.46102669
 20
-793.75031721
 10
1604.46102669
 20
-793.75031721
  0
LWPOLYLINE
  5
4A0
100
AcDbEntity
  8
LEGEND
 62
     5
  6
CONTINUOUS
370
    -3
100
AcDbPolyline
 90
        4
 70
     1
 43
0.0
 10
1781.84527623
 20
-1056.11913647
 10
1801.46102669
 20
-1056.11913647
 10
1801.46102669
 20
-1047.48795572
 10
1781.84527623
 20
-1047.48795572
  0
LWPOLYLINE
  5
4A1
100
AcDbEntity
  8
LEGEND
 62
     5
  6
CONTINUOUS
370
    -3
100
AcDbPolyline
 90
        4
 70
     1
 43
0.0
 10
1604.46102669
 20
-1064.75031721
 10
1635.72952177
 20
-1064.75031721
 10
1635.72952177
 20
-1047.48795572
 10
1604.46102669
 20
-1047.48795572
  0
3DFACE
  5
4A2
100
AcDbEntity
  8
Sc.1_5
 62
     7
  6
CONTINUOUS
370
    20
100
AcDbFace
 70
     0
 10
1660.16917724
 20
-962.54965898
 30
548.63999023
 11
1672.76917738
 21
-962.54965898
 31
548.63999023
 12
1672.76917738
 22
-934.54965856
 32
548.63999023
 13
1660.16917724
 23
-934.54965856
 33
548.63999023
  0
INSERT
  5
4A3
100
AcDbEntity
  8
Sc.1_5
 62
     0
370
    20
100
AcDbBlockReference
  2
*X2002
 10
0.0
 20
0.0
 30
0.0
  0
3DFACE
  5
4A4
100
AcDbEntity
  8
Sc.1_5
 62
     7
  6
CONTINUOUS
370
    20
100
AcDbFace
 70
     0
 10
1624.6769433
 20
-919.54783697
 30
548.63999023
 11
1628.67694336
 21
-919.54783662
 31
548.63999023
 12
1628.67694406
 22
-927.54783674
 32
548.63999023
 13
1624.676944
 23
-927.54783709
 33
548.63999023
  0
INSERT
  5
4A5
100
AcDbEntity
  8
Sc.1_5
 62
     0
370
    20
100
AcDbBlockReference
  2
*X2003
 10
0.0
 20
0.0
 30
0.0
  0
3DFACE
  5
4A6
100
AcDbEntity
  8
Sc.1_5
 62
     7
  6
CONTINUOUS
370
    20
100
AcDbFace
 70
     0
 10
1624.6769433
 20
-933.7674389
 30
548.63999023
 11
1628.67694336
 21
-933.76743855
 31
548.63999023
 12
1628.67694406
 22
-941.76743867
 32
548.63999023
 13
1624.676944
 23
-941.76743902
 33
548.63999023
  0
INSERT
  5
4A7
100
AcDbEntity
  8
Sc.1_5
 62
     0
370
    20
100
AcDbBlockReference
  2
*X2004
 10
0.0
 20
0.0
 30
0.0
  0
3DFACE
  5
4A8
100
AcDbEntity
  8
Sc.1_5
 62
     7
  6
CONTINUOUS
370
    20
100
AcDbFace
 70
     0
 10
1659.66920653
 20
-819.77446941
 30
548.63999023
 11
1659.66920653
 21
-896.44987739
 31
548.63999023
 12
1631.66930622
 22
-896.44987739
 32
548.63999023
 13
1631.66930622
 23
-819.77446941
 33
548.63999023
  0
INSERT
  5
4A9
100
AcDbEntity
  8
Sc.1_5
 62
     0
370
    20
100
AcDbBlockReference
  2
*X2012
 10
0.0
 20
0.0
 30
0.0
  0
3DFACE
  5
4AA
100
AcDbEntity
  8
Sc.1_5
 62
     7
  6
CONTINUOUS
370
    20
100
AcDbFace
 70
     0
 10
1631.66920572
 20
-962.54966006
 30
914.4
 11
1631.66930622
 21
-905.44987739
 31
914.4
 12
1659.66920653
 22
-905.44987739
 32
914.4
 13
1659.66920614
 23
-962.54965884
 33
914.4
  0
INSERT
  5
4AB
100
AcDbEntity
  8
Sc.1_5
 62
     0
370
    20
100
AcDbBlockReference
  2
*X2013
 10
0.0
 20
0.0
 30
0.0
  0
3DFACE
  5
4AC
100
AcDbEntity
  8
Sc.1_5
 62
     7
  6
CONTINUOUS
370
    20
100
AcDbFace
 70
     0
 10
1659.66920653
 20
-971.54965898
 30
914.4
 11
1659.66920653
 21
-1009.77446941
 31
914.4
 12
1631.66930622
 22
-1009.77446941
 32
914.4
 13
1631.66920611
 23
-971.5496602
 33
914.4
  0
INSERT
  5
4AD
100
AcDbEntity
  8
Sc.1_5
 62
     0
370
    20
100
AcDbBlockReference
  2
*X2014
 10
0.0
 20
0.0
 30
0.0
  0
3DFACE
  5
4AE
100
AcDbEntity
  8
Sc.1_5
 62
     9
  6
CONTINUOUS
370
    20
100
AcDbFace
 70
     0
 10
1631.66930622
 20
-943.42007987
 30
548.63999023
 11
1634.66930627
 21
-943.42007987
 31
548.63999023
 12
1634.66930627
 22
-953.49172986
 32
548.63999023
 13
1631.66930622
 23
-953.49172986
 33
548.63999023
  0
LWPOLYLINE
  5
4AF
100
AcDbEntity
  8
Sc.1_5
 62
     9
  6
CONTINUOUS
100
AcDbPolyline
 90
        4
 70
     1
 43
0.0
 10
1675.76917742
 20
-947.34965875
 10
1677.76917742
 20
-947.34965875
 10
1677.76917742
 20
-949.74965878
 10
1675.76917742
 20
-949.74965878
  0
LINE
  5
4B0
100
AcDbEntity
  8
Sc.1_5
 62
     9
  6
CONTINUOUS
100
AcDbLine
 10
1677.76917742
 20
-949.74965878
 30
0.0
 11
1677.21509376
 21
-947.34965875
 31
0.0
  0
LINE
  5
4B1
100
AcDbEntity
  8
Sc.1_5
 62
     9
  6
CONTINUOUS
100
AcDbLine
 10
1677.2453466
 20
-949.74965878
 30
0.0
 11
1676.69126293
 21
-947.34965875
 31
0.0
  0
LINE
  5
4B2
100
AcDbEntity
  8
Sc.1_5
 62
     9
  6
CONTINUOUS
100
AcDbLine
 10
1676.76917741
 20
-949.74965878
 30
0.0
 11
1676.21509374
 21
-947.34965875
 31
0.0
  0
LWPOLYLINE
  5
4B3
100
AcDbEntity
  8
Sc.1_5
 62
     9
  6
CONTINUOUS
100
AcDbPolyline
 90
        4
 70
     1
 43
0.0
 10
1673.76917739
 20
-943.82007987
 10
1673.76917739
 20
-953.09172986
 10
1672.76917738
 20
-953.09172986
 10
1672.76917738
 20
-943.82007987
  0
LWPOLYLINE
  5
4B4
100
AcDbEntity
  8
Sc.1_5
 62
     9
  6
CONTINUOUS
100
AcDbPolyline
 90
        4
 70
     1
 43
0.0
 10
1675.76917742
 20
-946.49129199
 10
1675.76917742
 20
-950.49129205
 10
1673.76917739
 20
-950.49129205
 10
1673.76917739
 20
-946.49129199
  0
LINE
  5
4B5
100
AcDbEntity
  8
Sc.1_5
 62
     9
  6
CONTINUOUS
100
AcDbLine
 10
1675.76917742
 20
-949.54114472
 30
0.0
 11
1673.76917739
 21
-949.54114472
 31
0.0
  0
LINE
  5
4B6
100
AcDbEntity
  8
Sc.1_5
 62
     9
  6
CONTINUOUS
100
AcDbLine
 10
1675.76917742
 20
-947.47445925
 30
0.0
 11
1673.76917739
 21
-947.47445925
 31
0.0
  0
LINE
  5
4B7
100
AcDbEntity
  8
Sc.1_5
 62
     9
  6
CONTINUOUS
100
AcDbLine
 10
1676.2929774
 20
-949.74965878
 30
0.0
 11
1675.76917742
 21
-947.48083182
 31
0.0
  0
LWPOLYLINE
  5
4B8
100
AcDbEntity
  8
Sc.1_5
 62
     9
  6
CONTINUOUS
100
AcDbPolyline
 90
        4
 70
     1
 43
0.0
 10
1633.66930625
 20
-943.82007987
 10
1633.66930625
 20
-953.09172986
 10
1634.66930627
 20
-953.09172986
 10
1634.66930627
 20
-943.82007987
  0
LWPOLYLINE
  5
4B9
100
AcDbEntity
  8
Sc.1_5
 62
     9
  6
CONTINUOUS
100
AcDbPolyline
 90
        4
 70
     1
 43
0.0
 10
1631.66930622
 20
-946.49129199
 10
1631.66930622
 20
-950.49129205
 10
1633.66930625
 20
-950.49129205
 10
1633.66930625
 20
-946.49129199
  0
LINE
  5
4BA
100
AcDbEntity
  8
Sc.1_5
 62
     9
  6
CONTINUOUS
100
AcDbLine
 10
1631.66930622
 20
-949.54114472
 30
0.0
 11
1633.66930625
 21
-949.54114472
 31
0.0
  0
LINE
  5
4BB
100
AcDbEntity
  8
Sc.1_5
 62
     9
  6
CONTINUOUS
100
AcDbLine
 10
1631.66930622
 20
-947.47445925
 30
0.0
 11
1633.66930625
 21
-947.47445925
 31
0.0
  0
3DFACE
  5
4BC
100
AcDbEntity
  8
Sc.1_5
 62
     9
  6
CONTINUOUS
370
    20
100
AcDbFace
 70
     0
 10
1634.66930627
 20
-947.34965875
 30
548.63999023
 11
1634.66930627
 21
-949.74965878
 31
548.63999023
 12
1672.76917738
 22
-949.74965878
 32
548.63999023
 13
1672.76917738
 23
-947.34965875
 33
548.63999023
  0
LINE
  5
4BD
100
AcDbEntity
  8
Sc.1_5
 62
     7
  6
CONTINUOUS
 48
0.5
370
    -3
100
AcDbLine
 10
1709.49010312
 20
-982.25838232
 30
500.0
 11
1667.38312537
 21
-951.71701212
 31
500.0
  0
INSERT
  5
4BE
100
AcDbEntity
  8
Sc.1_5
 62
     7
  6
CONTINUOUS
370
    -3
100
AcDbBlockReference
  2
CDWK_EXTR_2
 10
1667.38312537
 20
-951.71701212
 30
500.0
 41
1.0
 42
1.0
 43
1.0
 50
324.04557159
  0
LWPOLYLINE
  5
4BF
102
{ACAD_REACTORS
330
4C0
102
}
100
AcDbEntity
  8
Sc.1_5
 62
     7
  6
CONTINUOUS
100
AcDbPolyline
 90
       17
 70
     1
 43
0.0
 10
1724.15503628
 20
-950.0979229
 10
1724.15503628
 20
-952.0979229
 10
1718.79098737
 20
-952.0979229
 10
1718.79098737
 20
-956.49064209
 10
1721.49815873
 20
-956.49064209
 10
1722.22144441
 20
-954.93955093
 10
1720.12783274
 20
-954.93955093
 10
1720.12783274
 20
-953.55205093
 10
1726.65967311
 20
-953.55205093
 10
1736.47341601
 20
-953.55205093
 10
1736.47341601
 20
-954.93955093
 10
1734.37980434
 20
-954.93955093
 10
1735.10309002
 20
-956.49064209
 10
1737.81026138
 20
-956.49064209
 10
1737.81026138
 20
-952.0979229
 10
1732.44621247
 20
-952.0979229
 10
1732.44621247
 20
-950.0979229
  0
HATCH
  5
4C0
100
AcDbEntity
  8
Sc.1_5
 62
     9
  6
CONTINUOUS
100
AcDbHatch
 10
0.0
 20
0.0
 30
0.0
210
0.0
220
0.0
230
1.0
  2
SOLID
 70
     1
 71
     1
 91
        1
 92
        7
 72
     0
 73
     1
 93
       17
 10
1724.15503628
 20
-950.0979229
 10
1724.15503628
 20
-952.0979229
 10
1718.79098737
 20
-952.0979229
 10
1718.79098737
 20
-956.49064209
 10
1721.49815873
 20
-956.49064209
 10
1722.22144441
 20
-954.93955093
 10
1720.12783274
 20
-954.93955093
 10
1720.12783274
 20
-953.55205093
 10
1726.65967311
 20
-953.55205093
 10
1736.47341601
 20
-953.55205093
 10
1736.47341601
 20
-954.93955093
 10
1734.37980434
 20
-954.93955093
 10
1735.10309002
 20
-956.49064209
 10
1737.81026138
 20
-956.49064209
 10
1737.81026138
 20
-952.0979229
 10
1732.44621247
 20
-952.0979229
 10
1732.44621247
 20
-950.0979229
 97
        1
330
4BF
 75
     0
 76
     2
 47
0.775229
 98
        1
 10
0.0
 20
0.0
  0
LWPOLYLINE
  5
4C1
100
AcDbEntity
  8
Sc.1_5
 62
     7
  6
CONTINUOUS
370
    35
100
AcDbPolyline
 90
       10
 70
     0
 43
0.0
 10
1721.35283263
 20
-954.43955093
 10
1720.62783262
 20
-954.43955093
 10
1720.62783262
 20
-954.05205093
 10
1722.15213199
 20
-954.05205093
 10
1722.85483172
 20
-963.04965898
 10
1733.74641703
 20
-963.04965898
 10
1734.44911676
 20
-954.05205093
 10
1735.97341613
 20
-954.05205093
 10
1735.97341613
 20
-954.43955093
 10
1735.24841612
 20
-954.43955093
  0
LWPOLYLINE
  5
4C2
102
{ACAD_REACTORS
330
4C3
102
}
100
AcDbEntity
  8
Sc.1_5
 62
     7
  6
CONTINUOUS
370
    -3
100
AcDbPolyline
 90
        4
 70
     1
 43
0.0
 10
1727.80062438
 20
-950.0979229
 10
1727.80062438
 20
-934.04987739
 10
1728.80062438
 20
-934.04987739
 10
1728.80062438
 20
-950.0979229
  0
HATCH
  5
4C3
100
AcDbEntity
  8
Sc.1_5
 62
     9
  6
CONTINUOUS
100
AcDbHatch
 10
0.0
 20
0.0
 30
0.0
210
0.0
220
0.0
230
1.0
  2
SOLID
 70
     1
 71
     1
 91
        1
 92
        7
 72
     0
 73
     1
 93
        4
 10
1727.80062438
 20
-950.0979229
 10
1727.80062438
 20
-934.04987739
 10
1728.80062438
 20
-934.04987739
 10
1728.80062438
 20
-950.0979229
 97
        1
330
4C2
 75
     0
 76
     2
 47
0.775229
 98
        1
 10
0.0
 20
0.0
  0
LWPOLYLINE
  5
4C4
100
AcDbEntity
  8
Sc.1_5
 62
     9
  6
CONTINUOUS
370
    20
100
AcDbPolyline
 90
       11
 70
     1
 43
0.0
 38
548.63999023
 39
-548.63999023
 10
1667.33097468
 20
-906.95060348
 10
1667.33097468
 20
-946.33818317
 10
1667.33024857
 20
-946.33837561
 10
1667.41182694
 20
-947.0816924
 10
1667.45725643
 20
-947.27375372
 10
1667.83024857
 20
-948.16277352
 10
1668.21999232
 20
-947.09941409
 10
1668.24451886
 20
-946.94642753
 10
1668.33024857
 20
-946.07334857
 10
1668.33024857
 20
-945.86845872
 10
1668.33024857
 20
-906.95132949
  0
LINE
  5
4C5
100
AcDbEntity
  8
Sc.1_5
 62
     9
  6
CONTINUOUS
370
    -3
100
AcDbLine
 10
1666.96417286
 20
-946.27081237
 30
0.0
 11
1667.33024857
 21
-946.06423219
 31
0.0
  0
LINE
  5
4C6
100
AcDbEntity
  8
Sc.1_5
 62
     9
  6
CONTINUOUS
370
    -3
100
AcDbLine
 10
1667.33024857
 20
-946.06423219
 30
0.0
 11
1668.33024857
 21
-945.86845872
 31
0.0
  0
LINE
  5
4C7
100
AcDbEntity
  8
Sc.1_5
 62
     9
  6
CONTINUOUS
370
    -3
100
AcDbLine
 10
1668.33024857
 20
-945.86845872
 30
0.0
 11
1668.69217293
 21
-945.8653983
 31
0.0
  0
LINE
  5
4C8
100
AcDbEntity
  8
Sc.1_5
 62
     9
  6
CONTINUOUS
370
    -3
100
AcDbLine
 10
1668.69217293
 20
-945.8653983
 30
0.0
 11
1668.33024857
 21
-946.07334857
 31
0.0
  0
LINE
  5
4C9
100
AcDbEntity
  8
Sc.1_5
 62
     9
  6
CONTINUOUS
370
    -3
100
AcDbLine
 10
1668.33024857
 20
-946.07334857
 30
0.0
 11
1667.33024857
 21
-946.33837561
 31
0.0
  0
LINE
  5
4CA
100
AcDbEntity
  8
Sc.1_5
 62
     9
  6
CONTINUOUS
370
    -3
100
AcDbLine
 10
1667.33024857
 20
-946.33837561
 30
0.0
 11
1666.96417286
 21
-946.27081237
 31
0.0
  0
LINE
  5
4CB
100
AcDbEntity
  8
Sc.1_5
 62
     9
  6
CONTINUOUS
370
    -3
100
AcDbLine
 10
1667.13731882
 20
-947.2167843
 30
0.0
 11
1667.41182694
 21
-947.0816924
 31
0.0
  0
LINE
  5
4CC
100
AcDbEntity
  8
Sc.1_5
 62
     9
  6
CONTINUOUS
370
    -3
100
AcDbLine
 10
1667.41182694
 20
-947.0816924
 30
0.0
 11
1668.24451886
 21
-946.94642753
 31
0.0
  0
LINE
  5
4CD
100
AcDbEntity
  8
Sc.1_5
 62
     9
  6
CONTINUOUS
370
    -3
100
AcDbLine
 10
1668.24451886
 20
-946.94642753
 30
0.0
 11
1668.51902698
 21
-946.94642753
 31
0.0
  0
LINE
  5
4CE
100
AcDbEntity
  8
Sc.1_5
 62
     9
  6
CONTINUOUS
370
    -3
100
AcDbLine
 10
1668.51902698
 20
-946.94642753
 30
0.0
 11
1668.21999232
 21
-947.09941409
 31
0.0
  0
LINE
  5
4CF
100
AcDbEntity
  8
Sc.1_5
 62
     9
  6
CONTINUOUS
370
    -3
100
AcDbLine
 10
1668.21999232
 20
-947.09941409
 30
0.0
 11
1667.45725643
 21
-947.27375372
 31
0.0
  0
LINE
  5
4D0
100
AcDbEntity
  8
Sc.1_5
 62
     9
  6
CONTINUOUS
370
    -3
100
AcDbLine
 10
1667.45725643
 20
-947.27375372
 30
0.0
 11
1667.13731882
 21
-947.2167843
 31
0.0
  0
LWPOLYLINE
  5
4D1
100
AcDbEntity
  8
Sc.1_5
 62
     9
  6
CONTINUOUS
370
    20
100
AcDbPolyline
 90
        8
 70
     1
 43
0.0
 38
510.0
 39
-510.0
 10
1668.83024857
 20
-944.74580214
 10
1668.33024857
 20
-945.07885062
 10
1667.33024857
 20
-945.33987635
 10
1666.83024857
 20
-945.40287734
 10
1667.33024857
 20
-945.06982886
 10
1668.33024857
 20
-944.80880313
 10
1668.83024857
 20
-944.74580214
 10
1666.83024857
 20
-945.40287734
  0
LWPOLYLINE
  5
4D2
100
AcDbEntity
  8
Sc.1_5
 62
     9
  6
CONTINUOUS
370
    20
100
AcDbPolyline
 90
        8
 70
     1
 43
0.0
 38
510.0
 39
-510.0
 10
1668.83024857
 20
-943.50856453
 10
1668.33024857
 20
-943.84161301
 10
1667.33024857
 20
-944.10263873
 10
1666.83024857
 20
-944.16563973
 10
1667.33024857
 20
-943.83259125
 10
1668.33024857
 20
-943.57156552
 10
1668.83024857
 20
-943.50856453
 10
1666.83024857
 20
-944.16563973
  0
3DFACE
  5
4D3
100
AcDbEntity
  8
Sc.1_5
 62
     9
  6
CONTINUOUS
370
    20
100
AcDbFace
 70
     0
 10
1666.03024857
 20
-905.64987739
 30
510.0
 11
1667.33097468
 21
-906.95060348
 31
510.0
 12
1668.32952252
 22
-906.95060342
 32
510.0
 13
1669.63024857
 23
-905.64987739
 33
510.0
  0
3DFACE
  5
4D4
100
AcDbEntity
  8
Sc.1_5
 62
     9
  6
CONTINUOUS
370
    20
100
AcDbFace
 70
     0
 10
1666.03024857
 20
-905.64987739
 30
510.0
 11
1666.03024857
 21
-905.44987739
 31
510.0
 12
1669.63024857
 22
-905.44987739
 32
510.0
 13
1669.63024857
 23
-905.64987739
 33
510.0
  0
LWPOLYLINE
  5
4D5
100
AcDbEntity
  8
Sc.1_5
 62
     9
  6
CADWORK_13
370
    -3
100
AcDbPolyline
 90
        4
 70
     0
 43
0.0
 38
510.0
 10
1668.33024857
 20
-905.44987739
 10
1668.13024857
 20
-906.27827243
 10
1667.53024857
 20
-906.27827243
 10
1667.33024857
 20
-905.44987739
  0
LINE
  5
4D6
100
AcDbEntity
  8
Sc.1_5
 62
     9
  6
CADWORK_13
370
    -3
100
AcDbLine
 10
1667.83024857
 20
-906.27827243
 30
510.0
 11
1667.83024857
 21
-905.44987739
 31
510.0
  0
LWPOLYLINE
  5
4D7
100
AcDbEntity
  8
Sc.1_5
 62
     9
  6
CONTINUOUS
370
    20
100
AcDbPolyline
 90
        8
 70
     1
 43
0.0
 38
510.0
 39
-510.0
 10
1668.83024857
 20
-942.27132692
 10
1668.33024857
 20
-942.6043754
 10
1667.33024857
 20
-942.86540112
 10
1666.83024857
 20
-942.92840211
 10
1667.33024857
 20
-942.59535364
 10
1668.33024857
 20
-942.33432791
 10
1668.83024857
 20
-942.27132692
 10
1666.83024857
 20
-942.92840211
  0
LWPOLYLINE
  5
4D8
100
AcDbEntity
  8
Sc.1_5
 62
     9
  6
CONTINUOUS
370
    20
100
AcDbPolyline
 90
        8
 70
     1
 43
0.0
 38
510.0
 39
-510.0
 10
1668.83024857
 20
-941.03408931
 10
1668.33024857
 20
-941.36713778
 10
1667.33024857
 20
-941.62816351
 10
1666.83024857
 20
-941.6911645
 10
1667.33024857
 20
-941.35811602
 10
1668.33024857
 20
-941.0970903
 10
1668.83024857
 20
-941.03408931
 10
1666.83024857
 20
-941.6911645
  0
LWPOLYLINE
  5
4D9
100
AcDbEntity
  8
Sc.1_5
 62
     9
  6
CONTINUOUS
370
    20
100
AcDbPolyline
 90
        8
 70
     1
 43
0.0
 38
510.0
 39
-510.0
 10
1668.83024857
 20
-939.79685169
 10
1668.33024857
 20
-940.12990017
 10
1667.33024857
 20
-940.3909259
 10
1666.83024857
 20
-940.45392689
 10
1667.33024857
 20
-940.12087841
 10
1668.33024857
 20
-939.85985269
 10
1668.83024857
 20
-939.79685169
 10
1666.83024857
 20
-940.45392689
  0
LWPOLYLINE
  5
4DA
100
AcDbEntity
  8
Sc.1_5
 62
     9
  6
CONTINUOUS
370
    20
100
AcDbPolyline
 90
        8
 70
     1
 43
0.0
 38
510.0
 39
-510.0
 10
1668.83024857
 20
-938.55961408
 10
1668.33024857
 20
-938.89266256
 10
1667.33024857
 20
-939.15368829
 10
1666.83024857
 20
-939.21668928
 10
1667.33024857
 20
-938.8836408
 10
1668.33024857
 20
-938.62261507
 10
1668.83024857
 20
-938.55961408
 10
1666.83024857
 20
-939.21668928
  0
LWPOLYLINE
  5
4DB
100
AcDbEntity
  8
Sc.1_5
 62
     9
  6
CONTINUOUS
370
    20
100
AcDbPolyline
 90
        8
 70
     1
 43
0.0
 38
510.0
 39
-510.0
 10
1668.83024857
 20
-937.32237647
 10
1668.33024857
 20
-937.65542495
 10
1667.33024857
 20
-937.91645068
 10
1666.83024857
 20
-937.97945167
 10
1667.33024857
 20
-937.64640319
 10
1668.33024857
 20
-937.38537746
 10
1668.83024857
 20
-937.32237647
 10
1666.83024857
 20
-937.97945167
  0
LWPOLYLINE
  5
4DC
100
AcDbEntity
  8
Sc.1_5
 62
     9
  6
CONTINUOUS
370
    20
100
AcDbPolyline
 90
        8
 70
     1
 43
0.0
 38
510.0
 39
-510.0
 10
1668.83024857
 20
-936.08513886
 10
1668.33024857
 20
-936.41818734
 10
1667.33024857
 20
-936.67921306
 10
1666.83024857
 20
-936.74221406
 10
1667.33024857
 20
-936.40916558
 10
1668.33024857
 20
-936.14813985
 10
1668.83024857
 20
-936.08513886
 10
1666.83024857
 20
-936.74221406
  0
LWPOLYLINE
  5
4DD
100
AcDbEntity
  8
Sc.1_5
 62
     9
  6
CONTINUOUS
370
    20
100
AcDbPolyline
 90
        8
 70
     1
 43
0.0
 38
510.0
 39
-510.0
 10
1668.83024857
 20
-934.84790125
 10
1668.33024857
 20
-935.18094973
 10
1667.33024857
 20
-935.44197545
 10
1666.83024857
 20
-935.50497644
 10
1667.33024857
 20
-935.17192797
 10
1668.33024857
 20
-934.91090224
 10
1668.83024857
 20
-934.84790125
 10
1666.83024857
 20
-935.50497644
  0
LWPOLYLINE
  5
4DE
100
AcDbEntity
  8
Sc.1_5
 62
     9
  6
CONTINUOUS
370
    20
100
AcDbPolyline
 90
        8
 70
     1
 43
0.0
 38
510.0
 39
-510.0
 10
1668.83024857
 20
-933.61066364
 10
1668.33024857
 20
-933.94371211
 10
1667.33024857
 20
-934.20473784
 10
1666.83024857
 20
-934.26773883
 10
1667.33024857
 20
-933.93469035
 10
1668.33024857
 20
-933.67366463
 10
1668.83024857
 20
-933.61066364
 10
1666.83024857
 20
-934.26773883
  0
LWPOLYLINE
  5
4DF
100
AcDbEntity
  8
Sc.1_5
 62
     9
  6
CONTINUOUS
370
    20
100
AcDbPolyline
 90
        8
 70
     1
 43
0.0
 38
510.0
 39
-510.0
 10
1668.83024857
 20
-932.37342602
 10
1668.33024857
 20
-932.7064745
 10
1667.33024857
 20
-932.96750023
 10
1666.83024857
 20
-933.03050122
 10
1667.33024857
 20
-932.69745274
 10
1668.33024857
 20
-932.43642702
 10
1668.83024857
 20
-932.37342602
 10
1666.83024857
 20
-933.03050122
  0
LWPOLYLINE
  5
4E0
100
AcDbEntity
  8
Sc.1_5
 62
     9
  6
CONTINUOUS
370
    20
100
AcDbPolyline
 90
        8
 70
     1
 43
0.0
 38
510.0
 39
-510.0
 10
1668.83024857
 20
-931.13618841
 10
1668.33024857
 20
-931.46923689
 10
1667.33024857
 20
-931.73026262
 10
1666.83024857
 20
-931.79326361
 10
1667.33024857
 20
-931.46021513
 10
1668.33024857
 20
-931.1991894
 10
1668.83024857
 20
-931.13618841
 10
1666.83024857
 20
-931.79326361
  0
LWPOLYLINE
  5
4E1
100
AcDbEntity
  8
Sc.1_5
 62
     9
  6
CONTINUOUS
370
    20
100
AcDbPolyline
 90
        8
 70
     1
 43
0.0
 38
510.0
 39
-510.0
 10
1668.83024857
 20
-929.8989508
 10
1668.33024857
 20
-930.23199928
 10
1667.33024857
 20
-930.49302501
 10
1666.83024857
 20
-930.556026
 10
1667.33024857
 20
-930.22297752
 10
1668.33024857
 20
-929.96195179
 10
1668.83024857
 20
-929.8989508
 10
1666.83024857
 20
-930.556026
  0
LWPOLYLINE
  5
4E2
100
AcDbEntity
  8
Sc.1_5
 62
     9
  6
CONTINUOUS
370
    20
100
AcDbPolyline
 90
        8
 70
     1
 43
0.0
 38
510.0
 39
-510.0
 10
1668.83024857
 20
-928.66171319
 10
1668.33024857
 20
-928.99476167
 10
1667.33024857
 20
-929.25578739
 10
1666.83024857
 20
-929.31878839
 10
1667.33024857
 20
-928.98573991
 10
1668.33024857
 20
-928.72471418
 10
1668.83024857
 20
-928.66171319
 10
1666.83024857
 20
-929.31878839
  0
LWPOLYLINE
  5
4E3
100
AcDbEntity
  8
Sc.1_5
 62
     9
  6
CONTINUOUS
370
    20
100
AcDbPolyline
 90
        8
 70
     1
 43
0.0
 38
510.0
 39
-510.0
 10
1668.83024857
 20
-927.42447558
 10
1668.33024857
 20
-927.75752406
 10
1667.33024857
 20
-928.01854978
 10
1666.83024857
 20
-928.08155077
 10
1667.33024857
 20
-927.7485023
 10
1668.33024857
 20
-927.48747657
 10
1668.83024857
 20
-927.42447558
 10
1666.83024857
 20
-928.08155077
  0
LWPOLYLINE
  5
4E4
100
AcDbEntity
  8
Sc.1_5
 62
     9
  6
CONTINUOUS
370
    20
100
AcDbPolyline
 90
        8
 70
     1
 43
0.0
 38
510.0
 39
-510.0
 10
1668.83024857
 20
-926.18723797
 10
1668.33024857
 20
-926.52028644
 10
1667.33024857
 20
-926.78131217
 10
1666.83024857
 20
-926.84431316
 10
1667.33024857
 20
-926.51126468
 10
1668.33024857
 20
-926.25023896
 10
1668.83024857
 20
-926.18723797
 10
1666.83024857
 20
-926.84431316
  0
LWPOLYLINE
  5
4E5
100
AcDbEntity
  8
Sc.1_5
 62
     9
  6
CONTINUOUS
370
    20
100
AcDbPolyline
 90
        8
 70
     1
 43
0.0
 38
510.0
 39
-510.0
 10
1668.83024857
 20
-924.95000035
 10
1668.33024857
 20
-925.28304883
 10
1667.33024857
 20
-925.54407456
 10
1666.83024857
 20
-925.60707555
 10
1667.33024857
 20
-925.27402707
 10
1668.33024857
 20
-925.01300135
 10
1668.83024857
 20
-924.95000035
 10
1666.83024857
 20
-925.60707555
  0
LWPOLYLINE
  5
4E6
100
AcDbEntity
  8
Sc.1_5
 62
     9
  6
CONTINUOUS
370
    20
100
AcDbPolyline
 90
        8
 70
     1
 43
0.0
 38
510.0
 39
-510.0
 10
1668.83024857
 20
-923.71276274
 10
1668.33024857
 20
-924.04581122
 10
1667.33024857
 20
-924.30683695
 10
1666.83024857
 20
-924.36983794
 10
1667.33024857
 20
-924.03678946
 10
1668.33024857
 20
-923.77576373
 10
1668.83024857
 20
-923.71276274
 10
1666.83024857
 20
-924.36983794
  0
LWPOLYLINE
  5
4E7
100
AcDbEntity
  8
Sc.1_5
 62
     9
  6
CONTINUOUS
370
    20
100
AcDbPolyline
 90
        8
 70
     1
 43
0.0
 38
510.0
 39
-510.0
 10
1668.83024857
 20
-922.47552513
 10
1668.33024857
 20
-922.80857361
 10
1667.33024857
 20
-923.06959933
 10
1666.83024857
 20
-923.13260033
 10
1667.33024857
 20
-922.79955185
 10
1668.33024857
 20
-922.53852612
 10
1668.83024857
 20
-922.47552513
 10
1666.83024857
 20
-923.13260033
  0
LWPOLYLINE
  5
4E8
100
AcDbEntity
  8
Sc.1_5
 62
     9
  6
CONTINUOUS
370
    20
100
AcDbPolyline
 90
        8
 70
     1
 43
0.0
 38
510.0
 39
-510.0
 10
1668.83024857
 20
-921.23828752
 10
1668.33024857
 20
-921.571336
 10
1667.33024857
 20
-921.83236172
 10
1666.83024857
 20
-921.89536272
 10
1667.33024857
 20
-921.56231424
 10
1668.33024857
 20
-921.30128851
 10
1668.83024857
 20
-921.23828752
 10
1666.83024857
 20
-921.89536272
  0
LWPOLYLINE
  5
4E9
100
AcDbEntity
  8
Sc.1_5
 62
     9
  6
CONTINUOUS
370
    20
100
AcDbPolyline
 90
        8
 70
     1
 43
0.0
 38
510.0
 39
-510.0
 10
1668.83024857
 20
-920.00104991
 10
1668.33024857
 20
-920.33409838
 10
1667.33024857
 20
-920.59512411
 10
1666.83024857
 20
-920.6581251
 10
1667.33024857
 20
-920.32507663
 10
1668.33024857
 20
-920.0640509
 10
1668.83024857
 20
-920.00104991
 10
1666.83024857
 20
-920.6581251
  0
LWPOLYLINE
  5
4EA
100
AcDbEntity
  8
Sc.1_5
 62
     9
  6
CONTINUOUS
370
    20
100
AcDbPolyline
 90
        8
 70
     1
 43
0.0
 38
510.0
 39
-510.0
 10
1668.83024857
 20
-918.7638123
 10
1668.33024857
 20
-919.09686077
 10
1667.33024857
 20
-919.3578865
 10
1666.83024857
 20
-919.42088749
 10
1667.33024857
 20
-919.08783901
 10
1668.33024857
 20
-918.82681329
 10
1668.83024857
 20
-918.7638123
 10
1666.83024857
 20
-919.42088749
  0
LWPOLYLINE
  5
4EB
100
AcDbEntity
  8
Sc.1_5
 62
     9
  6
CONTINUOUS
370
    20
100
AcDbPolyline
 90
        8
 70
     1
 43
0.0
 38
510.0
 39
-510.0
 10
1668.83024857
 20
-917.52657468
 10
1668.33024857
 20
-917.85962316
 10
1667.33024857
 20
-918.12064889
 10
1666.83024857
 20
-918.18364988
 10
1667.33024857
 20
-917.8506014
 10
1668.33024857
 20
-917.58957568
 10
1668.83024857
 20
-917.52657468
 10
1666.83024857
 20
-918.18364988
  0
LWPOLYLINE
  5
4EC
100
AcDbEntity
  8
Sc.1_5
 62
     9
  6
CONTINUOUS
370
    20
100
AcDbPolyline
 90
        8
 70
     1
 43
0.0
 38
510.0
 39
-510.0
 10
1668.83024857
 20
-916.28933707
 10
1668.33024857
 20
-916.62238555
 10
1667.33024857
 20
-916.88341128
 10
1666.83024857
 20
-916.94641227
 10
1667.33024857
 20
-916.61336379
 10
1668.33024857
 20
-916.35233806
 10
1668.83024857
 20
-916.28933707
 10
1666.83024857
 20
-916.94641227
  0
LWPOLYLINE
  5
4ED
100
AcDbEntity
  8
Sc.1_5
 62
     9
  6
CONTINUOUS
370
    20
100
AcDbPolyline
 90
        8
 70
     1
 43
0.0
 38
510.0
 39
-510.0
 10
1668.83024857
 20
-915.05209946
 10
1668.33024857
 20
-915.38514794
 10
1667.33024857
 20
-915.64617366
 10
1666.83024857
 20
-915.70917466
 10
1667.33024857
 20
-915.37612618
 10
1668.33024857
 20
-915.11510045
 10
1668.83024857
 20
-915.05209946
 10
1666.83024857
 20
-915.70917466
  0
LWPOLYLINE
  5
4EE
100
AcDbEntity
  8
Sc.1_5
 62
     9
  6
CONTINUOUS
370
    20
100
AcDbPolyline
 90
        8
 70
     1
 43
0.0
 38
510.0
 39
-510.0
 10
1668.83024857
 20
-913.81486185
 10
1668.33024857
 20
-914.14791033
 10
1667.33024857
 20
-914.40893605
 10
1666.83024857
 20
-914.47193704
 10
1667.33024857
 20
-914.13888857
 10
1668.33024857
 20
-913.87786284
 10
1668.83024857
 20
-913.81486185
 10
1666.83024857
 20
-914.47193704
  0
LWPOLYLINE
  5
4EF
100
AcDbEntity
  8
Sc.1_5
 62
     9
  6
CONTINUOUS
370
    20
100
AcDbPolyline
 90
        8
 70
     1
 43
0.0
 38
510.0
 39
-510.0
 10
1668.83024857
 20
-912.57762424
 10
1668.33024857
 20
-912.91067271
 10
1667.33024857
 20
-913.17169844
 10
1666.83024857
 20
-913.23469943
 10
1667.33024857
 20
-912.90165096
 10
1668.33024857
 20
-912.64062523
 10
1668.83024857
 20
-912.57762424
 10
1666.83024857
 20
-913.23469943
  0
LWPOLYLINE
  5
4F0
100
AcDbEntity
  8
Sc.1_5
 62
     9
  6
CONTINUOUS
370
    20
100
AcDbPolyline
 90
        8
 70
     1
 43
0.0
 38
510.0
 39
-510.0
 10
1668.83024857
 20
-911.34038663
 10
1668.33024857
 20
-911.6734351
 10
1667.33024857
 20
-911.93446083
 10
1666.83024857
 20
-911.99746182
 10
1667.33024857
 20
-911.66441334
 10
1668.33024857
 20
-911.40338762
 10
1668.83024857
 20
-911.34038663
 10
1666.83024857
 20
-911.99746182
  0
LWPOLYLINE
  5
4F1
100
AcDbEntity
  8
Sc.1_5
 62
     9
  6
CONTINUOUS
370
    20
100
AcDbPolyline
 90
        8
 70
     1
 43
0.0
 38
510.0
 39
-510.0
 10
1668.83024857
 20
-910.10314901
 10
1668.33024857
 20
-910.43619749
 10
1667.33024857
 20
-910.69722322
 10
1666.83024857
 20
-910.76022421
 10
1667.33024857
 20
-910.42717573
 10
1668.33024857
 20
-910.16615001
 10
1668.83024857
 20
-910.10314901
 10
1666.83024857
 20
-910.76022421
  0
LWPOLYLINE
  5
4F2
100
AcDbEntity
  8
Sc.1_5
 62
     9
  6
CONTINUOUS
370
    20
100
AcDbPolyline
 90
        8
 70
     1
 43
0.0
 38
510.0
 39
-510.0
 10
1668.83024857
 20
-908.8659114
 10
1668.33024857
 20
-909.19895988
 10
1667.33024857
 20
-909.45998561
 10
1666.83024857
 20
-909.5229866
 10
1667.33024857
 20
-909.18993812
 10
1668.33024857
 20
-908.92891239
 10
1668.83024857
 20
-908.8659114
 10
1666.83024857
 20
-909.5229866
  0
LWPOLYLINE
  5
4F3
100
AcDbEntity
  8
Sc.1_5
 62
     9
  6
CONTINUOUS
370
    20
100
AcDbPolyline
 90
        8
 70
     1
 43
0.0
 38
510.0
 39
-510.0
 10
1668.83024857
 20
-907.62867379
 10
1668.33024857
 20
-907.96172227
 10
1667.33024857
 20
-908.22274799
 10
1666.83024857
 20
-908.28574899
 10
1667.33024857
 20
-907.95270051
 10
1668.33024857
 20
-907.69167478
 10
1668.83024857
 20
-907.62867379
 10
1666.83024857
 20
-908.28574899
  0
LWPOLYLINE
  5
4F4
100
AcDbEntity
  8
Sc.1_5
 62
     9
  6
CONTINUOUS
370
    20
100
AcDbPolyline
 90
        6
 70
     1
 43
0.0
 38
548.63999023
 39
-548.63999023
 10
1667.33024857
 20
-946.06423219
 10
1666.96417286
 20
-946.27081237
 10
1667.33024857
 20
-946.33837561
 10
1668.33024857
 20
-946.07334857
 10
1668.69217293
 20
-945.8653983
 10
1668.33024857
 20
-945.86845872
  0
LINE
  5
4F5
100
AcDbEntity
  8
Sc.1_5
 62
     9
  6
CONTINUOUS
370
    -3
100
AcDbLine
 10
1666.96417286
 20
-946.27081237
 30
0.0
 11
1668.69217293
 21
-945.8653983
 31
0.0
  0
LWPOLYLINE
  5
4F6
100
AcDbEntity
  8
Sc.1_5
 62
     9
  6
CONTINUOUS
370
    20
100
AcDbPolyline
 90
        6
 70
     1
 43
0.0
 38
548.63999023
 39
-548.63999023
 10
1667.13731882
 20
-947.2167843
 10
1667.45725643
 20
-947.27375372
 10
1668.21999232
 20
-947.09941409
 10
1668.51902698
 20
-946.94642753
 10
1668.24451886
 20
-946.94642753
 10
1667.41182694
 20
-947.0816924
  0
LINE
  5
4F7
100
AcDbEntity
  8
Sc.1_5
 62
     9
  6
CONTINUOUS
370
    -3
100
AcDbLine
 10
1667.13731882
 20
-947.2167843
 30
0.0
 11
1668.51902698
 21
-946.94642753
 31
0.0
  0
TEXT
  5
4F8
100
AcDbEntity
  8
Sc.1_5
 62
     7
370
    18
100
AcDbText
 10
1710.18976843
 20
-845.64291031
 30
0.0
 40
2.5
  1
Stud frame wall to NZS3604:2011
  7
TAHOMA
 50
0.0
 41
0.8
 51
0.0
100
AcDbText
  0
TEXT
  5
4F9
100
AcDbEntity
  8
Sc.1_5
 62
     7
370
    18
100
AcDbText
 10
1710.18976843
 20
-971.95074698
 30
0.0
 40
2.5
  1
Ceiling, depending on aesthetic and
  7
TAHOMA
 50
0.0
 41
0.8
 51
0.0
100
AcDbText
  0
TEXT
  5
4FA
100
AcDbEntity
  8
Sc.1_5
 62
     7
370
    18
100
AcDbText
 10
1710.18976843
 20
-983.68301484
 30
0.0
 40
2.5
  1
Ribbon plate fixed to studs,
  7
TAHOMA
 50
0.0
 41
0.8
 51
0.0
100
AcDbText
  0
TEXT
  5
4FB
100
AcDbEntity
  8
Sc.1_5
 62
     7
370
    35
100
AcDbText
 10
1710.18976843
 20
-894.25631386
 30
0.0
 40
2.5
  1
Woodspan PLT floor panel
  7
TAHOMA
 50
0.0
 41
0.8
 51
0.0
100
AcDbText
  0
TEXT
  5
4FC
100
AcDbEntity
  8
Sc.1_5
 62
     7
370
    18
100
AcDbText
 10
1710.18976843
 20
-975.45074698
 30
0.0
 40
2.5
  1
acoustic requirements
  7
TAHOMA
 50
0.0
 41
0.8
 51
0.0
100
AcDbText
  0
TEXT
  5
4FD
100
AcDbEntity
  8
Sc.1_5
 62
     7
370
    18
100
AcDbText
 10
1710.18976843
 20
-897.75631386
 30
0.0
 40
2.5
  1
fixings as per engineer's details
  7
TAHOMA
 50
0.0
 41
0.8
 51
0.0
100
AcDbText
  0
TEXT
  5
4FE
100
AcDbEntity
  8
Sc.1_5
 62
     7
370
    18
100
AcDbText
 10
1710.18976843
 20
-987.18301484
 30
0.0
 40
2.5
  1
size and fixings per engineer's details
  7
TAHOMA
 50
0.0
 41
0.8
 51
0.0
100
AcDbText
  0
TEXT
  5
4FF
100
AcDbEntity
  8
Sc.1_5
 62
     7
370
    18
100
AcDbText
 10
1710.18976843
 20
-849.14291031
 30
0.0
 40
2.5
  1
Balloon framing, studs continuous
  7
TAHOMA
 50
0.0
 41
0.8
 51
0.0
100
AcDbText
  0
TEXT
  5
500
100
AcDbEntity
  8
LEGEND
 62
     7
370
    -3
100
AcDbText
 10
1782.84527623
 20
-1050.08795572
 30
0.0
 40
1.60000002
  1
Date
  7
TAHOMA
 50
0.0
 41
1.0
 51
0.0
100
AcDbText
  0
TEXT
  5
501
100
AcDbEntity
  8
LEGEND
 62
     7
370
    -3
100
AcDbText
 10
1767.93702756
 20
-1058.71913647
 30
0.0
 40
1.60000002
  1
Detail
  7
TAHOMA
 50
0.0
 41
1.0
 51
0.0
100
AcDbText
  0
TEXT
  5
502
100
AcDbEntity
  8
LEGEND
 62
     7
370
    18
100
AcDbText
 10
1771.3646428
 20
-1054.52910833
 30
0.0
 40
2.79999995
  1
1.0
  7
TAHOMA
 50
0.0
 41
1.0
 51
0.0
100
AcDbText
  0
TEXT
  5
503
100
AcDbEntity
  8
LEGEND
 62
     7
370
    -3
100
AcDbText
 10
1767.93702756
 20
-1050.08795572
 30
0.0
 40
1.60000002
  1
Version
  7
TAHOMA
 50
0.0
 41
1.0
 51
0.0
100
AcDbText
  0
TEXT
  5
504
100
AcDbEntity
  8
LEGEND
 62
     7
370
    18
100
AcDbText
 10
1695.94010079
 20
-1061.42145705
 30
0.0
 40
4.0
  1
Balloon Framing - Option 1
  7
TAHOMA
 50
0.0
 41
0.95
 51
0.0
100
AcDbText
  0
TEXT
  5
505
100
AcDbEntity
  8
LEGEND
 62
     7
370
    -3
100
AcDbText
 10
1636.99623625
 20
-1050.08795572
 30
0.0
 40
1.60000002
  1
Phone:
  7
TAHOMA
 50
0.0
 41
1.0
 51
0.0
100
AcDbText
  0
TEXT
  5
506
100
AcDbEntity
  8
LEGEND
 62
     7
370
    -3
100
AcDbText
 10
1636.99623625
 20
-1054.20874289
 30
0.0
 40
1.60000002
  1
Email:
  7
TAHOMA
 50
0.0
 41
1.0
 51
0.0
100
AcDbText
  0
TEXT
  5
507
100
AcDbEntity
  8
LEGEND
 62
     7
370
    -3
100
AcDbText
 10
1636.99623625
 20
-1058.32953005
 30
0.0
 40
1.60000002
  1
Web:
  7
TAHOMA
 50
0.0
 41
1.0
 51
0.0
100
AcDbText
  0
TEXT
  5
508
100
AcDbEntity
  8
LEGEND
 62
     7
370
    18
100
AcDbText
 10
1646.89821722
 20
-1050.88795572
 30
0.0
 40
2.4000001
  1
06 755 9000
  7
TAHOMA
 50
0.0
 41
1.0
 51
0.0
100
AcDbText
  0
TEXT
  5
509
100
AcDbEntity
  8
LEGEND
 62
     7
370
    18
100
AcDbText
 10
1646.89821722
 20
-1055.00874289
 30
0.0
 40
2.4000001
  1
info@woodspan.co.nz
  7
TAHOMA
 50
0.0
 41
1.0
 51
0.0
100
AcDbText
  0
TEXT
  5
50A
100
AcDbEntity
  8
LEGEND
 62
     7
370
    18
100
AcDbText
 10
1646.89821722
 20
-1059.12953005
 30
0.0
 40
2.4000001
  1
www.woodspan.co.nz
  7
TAHOMA
 50
0.0
 41
1.0
 51
0.0
100
AcDbText
  0
TEXT
  5
50B
100
AcDbEntity
  8
LEGEND
 62
     7
370
    18
100
AcDbText
 10
1636.94860197
 20
-1063.25031721
 30
0.0
 40
2.4000001
  1
Connett Road, Bell Block, New Plymouth
  7
TAHOMA
 50
0.0
 41
1.0
 51
0.0
100
AcDbText
  0
TEXT
  5
50C
100
AcDbEntity
  8
LEGEND
 62
     7
370
    18
100
AcDbText
 10
1783.9309257
 20
-1054.32910833
 30
0.0
 40
2.4000001
  1
11.07.2019
  7
TAHOMA
 50
0.0
 41
1.0
 51
0.0
100
AcDbText
  0
TEXT
  5
50D
100
AcDbEntity
  8
LEGEND
 62
     7
370
    18
100
AcDbText
 10
1775.96430393
 20
-1062.26246302
 30
0.0
 40
4.0
  1

  7
TAHOMA
 50
0.0
 41
0.95
 51
0.0
100
AcDbText
  0
TEXT
  5
50E
100
AcDbEntity
  8
LEGEND
 62
     7
370
    18
100
AcDbText
 10
1776.73000716
 20
-1062.58554495
 30
0.0
 40
4.0
  1
PLT 2.1
  7
TAHOMA
 50
0.0
 41
0.95
 51
0.0
100
AcDbText
  0
TEXT
  5
50F
100
AcDbEntity
  8
LEGEND
 62
     7
370
    18
100
AcDbText
 10
1695.94010079
 20
-1054.66228266
 30
0.0
 40
4.0
  1
PLT mid floor
  7
TAHOMA
 50
0.0
 41
0.95
 51
0.0
100
AcDbText
  0
TEXT
  5
510
100
AcDbEntity
  8
LEGEND
 62
     7
370
    18
100
AcDbText
 10
1688.57146122
 20
-1045.12756884
 30
0.0
 40
2.4000001
  1
Indicative details only
  7
TAHOMA
 50
0.0
 41
1.0
 51
0.0
100
AcDbText
  0
ENDSEC
  0
SECTION
  2
OBJECTS
  0
DICTIONARY
  5
1
100
AcDbDictionary
  3
ACAD_GROUP
350
2
  3
ACAD_MLINESTYLE
350
3
  0
DICTIONARY
  5
2
102
{CDWK_REACTORS
330
1
102
}
100
AcDbDictionary
  0
DICTIONARY
  5
3
102
{CDWK_REACTORS
330
1
102
}
100
AcDbDictionary
  3
STANDARD
350
4
  0
MLINESTYLE
  5
4
102
{CDWK_REACTORS
330
3
102
}
100
AcDbMlineStyle
  2
STANDARD
 70
     0
  3

 62
     0
 51
90.0
 52
90.0
 71
     2
 49
0.5
 62
   256
  6
BYLAYER
 49
-0.5
 62
   256
  6
BYLAYER
  0
ENDSEC
  0
EOF
