  0
SECTION
  2
HEADER
  9
$ACADVER
  1
AC1014
  9
$DWGCODEPAGE
  3
ANSI_1252
  9
$INSBASE
 10
0.0
 20
0.0
 30
0.0
  9
$EXTMIN
 10
1846.28363772
 20
-1064.75031721
  9
$EXTMAX
 10
2043.60043911
 20
-793.75031721
  9
$LIMMIN
 10
1846.28363772
 20
-1064.75031721
  9
$LIMMAX
 10
2043.60043911
 20
-793.75031721
  9
$ORTHOMODE
 70
     0
  9
$REGENMODE
 70
     1
  9
$FILLMODE
 70
     1
  9
$QTEXTMODE
 70
     0
  9
$MIRRTEXT
 70
     1
  9
$DRAGMODE
 70
     2
  9
$LTSCALE
 40
1.0
  9
$OSMODE
 70
     0
  9
$ATTMODE
 70
     1
  9
$TEXTSIZE
 40
3.5
  9
$TRACEWID
 40
1.0
  9
$TEXTSTYLE
  7
STANDARD
  9
$CLAYER
  8
0
  9
$CELTYPE
  6
BYLAYER
  9
$CECOLOR
 62
   256
  9
$DIMSCALE
 40
1.0
  9
$DIMASZ
 40
2.0
  9
$DIMEXO
 40
5.0
  9
$DIMDLI
 40
10.0
  9
$DIMRND
 40
0.0
  9
$DIMDLE
 40
2.0
  9
$DIMEXE
 40
2.0
  9
$DIMTP
 40
0.0
  9
$DIMTM
 40
0.0
  9
$DIMTXT
 40
2.1
  9
$DIMCEN
 40
1.5
  9
$DIMTSZ
 40
0.0
  9
$DIMTOL
 70
     0
  9
$DIMLIM
 70
     0
  9
$DIMTIH
 70
     1
  9
$DIMTOH
 70
     0
  9
$DIMSE1
 70
     0
  9
$DIMSE2
 70
     0
  9
$DIMTAD
 70
     1
  9
$DIMZIN
 70
     8
  9
$DIMBLK
  1

  9
$DIMASO
 70
     1
  9
$DIMSHO
 70
     1
  9
$DIMPOST
  1

  9
$DIMAPOST
  1

  9
$DIMALT
 70
     0
  9
$DIMALTD
 70
     2
  9
$DIMALTF
 40
25.4
  9
$DIMLFAC
 40
1.0
  9
$DIMTOFL
 70
     0
  9
$DIMTVP
 40
0.0
  9
$DIMTIX
 70
     0
  9
$DIMSOXD
 70
     0
  9
$DIMSAH
 70
     0
  9
$DIMBLK1
  1

  9
$DIMBLK2
  1

  9
$DIMSTYLE
  2
*UNNAMED
  9
$DIMCLRD
 70
     5
  9
$DIMCLRE
 70
     5
  9
$DIMCLRT
 70
     5
  9
$DIMTFAC
 40
1.0
  9
$DIMGAP
 40
0.09
  9
$DIMUNIT
 70
     2
  9
$LUNITS
 70
     2
  9
$LUPREC
 70
     6
  9
$AXISMODE
 70
     0
  9
$AXISUNIT
 10
0.0
 20
0.0
  9
$SKETCHINC
 40
0.1
  9
$FILLETRAD
 40
0.0
  9
$AUNITS
 70
     0
  9
$AUPREC
 70
     0
  9
$MENU
  1
ACAD
  9
$ELEVATION
 40
0.0
  9
$PELEVATION
 40
0.0
  9
$THICKNESS
 40
0.0
  9
$LIMCHECK
 70
     0
  9
$BLIPMODE
 70
     1
  9
$CHAMFERA
 40
0.0
  9
$CHAMFERB
 40
0.0
  9
$SKPOLY
 70
     1
  9
$TDCREATE
 40
2458675.0000000000
  9
$TDUPDATE
 40
2458675.0000000000
  9
$TDINDWG
 40
0.0
  9
$TDUSRTIMER
 40
0.0
  9
$USRTIMER
 70
     1
  9
$ANGBASE
 50
0.0
  9
$ANGDIR
 70
     0
  9
$PDMODE
 70
     0
  9
$PDSIZE
 40
0.0
  9
$PLINEWID
 40
0.0
  9
$COORDS
 70
     2
  9
$SPLFRAME
 70
     0
  9
$SPLINETYPE
 70
     6
  9
$SPLINESEGS
 70
     8
  9
$ATTDIA
 70
     1
  9
$ATTREQ
 70
     1
  9
$HANDLING
 70
     1
  9
$HANDSEED
  5
     4DB
  9
$SURFTAB1
 70
     6
  9
$SURFTAB2
 70
     6
  9
$SURFTYPE
 70
     6
  9
$SURFU
 70
     6
  9
$SURFV
 70
     6
  9
$UCSNAME
  2

  9
$UCSORG
 10
0.0
 20
0.0
 30
0.0
  9
$UCSXDIR
 10
1.0
 20
0.0
 30
0.0
  9
$UCSYDIR
 10
0.0
 20
1.0
 30
0.0
  9
$PUCSNAME
  2

  9
$PUCSORG
 10
0.0
 20
0.0
 30
0.0
  9
$PUCSXDIR
 10
1.0
 20
0.0
 30
0.0
  9
$PUCSYDIR
 10
0.0
 20
1.0
 30
0.0
  9
$USERI1
 70
     0
  9
$USERI2
 70
     0
  9
$USERI3
 70
     0
  9
$USERI4
 70
     0
  9
$USERI5
 70
     0
  9
$USERR1
 40
0.0
  9
$USERR2
 40
0.0
  9
$USERR3
 40
0.0
  9
$USERR4
 40
0.0
  9
$USERR5
 40
0.0
  9
$WORLDVIEW
 70
     1
  9
$SHADEDGE
 70
     3
  9
$SHADEDIF
 70
    70
  9
$TILEMODE
 70
     1
  9
$MAXACTVP
 70
    16
  9
$PINSBASE
 10
0.0
 20
0.0
 30
0.0
  9
$PLIMCHECK
 70
     0
  9
$PEXTMIN
 10
1.0000000000000E+20
 20
1.0000000000000E+20
 30
1.0000000000000E+20
  9
$PEXTMAX
 10
-1.0000000000000E+20
 20
-1.0000000000000E+20
 30
-1.0000000000000E+20
  9
$PLIMMIN
 10
0.0
 20
0.0
  9
$UNITMODE
 70
     0
  9
$VISRETAIN
 70
     0
  9
$MEASUREMENT
 70
     1
  0
ENDSEC
  0
SECTION
  2
TABLES
  0
TABLE
  2
VPORT
  5
1B2
100
AcDbSymbolTable
 70
     1
  0
ENDTAB
  0
TABLE
  2
STYLE
  5
1B3
100
AcDbSymbolTable
 70
     3
  0
STYLE
  5
1B4
100
AcDbSymbolTableRecord
100
AcDbTextStyleTableRecord
  2
STANDARD
 70
     0
 40
0.0
 41
1.0
 50
0.0
 71
     0
 42
3.5
  3
MONOTXT
  4

  0
STYLE
  5
1B5
100
AcDbSymbolTableRecord
100
AcDbTextStyleTableRecord
  2
SYMAP
 70
     0
 40
0.0
 41
1.0
 50
0.0
 71
     0
 42
3.5
  3
SYMAP
  4

  0
STYLE
  5
1B6
100
AcDbSymbolTableRecord
100
AcDbTextStyleTableRecord
  2
CADWORK1
 70
     0
 40
0.0
 41
1.0
 50
0.0
 71
     0
 42
3.5
  3
MONOTXT
  4

  0
STYLE
  5
1B7
100
AcDbSymbolTableRecord
100
AcDbTextStyleTableRecord
  2
MONOTXT
 70
     0
 40
0.0
 41
1.0
 50
0.0
 71
     0
 42
3.5
  3
MONOTXT
  4

  0
STYLE
  5
1B8
100
AcDbSymbolTableRecord
100
AcDbTextStyleTableRecord
  2
TAHOMA
 70
     0
 40
0.0
 41
1.0
 50
0.0
 71
     0
 42
3.5
  3

  4

1001
ACAD
1000
Tahoma
1071
        0
  0
ENDTAB
  0
TABLE
  2
LTYPE
  5
1B9
100
AcDbSymbolTable
 70
    15
  0
LTYPE
  5
1BA
100
AcDbSymbolTableRecord
100
AcDbLinetypeTableRecord
  2
BYBLOCK
 70
    64
  3

 72
    65
 73
     0
 40
0.0
  0
LTYPE
  5
1BB
100
AcDbSymbolTableRecord
100
AcDbLinetypeTableRecord
  2
BYLAYER
 70
    64
  3

 72
    65
 73
     0
 40
0.0
  0
LTYPE
  5
1BC
100
AcDbSymbolTableRecord
100
AcDbLinetypeTableRecord
  2
CONTINUOUS
 70
    64
  3
Solid line
 72
    65
 73
     0
 40
0.0
  0
LTYPE
  5
1BD
100
AcDbSymbolTableRecord
100
AcDbLinetypeTableRecord
  2
DOT2
 70
    64
  3
...............................................
 72
    65
 73
     2
 40
1.25
 49
0.0
 74
     0
 49
-1.25
 74
     0
  0
LTYPE
  5
1BE
100
AcDbSymbolTableRecord
100
AcDbLinetypeTableRecord
  2
CADWORK_13
 70
    64
  3
13 =======================================
 72
    65
 73
     2
 40
4.0
 49
2.0
 74
     0
 49
-2.0
 74
     0
  0
LTYPE
  5
1BF
100
AcDbSymbolTableRecord
100
AcDbLinetypeTableRecord
  2
DASHED
 70
    64
  3
__ __ __ __ __ __ __ __ __ __ __ __ __ __ __ __
 72
    65
 73
     2
 40
7.5
 49
5.0
 74
     0
 49
-2.5
 74
     0
  0
LTYPE
  5
1C0
100
AcDbSymbolTableRecord
100
AcDbLinetypeTableRecord
  2
DASHDOT
 70
    64
  3
 __ . __ . __ . __ . __ . __ . __ . __ . __ . __
 72
    65
 73
     4
 40
10.0
 49
5.0
 74
     0
 49
-2.5
 74
     0
 49
0.0
 74
     0
 49
-2.5
 74
     0
  0
LTYPE
  5
1C1
100
AcDbSymbolTableRecord
100
AcDbLinetypeTableRecord
  2
CADWORK_16
 70
    64
  3
--´\,----´\,----´\,----´\,----´\,----´\,----´\,--
 72
    65
 73
     5
 40
17.0
 49
2.0
 74
     0
 49
0.0
 74
     2
 75
     0
340
1B4
 46
6.0
 50
170.0
 44
3.01999998
 45
5.57999992
  9
|
 49
-2.0999999
 74
     2
 75
     0
340
1B4
 46
12.0
 50
10.0
 44
-2.9000001
 45
-6.5999999
  9
|
 49
-2.0999999
 74
     2
 75
     0
340
1B4
 46
6.0
 50
170.0
 44
1.96000004
 45
-0.36000001
  9
|
 49
10.80000019
 74
     0
  0
LTYPE
  5
1C2
100
AcDbSymbolTableRecord
100
AcDbLinetypeTableRecord
  2
CADWORK_15
 70
    64
  3
15 =======================================
 72
    65
 73
     0
 40
0.0
  0
LTYPE
  5
1C3
100
AcDbSymbolTableRecord
100
AcDbLinetypeTableRecord
  2
DAL
 70
    64
  3
Solid line (for MAPS)
 72
    65
 73
     0
 40
0.0
  0
LTYPE
  5
1C4
100
AcDbSymbolTableRecord
100
AcDbLinetypeTableRecord
  2
MUR
 70
    64
  3
Solid line (for MAPS)
 72
    65
 73
     0
 40
0.0
  0
LTYPE
  5
1C5
100
AcDbSymbolTableRecord
100
AcDbLinetypeTableRecord
  2
SOM
 70
    64
  3
Solid line (for MAPS)
 72
    65
 73
     0
 40
0.0
  0
LTYPE
  5
1C6
100
AcDbSymbolTableRecord
100
AcDbLinetypeTableRecord
  2
COL
 70
    64
  3
Solid line (for MAPS)
 72
    65
 73
     0
 40
0.0
  0
LTYPE
  5
1C7
100
AcDbSymbolTableRecord
100
AcDbLinetypeTableRecord
  2
LGN
 70
    64
  3
Solid line (for MAPS)
 72
    65
 73
     0
 40
0.0
  0
LTYPE
  5
1C8
100
AcDbSymbolTableRecord
100
AcDbLinetypeTableRecord
  2
PNT
 70
    64
  3
Solid line (for MAPS)
 72
    65
 73
     0
 40
0.0
  0
ENDTAB
  0
TABLE
  2
LAYER
  5
1C9
100
AcDbSymbolTable
 70
    16
  0
LAYER
  5
1CA
100
AcDbSymbolTableRecord
100
AcDbLayerTableRecord
  2
0
 70
     0
 62
     1
  6
CONTINUOUS
370
    -3
  0
LAYER
  5
1CB
100
AcDbSymbolTableRecord
100
AcDbLayerTableRecord
  2
Standard
 70
     0
 62
     7
  6
CONTINUOUS
370
    -3
  0
LAYER
  5
1CC
100
AcDbSymbolTableRecord
100
AcDbLayerTableRecord
  2
Sc.1_1
 70
     0
 62
     7
  6
CONTINUOUS
370
    -3
  0
LAYER
  5
1CD
100
AcDbSymbolTableRecord
100
AcDbLayerTableRecord
  2
Sc.1_2
 70
     0
 62
     7
  6
CONTINUOUS
370
    -3
  0
LAYER
  5
1CE
100
AcDbSymbolTableRecord
100
AcDbLayerTableRecord
  2
Sc.1_5
 70
     0
 62
     7
  6
CONTINUOUS
370
    -3
  0
LAYER
  5
1CF
100
AcDbSymbolTableRecord
100
AcDbLayerTableRecord
  2
Sc.1_10
 70
     0
 62
     7
  6
CONTINUOUS
370
    -3
  0
LAYER
  5
1D0
100
AcDbSymbolTableRecord
100
AcDbLayerTableRecord
  2
Sc.1_20
 70
     0
 62
     7
  6
CONTINUOUS
370
    -3
  0
LAYER
  5
1D1
100
AcDbSymbolTableRecord
100
AcDbLayerTableRecord
  2
Sc.1_25
 70
     0
 62
     7
  6
CONTINUOUS
370
    -3
  0
LAYER
  5
1D2
100
AcDbSymbolTableRecord
100
AcDbLayerTableRecord
  2
Sc.1_33
 70
     0
 62
     7
  6
CONTINUOUS
370
    -3
  0
LAYER
  5
1D3
100
AcDbSymbolTableRecord
100
AcDbLayerTableRecord
  2
Sc.1_50
 70
     0
 62
     7
  6
CONTINUOUS
370
    -3
  0
LAYER
  5
1D4
100
AcDbSymbolTableRecord
100
AcDbLayerTableRecord
  2
Sc.1_75
 70
     0
 62
     7
  6
CONTINUOUS
370
    -3
  0
LAYER
  5
1D5
100
AcDbSymbolTableRecord
100
AcDbLayerTableRecord
  2
Sc.1_100
 70
     0
 62
     7
  6
CONTINUOUS
370
    -3
  0
LAYER
  5
1D6
100
AcDbSymbolTableRecord
100
AcDbLayerTableRecord
  2
Sc.1_200
 70
     0
 62
     7
  6
CONTINUOUS
370
    -3
  0
LAYER
  5
1D7
100
AcDbSymbolTableRecord
100
AcDbLayerTableRecord
  2
Sc.1_500
 70
     0
 62
     7
  6
CONTINUOUS
370
    -3
  0
LAYER
  5
1D8
100
AcDbSymbolTableRecord
100
AcDbLayerTableRecord
  2
Sc.1_1000
 70
     0
 62
     7
  6
CONTINUOUS
370
    -3
  0
LAYER
  5
1D9
100
AcDbSymbolTableRecord
100
AcDbLayerTableRecord
  2
Laser frames
 70
     0
 62
     7
  6
CONTINUOUS
370
    18
  0
LAYER
  5
1DA
100
AcDbSymbolTableRecord
100
AcDbLayerTableRecord
  2
LEGEND
 70
     0
 62
     7
  6
CONTINUOUS
370
    -3
  0
ENDTAB
  0
TABLE
  2
VIEW
  5
1DB
100
AcDbSymbolTable
 70
     0
  0
ENDTAB
  0
TABLE
  2
UCS
  5
1DC
100
AcDbSymbolTable
 70
     0
  0
ENDTAB
  0
TABLE
  2
APPID
  5
1DD
100
AcDbSymbolTable
 70
     1
  0
APPID
  5
1DE
100
AcDbSymbolTableRecord
100
AcDbRegAppTableRecord
  2
ACAD
 70
     0
  0
ENDTAB
  0
TABLE
  2
DIMSTYLE
  5
1DF
100
AcDbSymbolTable
 70
     0
  0
ENDTAB
  0
TABLE
  2
BLOCK_RECORD
  5
1E0
100
AcDbSymbolTable
 70
     0
  0
BLOCK_RECORD
  5
1E1
100
AcDbSymbolTableRecord
100
AcDbBlockTableRecord
  2
*MODEL_SPACE
  0
BLOCK_RECORD
  5
1E2
100
AcDbSymbolTableRecord
100
AcDbBlockTableRecord
  2
*PAPER_SPACE
  0
BLOCK_RECORD
  5
1E3
100
AcDbSymbolTableRecord
100
AcDbBlockTableRecord
  2
CDWK_EXTR_0
  0
BLOCK_RECORD
  5
1E4
100
AcDbSymbolTableRecord
100
AcDbBlockTableRecord
  2
CDWK_EXTR_1D
  0
BLOCK_RECORD
  5
1E5
100
AcDbSymbolTableRecord
100
AcDbBlockTableRecord
  2
CDWK_EXTR_1G
  0
BLOCK_RECORD
  5
1E6
100
AcDbSymbolTableRecord
100
AcDbBlockTableRecord
  2
CDWK_EXTR_2
  0
BLOCK_RECORD
  5
1E7
100
AcDbSymbolTableRecord
100
AcDbBlockTableRecord
  2
CDWK_EXTR_3
  0
BLOCK_RECORD
  5
1E8
100
AcDbSymbolTableRecord
100
AcDbBlockTableRecord
  2
CDWK_EXTR_4
  0
BLOCK_RECORD
  5
1E9
100
AcDbSymbolTableRecord
100
AcDbBlockTableRecord
  2
CDWK_PTTYP0
  0
BLOCK_RECORD
  5
1EA
100
AcDbSymbolTableRecord
100
AcDbBlockTableRecord
  2
*X2011
  0
BLOCK_RECORD
  5
1EB
100
AcDbSymbolTableRecord
100
AcDbBlockTableRecord
  2
*X2037
  0
BLOCK_RECORD
  5
1EC
100
AcDbSymbolTableRecord
100
AcDbBlockTableRecord
  2
*X2039
  0
BLOCK_RECORD
  5
1ED
100
AcDbSymbolTableRecord
100
AcDbBlockTableRecord
  2
*X2040
  0
BLOCK_RECORD
  5
1EE
100
AcDbSymbolTableRecord
100
AcDbBlockTableRecord
  2
*X2041
  0
ENDTAB
  0
ENDSEC
  0
SECTION
  2
BLOCKS
  0
BLOCK
  5
1EF
100
AcDbEntity
  8
0
100
AcDbBlockBegin
  2
*MODEL_SPACE
 70
     0
 10
0.0
 20
0.0
 30
0.0
  3
*MODEL_SPACE
  1

  0
ENDBLK
  5
1F0
100
AcDbEntity
100
AcDbBlockEnd
  0
BLOCK
  5
1F1
100
AcDbEntity
  8
0
100
AcDbBlockBegin
  2
*PAPER_SPACE
 70
     0
 10
0.0
 20
0.0
 30
0.0
  3
*PAPER_SPACE
  1

  0
ENDBLK
  5
1F2
100
AcDbEntity
100
AcDbBlockEnd
  0
BLOCK
  5
1F3
100
AcDbEntity
  8
0
100
AcDbBlockBegin
  2
CDWK_EXTR_0
 70
     0
 10
0.0
 20
0.0
 30
0.0
  3
CDWK_EXTR_0
  1

  4
Cadwork line-extremity
  0
LINE
  5
1F4
100
AcDbEntity
  8
0
 62
     0
370
    -2
100
AcDbLine
 10
0.0
 20
0.0
 30
0.0
 11
2.0
 21
0.5
 31
0.0
  0
LINE
  5
1F5
100
AcDbEntity
  8
0
 62
     0
370
    -2
100
AcDbLine
 10
0.0
 20
0.0
 30
0.0
 11
2.0
 21
-0.5
 31
0.0
  0
LINE
  5
1F6
100
AcDbEntity
  8
0
 62
     0
370
    -2
100
AcDbLine
 10
2.0
 20
0.5
 30
0.0
 11
2.0
 21
-0.5
 31
0.0
  0
ENDBLK
  5
1F7
100
AcDbEntity
100
AcDbBlockEnd
  0
BLOCK
  5
1F8
100
AcDbEntity
  8
0
100
AcDbBlockBegin
  2
CDWK_EXTR_1D
 70
     0
 10
0.0
 20
0.0
 30
0.0
  3
CDWK_EXTR_1D
  1

  4
Cadwork line-extremity
  0
LINE
  5
1F9
100
AcDbEntity
  8
0
 62
     0
370
    -2
100
AcDbLine
 10
0.0
 20
0.0
 30
0.0
 11
0.0
 21
1.0
 31
0.0
  0
LINE
  5
1FA
100
AcDbEntity
  8
0
 62
     0
370
    -2
100
AcDbLine
 10
0.0
 20
1.0
 30
0.0
 11
0.5
 21
1.5
 31
0.0
  0
LINE
  5
1FB
100
AcDbEntity
  8
0
 62
     0
370
    -2
100
AcDbLine
 10
0.5
 20
1.5
 30
0.0
 11
1.5
 21
1.5
 31
0.0
  0
ENDBLK
  5
1FC
100
AcDbEntity
100
AcDbBlockEnd
  0
BLOCK
  5
1FD
100
AcDbEntity
  8
0
100
AcDbBlockBegin
  2
CDWK_EXTR_1G
 70
     0
 10
0.0
 20
0.0
 30
0.0
  3
CDWK_EXTR_1G
  1

  4
Cadwork line-extremity
  0
LINE
  5
1FE
100
AcDbEntity
  8
0
 62
     0
370
    -2
100
AcDbLine
 10
0.0
 20
0.0
 30
0.0
 11
0.0
 21
-1.0
 31
0.0
  0
LINE
  5
1FF
100
AcDbEntity
  8
0
 62
     0
370
    -2
100
AcDbLine
 10
0.0
 20
-1.0
 30
0.0
 11
0.5
 21
-1.5
 31
0.0
  0
LINE
  5
200
100
AcDbEntity
  8
0
 62
     0
370
    -2
100
AcDbLine
 10
0.5
 20
-1.5
 30
0.0
 11
1.5
 21
-1.5
 31
0.0
  0
ENDBLK
  5
201
100
AcDbEntity
100
AcDbBlockEnd
  0
BLOCK
  5
202
100
AcDbEntity
  8
0
100
AcDbBlockBegin
  2
CDWK_EXTR_2
 70
     0
 10
0.0
 20
0.0
 30
0.0
  3
CDWK_EXTR_2
  1

  4
Cadwork line-extremity
  0
SOLID
  5
203
100
AcDbEntity
  8
0
 62
     0
100
AcDbTrace
 10
0.0
 20
0.0
 11
2.0
 21
0.5
 12
2.0
 22
-0.5
 13
2.0
 23
-0.5
  0
ENDBLK
  5
204
100
AcDbEntity
100
AcDbBlockEnd
  0
BLOCK
  5
205
100
AcDbEntity
  8
0
100
AcDbBlockBegin
  2
CDWK_EXTR_3
 70
     0
 10
0.0
 20
0.0
 30
0.0
  3
CDWK_EXTR_3
  1

  4
Cadwork line-extremity
  0
SOLID
  5
206
100
AcDbEntity
  8
0
 62
     0
100
AcDbTrace
 10
0.0
 20
0.0
 11
2.0
 21
0.5
 12
2.0
 22
-0.5
 13
2.0
 23
-0.5
  0
LINE
  5
207
100
AcDbEntity
  8
0
 62
     0
370
    -2
100
AcDbLine
 10
0.0
 20
1.0
 30
0.0
 11
0.0
 21
-1.0
 31
0.0
  0
ENDBLK
  5
208
100
AcDbEntity
100
AcDbBlockEnd
  0
BLOCK
  5
209
100
AcDbEntity
  8
0
100
AcDbBlockBegin
  2
CDWK_EXTR_4
 70
     0
 10
0.0
 20
0.0
 30
0.0
  3
CDWK_EXTR_4
  1

  4
Cadwork line-extremity
  0
HATCH
  5
20A
100
AcDbEntity
  8
0
 62
     0
370
    -2
100
AcDbHatch
 10
0.0
 20
0.0
 30
0.0
210
0.0
220
0.0
230
1.0
  2
SOLID
 70
     1
 71
     0
 91
        1
 92
        1
 93
        1
 72
     2
 10
0.0
 20
0.0
 40
0.5
 50
0.0
 51
360.0
 73
     1
 97
        0
 75
     0
 76
     1
 98
        1
 10
0.0
 20
0.0
  0
ENDBLK
  5
20B
100
AcDbEntity
100
AcDbBlockEnd
  0
BLOCK
  5
20C
100
AcDbEntity
  8
0
100
AcDbBlockBegin
  2
CDWK_PTTYP0
 70
     0
 10
0.0
 20
0.0
 30
0.0
  3
CDWK_PTTYP0
  1

  4
Cadwork point
  0
POINT
  5
20D
100
AcDbEntity
  8
0
 62
     0
100
AcDbPoint
 10
0.0
 20
0.0
 30
0.0
  0
ENDBLK
  5
20E
100
AcDbEntity
100
AcDbBlockEnd
  0
BLOCK
  5
20F
100
AcDbEntity
  8
Sc.1_5
100
AcDbBlockBegin
  2
*X2011
 70
     1
 10
0.0
 20
0.0
 30
0.0
  3
*X2011
  1

  4
Cadwork hatch
  0
LINE
  5
210
100
AcDbEntity
  8
Sc.1_5
 62
     9
  6
CONTINUOUS
370
    -2
100
AcDbLine
 10
1906.30022343
 20
-934.54989361
 30
0.0
 11
1920.3003467
 21
-941.54988939
 31
0.0
  0
LINE
  5
211
100
AcDbEntity
  8
Sc.1_5
 62
     9
  6
CONTINUOUS
370
    -2
100
AcDbLine
 10
1920.3003467
 20
-934.54989361
 30
0.0
 11
1906.30022343
 21
-941.54988939
 31
0.0
  0
ENDBLK
  5
212
100
AcDbEntity
100
AcDbBlockEnd
  0
BLOCK
  5
213
100
AcDbEntity
  8
Sc.1_5
100
AcDbBlockBegin
  2
*X2037
 70
     1
 10
0.0
 20
0.0
 30
0.0
  3
*X2037
  1

  4
Cadwork hatch
  0
LINE
  5
214
100
AcDbEntity
  8
Sc.1_5
 62
     9
  6
CONTINUOUS
370
    -2
100
AcDbLine
 10
1905.80023314
 20
-934.04990332
 30
0.0
 11
1896.80027619
 21
-906.04985435
 31
0.0
  0
LINE
  5
215
100
AcDbEntity
  8
Sc.1_5
 62
     9
  6
CONTINUOUS
370
    -2
100
AcDbLine
 10
1896.80027619
 20
-934.04990332
 30
0.0
 11
1905.80023314
 21
-906.04985435
 31
0.0
  0
ENDBLK
  5
216
100
AcDbEntity
100
AcDbBlockEnd
  0
BLOCK
  5
217
100
AcDbEntity
  8
Sc.1_5
100
AcDbBlockBegin
  2
*X2039
 70
     1
 10
0.0
 20
0.0
 30
0.0
  3
*X2039
  1

  4
Cadwork hatch
  0
LINE
  5
218
100
AcDbEntity
  8
Sc.1_5
 62
     9
  6
CONTINUOUS
370
    -2
100
AcDbLine
 10
1905.80028631
 20
-905.44987739
 30
0.0
 11
1905.8002863
 21
-906.07482897
 31
0.0
  0
LINE
  5
219
100
AcDbEntity
  8
Sc.1_5
 62
     9
  6
CONTINUOUS
370
    -2
100
AcDbLine
 10
1905.80028627
 20
-909.49159336
 30
0.0
 11
1905.80028626
 21
-910.74149653
 31
0.0
  0
LINE
  5
21A
100
AcDbEntity
  8
Sc.1_5
 62
     9
  6
CONTINUOUS
370
    -2
100
AcDbLine
 10
1905.80028622
 20
-914.15826093
 30
0.0
 11
1905.80028621
 21
-915.40816409
 31
0.0
  0
LINE
  5
21B
100
AcDbEntity
  8
Sc.1_5
 62
     9
  6
CONTINUOUS
370
    -2
100
AcDbLine
 10
1905.80028617
 20
-918.82492849
 30
0.0
 11
1905.80028616
 21
-920.07483165
 31
0.0
  0
LINE
  5
21C
100
AcDbEntity
  8
Sc.1_5
 62
     9
  6
CONTINUOUS
370
    -2
100
AcDbLine
 10
1905.80028613
 20
-923.49159605
 30
0.0
 11
1905.80028611
 21
-924.74149922
 31
0.0
  0
LINE
  5
21D
100
AcDbEntity
  8
Sc.1_5
 62
     9
  6
CONTINUOUS
370
    -2
100
AcDbLine
 10
1905.80028608
 20
-928.15826361
 30
0.0
 11
1905.80028607
 21
-929.40816678
 31
0.0
  0
LINE
  5
21E
100
AcDbEntity
  8
Sc.1_5
 62
     9
  6
CONTINUOUS
370
    -2
100
AcDbLine
 10
1905.80028603
 20
-932.82493117
 30
0.0
 11
1905.80028602
 21
-934.07483434
 31
0.0
  0
LINE
  5
21F
100
AcDbEntity
  8
Sc.1_5
 62
     9
  6
CONTINUOUS
370
    -2
100
AcDbLine
 10
1905.80028599
 20
-937.49159873
 30
0.0
 11
1905.80028597
 21
-938.7415019
 31
0.0
  0
LINE
  5
220
100
AcDbEntity
  8
Sc.1_5
 62
     9
  6
CONTINUOUS
370
    -2
100
AcDbLine
 10
1905.80028594
 20
-942.15826629
 30
0.0
 11
1905.80028593
 21
-943.40816946
 31
0.0
  0
LINE
  5
221
100
AcDbEntity
  8
Sc.1_5
 62
     9
  6
CONTINUOUS
370
    -2
100
AcDbLine
 10
1881.70965886
 20
-910.11654462
 30
0.0
 11
1882.46695522
 21
-910.11654463
 31
0.0
  0
LINE
  5
222
100
AcDbEntity
  8
Sc.1_5
 62
     9
  6
CONTINUOUS
370
    -2
100
AcDbLine
 10
1881.70965876
 20
-919.44987691
 30
0.0
 11
1882.46695512
 21
-919.44987691
 31
0.0
  0
LINE
  5
223
100
AcDbEntity
  8
Sc.1_5
 62
     9
  6
CONTINUOUS
370
    -2
100
AcDbLine
 10
1881.70965867
 20
-928.78320919
 30
0.0
 11
1882.46695503
 21
-928.7832092
 31
0.0
  0
LINE
  5
224
100
AcDbEntity
  8
Sc.1_5
 62
     9
  6
CONTINUOUS
370
    -2
100
AcDbLine
 10
1881.70965857
 20
-938.11654147
 30
0.0
 11
1882.46695493
 21
-938.11654148
 31
0.0
  0
LINE
  5
225
100
AcDbEntity
  8
Sc.1_5
 62
     9
  6
CONTINUOUS
370
    -2
100
AcDbLine
 10
1901.13361983
 20
-905.44987834
 30
0.0
 11
1901.89091619
 21
-905.44987835
 31
0.0
  0
LINE
  5
226
100
AcDbEntity
  8
Sc.1_5
 62
     9
  6
CONTINUOUS
370
    -2
100
AcDbLine
 10
1901.13361974
 20
-914.78321063
 30
0.0
 11
1901.8909161
 21
-914.78321063
 31
0.0
  0
LINE
  5
227
100
AcDbEntity
  8
Sc.1_5
 62
     9
  6
CONTINUOUS
370
    -2
100
AcDbLine
 10
1901.13361964
 20
-924.11654291
 30
0.0
 11
1901.890916
 21
-924.11654292
 31
0.0
  0
LINE
  5
228
100
AcDbEntity
  8
Sc.1_5
 62
     9
  6
CONTINUOUS
370
    -2
100
AcDbLine
 10
1901.13361955
 20
-933.44987519
 30
0.0
 11
1901.89091591
 21
-933.4498752
 31
0.0
  0
LINE
  5
229
100
AcDbEntity
  8
Sc.1_5
 62
     9
  6
CONTINUOUS
370
    -2
100
AcDbLine
 10
1901.13361945
 20
-942.78320748
 30
0.0
 11
1901.89091581
 21
-942.78320749
 31
0.0
  0
LINE
  5
22A
100
AcDbEntity
  8
Sc.1_5
 62
     9
  6
CONTINUOUS
370
    -2
100
AcDbLine
 10
1883.46815575
 20
-910.00582863
 30
0.0
 11
1900.13271751
 21
-905.56161937
 31
0.0
  0
LINE
  5
22B
100
AcDbEntity
  8
Sc.1_5
 62
     9
  6
CONTINUOUS
370
    -2
100
AcDbLine
 10
1883.46813965
 20
-919.33915902
 30
0.0
 11
1900.13270141
 21
-914.89494975
 31
0.0
  0
LINE
  5
22C
100
AcDbEntity
  8
Sc.1_5
 62
     9
  6
CONTINUOUS
370
    -2
100
AcDbLine
 10
1883.46812354
 20
-928.6724894
 30
0.0
 11
1900.13268531
 21
-924.22828014
 31
0.0
  0
LINE
  5
22D
100
AcDbEntity
  8
Sc.1_5
 62
     9
  6
CONTINUOUS
370
    -2
100
AcDbLine
 10
1883.46810744
 20
-938.00581979
 30
0.0
 11
1900.13266921
 21
-933.56161052
 31
0.0
  0
LINE
  5
22E
100
AcDbEntity
  8
Sc.1_5
 62
     9
  6
CONTINUOUS
370
    -2
100
AcDbLine
 10
1894.67703986
 20
-944.34987787
 30
0.0
 11
1900.13265311
 21
-942.89494091
 31
0.0
  0
LINE
  5
22F
100
AcDbEntity
  8
Sc.1_5
 62
     9
  6
CONTINUOUS
370
    -2
100
AcDbLine
 10
1883.46815574
 20
-910.22725797
 30
0.0
 11
1900.13271742
 21
-914.67146758
 31
0.0
  0
LINE
  5
230
100
AcDbEntity
  8
Sc.1_5
 62
     9
  6
CONTINUOUS
370
    -2
100
AcDbLine
 10
1883.46817166
 20
-919.56058836
 30
0.0
 11
1900.13273333
 21
-924.00479796
 31
0.0
  0
LINE
  5
231
100
AcDbEntity
  8
Sc.1_5
 62
     9
  6
CONTINUOUS
370
    -2
100
AcDbLine
 10
1883.46818757
 20
-928.89391874
 30
0.0
 11
1900.13274925
 21
-933.33812835
 31
0.0
  0
LINE
  5
232
100
AcDbEntity
  8
Sc.1_5
 62
     9
  6
CONTINUOUS
370
    -2
100
AcDbLine
 10
1883.46820348
 20
-938.22724913
 30
0.0
 11
1900.13276516
 21
-942.67145873
 31
0.0
  0
LINE
  5
233
100
AcDbEntity
  8
Sc.1_5
 62
     9
  6
CONTINUOUS
370
    -2
100
AcDbLine
 10
1877.80028689
 20
-906.07482687
 30
0.0
 11
1878.13405198
 21
-907.2986322
 31
0.0
  0
LINE
  5
234
100
AcDbEntity
  8
Sc.1_5
 62
     9
  6
CONTINUOUS
370
    -2
100
AcDbLine
 10
1877.80028679
 20
-915.40815978
 30
0.0
 11
1878.13405163
 21
-916.63196419
 31
0.0
  0
LINE
  5
235
100
AcDbEntity
  8
Sc.1_5
 62
     9
  6
CONTINUOUS
370
    -2
100
AcDbLine
 10
1877.8002867
 20
-924.74149269
 30
0.0
 11
1878.13405129
 21
-925.96529618
 31
0.0
  0
LINE
  5
236
100
AcDbEntity
  8
Sc.1_5
 62
     9
  6
CONTINUOUS
370
    -2
100
AcDbLine
 10
1877.8002866
 20
-934.0748256
 30
0.0
 11
1878.13405094
 21
-935.29862817
 31
0.0
  0
LINE
  5
237
100
AcDbEntity
  8
Sc.1_5
 62
     9
  6
CONTINUOUS
370
    -2
100
AcDbLine
 10
1877.80028651
 20
-943.4081585
 30
0.0
 11
1878.05711926
 21
-944.3498786
 31
0.0
  0
LINE
  5
238
100
AcDbEntity
  8
Sc.1_5
 62
     9
  6
CONTINUOUS
370
    -2
100
AcDbLine
 10
1877.8002868
 20
-914.15826853
 30
0.0
 11
1878.13405325
 21
-912.9344577
 31
0.0
  0
LINE
  5
239
100
AcDbEntity
  8
Sc.1_5
 62
     9
  6
CONTINUOUS
370
    -2
100
AcDbLine
 10
1877.80028671
 20
-923.491606
 30
0.0
 11
1878.13405465
 21
-922.26778969
 31
0.0
  0
LINE
  5
23A
100
AcDbEntity
  8
Sc.1_5
 62
     9
  6
CONTINUOUS
370
    -2
100
AcDbLine
 10
1877.80028788
 20
-932.82493885
 30
0.0
 11
1878.13405605
 21
-931.60112168
 31
0.0
  0
LINE
  5
23B
100
AcDbEntity
  8
Sc.1_5
 62
     9
  6
CONTINUOUS
370
    -2
100
AcDbLine
 10
1877.80028927
 20
-942.15827084
 30
0.0
 11
1878.13405744
 21
-940.93445367
 31
0.0
  0
LINE
  5
23C
100
AcDbEntity
  8
Sc.1_5
 62
     9
  6
CONTINUOUS
370
    -2
100
AcDbLine
 10
1905.46651585
 20
-908.26776132
 30
0.0
 11
1905.80028416
 21
-909.49157845
 31
0.0
  0
LINE
  5
23D
100
AcDbEntity
  8
Sc.1_5
 62
     9
  6
CONTINUOUS
370
    -2
100
AcDbLine
 10
1905.46651551
 20
-917.60109331
 30
0.0
 11
1905.80028382
 21
-918.82491044
 31
0.0
  0
LINE
  5
23E
100
AcDbEntity
  8
Sc.1_5
 62
     9
  6
CONTINUOUS
370
    -2
100
AcDbLine
 10
1905.46651517
 20
-926.9344253
 30
0.0
 11
1905.80028347
 21
-928.15824243
 31
0.0
  0
LINE
  5
23F
100
AcDbEntity
  8
Sc.1_5
 62
     9
  6
CONTINUOUS
370
    -2
100
AcDbLine
 10
1905.46651482
 20
-936.26775729
 30
0.0
 11
1905.80028313
 21
-937.49157442
 31
0.0
  0
LINE
  5
240
100
AcDbEntity
  8
Sc.1_5
 62
     9
  6
CONTINUOUS
370
    -2
100
AcDbLine
 10
1905.80028361
 20
-938.74150334
 30
0.0
 11
1905.46651528
 21
-939.96532046
 31
0.0
  0
LINE
  5
241
100
AcDbEntity
  8
Sc.1_5
 62
     9
  6
CONTINUOUS
370
    -2
100
AcDbLine
 10
1905.80028345
 20
-929.40817134
 30
0.0
 11
1905.46651512
 21
-930.63198847
 31
0.0
  0
LINE
  5
242
100
AcDbEntity
  8
Sc.1_5
 62
     9
  6
CONTINUOUS
370
    -2
100
AcDbLine
 10
1905.8002833
 20
-920.07483935
 30
0.0
 11
1905.46651496
 21
-921.29865648
 31
0.0
  0
LINE
  5
243
100
AcDbEntity
  8
Sc.1_5
 62
     9
  6
CONTINUOUS
370
    -2
100
AcDbLine
 10
1905.80028314
 20
-910.74150736
 30
0.0
 11
1905.46651481
 21
-911.96532449
 31
0.0
  0
LINE
  5
244
100
AcDbEntity
  8
Sc.1_5
 62
     9
  6
CONTINUOUS
370
    -2
100
AcDbLine
 10
1878.1340578
 20
-907.29865024
 30
0.0
 11
1878.76105502
 21
-908.34364562
 31
0.0
  0
LINE
  5
245
100
AcDbEntity
  8
Sc.1_5
 62
     9
  6
CONTINUOUS
370
    -2
100
AcDbLine
 10
1878.13405777
 20
-916.63198414
 30
0.0
 11
1878.76105499
 21
-917.67697952
 31
0.0
  0
LINE
  5
246
100
AcDbEntity
  8
Sc.1_5
 62
     9
  6
CONTINUOUS
370
    -2
100
AcDbLine
 10
1878.13405774
 20
-925.96531803
 30
0.0
 11
1878.76105495
 21
-927.01031341
 31
0.0
  0
LINE
  5
247
100
AcDbEntity
  8
Sc.1_5
 62
     9
  6
CONTINUOUS
370
    -2
100
AcDbLine
 10
1878.13405771
 20
-935.29865193
 30
0.0
 11
1878.76105492
 21
-936.34364731
 31
0.0
  0
LINE
  5
248
100
AcDbEntity
  8
Sc.1_5
 62
     9
  6
CONTINUOUS
370
    -2
100
AcDbLine
 10
1878.13405706
 20
-912.92753131
 30
0.0
 11
1878.76105437
 21
-911.88253599
 31
0.0
  0
LINE
  5
249
100
AcDbEntity
  8
Sc.1_5
 62
     9
  6
CONTINUOUS
370
    -2
100
AcDbLine
 10
1878.13405629
 20
-922.26086521
 30
0.0
 11
1878.76105359
 21
-921.21586988
 31
0.0
  0
LINE
  5
24A
100
AcDbEntity
  8
Sc.1_5
 62
     9
  6
CONTINUOUS
370
    -2
100
AcDbLine
 10
1878.13405551
 20
-931.59419911
 30
0.0
 11
1878.76105281
 21
-930.54920378
 31
0.0
  0
LINE
  5
24B
100
AcDbEntity
  8
Sc.1_5
 62
     9
  6
CONTINUOUS
370
    -2
100
AcDbLine
 10
1878.13405473
 20
-940.927533
 30
0.0
 11
1878.76105204
 21
-939.88253768
 31
0.0
  0
LINE
  5
24C
100
AcDbEntity
  8
Sc.1_5
 62
     9
  6
CONTINUOUS
370
    -2
100
AcDbLine
 10
1904.83952196
 20
-907.22278729
 30
0.0
 11
1905.46651918
 21
-908.26778267
 31
0.0
  0
LINE
  5
24D
100
AcDbEntity
  8
Sc.1_5
 62
     9
  6
CONTINUOUS
370
    -2
100
AcDbLine
 10
1904.83952193
 20
-916.55612119
 30
0.0
 11
1905.46651915
 21
-917.60111657
 31
0.0
  0
LINE
  5
24E
100
AcDbEntity
  8
Sc.1_5
 62
     9
  6
CONTINUOUS
370
    -2
100
AcDbLine
 10
1904.8395219
 20
-925.88945509
 30
0.0
 11
1905.46651911
 21
-926.93445047
 31
0.0
  0
LINE
  5
24F
100
AcDbEntity
  8
Sc.1_5
 62
     9
  6
CONTINUOUS
370
    -2
100
AcDbLine
 10
1904.83952187
 20
-935.22278898
 30
0.0
 11
1905.46651908
 21
-936.26778436
 31
0.0
  0
LINE
  5
250
100
AcDbEntity
  8
Sc.1_5
 62
     9
  6
CONTINUOUS
370
    -2
100
AcDbLine
 10
1905.4665211
 20
-939.96530792
 30
0.0
 11
1904.83952386
 21
-941.01030329
 31
0.0
  0
LINE
  5
251
100
AcDbEntity
  8
Sc.1_5
 62
     9
  6
CONTINUOUS
370
    -2
100
AcDbLine
 10
1905.46652126
 20
-930.63197402
 30
0.0
 11
1904.83952402
 21
-931.67696939
 31
0.0
  0
LINE
  5
252
100
AcDbEntity
  8
Sc.1_5
 62
     9
  6
CONTINUOUS
370
    -2
100
AcDbLine
 10
1905.46652141
 20
-921.29864013
 30
0.0
 11
1904.83952418
 21
-922.34363549
 31
0.0
  0
LINE
  5
253
100
AcDbEntity
  8
Sc.1_5
 62
     9
  6
CONTINUOUS
370
    -2
100
AcDbLine
 10
1905.46652157
 20
-911.96530623
 30
0.0
 11
1904.83952433
 21
-913.0103016
 31
0.0
  0
LINE
  5
254
100
AcDbEntity
  8
Sc.1_5
 62
     9
  6
CONTINUOUS
370
    -2
100
AcDbLine
 10
1878.76105386
 20
-908.3436419
 30
0.0
 11
1879.49387185
 21
-909.07645991
 31
0.0
  0
LINE
  5
255
100
AcDbEntity
  8
Sc.1_5
 62
     9
  6
CONTINUOUS
370
    -2
100
AcDbLine
 10
1878.76105376
 20
-917.67697665
 30
0.0
 11
1879.49387175
 21
-918.40979465
 31
0.0
  0
LINE
  5
256
100
AcDbEntity
  8
Sc.1_5
 62
     9
  6
CONTINUOUS
370
    -2
100
AcDbLine
 10
1878.76105367
 20
-927.01031139
 30
0.0
 11
1879.49387166
 21
-927.7431294
 31
0.0
  0
LINE
  5
257
100
AcDbEntity
  8
Sc.1_5
 62
     9
  6
CONTINUOUS
370
    -2
100
AcDbLine
 10
1878.76105357
 20
-936.34364614
 30
0.0
 11
1879.49387156
 21
-937.07646414
 31
0.0
  0
LINE
  5
258
100
AcDbEntity
  8
Sc.1_5
 62
     9
  6
CONTINUOUS
370
    -2
100
AcDbLine
 10
1878.76105382
 20
-911.88944707
 30
0.0
 11
1879.49387183
 21
-911.15662908
 31
0.0
  0
LINE
  5
259
100
AcDbEntity
  8
Sc.1_5
 62
     9
  6
CONTINUOUS
370
    -2
100
AcDbLine
 10
1878.76105373
 20
-921.22278182
 30
0.0
 11
1879.49387173
 21
-920.48996383
 31
0.0
  0
LINE
  5
25A
100
AcDbEntity
  8
Sc.1_5
 62
     9
  6
CONTINUOUS
370
    -2
100
AcDbLine
 10
1878.76105363
 20
-930.55611656
 30
0.0
 11
1879.49387164
 21
-929.82329857
 31
0.0
  0
LINE
  5
25B
100
AcDbEntity
  8
Sc.1_5
 62
     9
  6
CONTINUOUS
370
    -2
100
AcDbLine
 10
1878.76105354
 20
-939.88945131
 30
0.0
 11
1879.49387154
 21
-939.15663332
 31
0.0
  0
LINE
  5
25C
100
AcDbEntity
  8
Sc.1_5
 62
     9
  6
CONTINUOUS
370
    -2
100
AcDbLine
 10
1904.10670447
 20
-906.48996934
 30
0.0
 11
1904.83952246
 21
-907.22278735
 31
0.0
  0
LINE
  5
25D
100
AcDbEntity
  8
Sc.1_5
 62
     9
  6
CONTINUOUS
370
    -2
100
AcDbLine
 10
1904.10670438
 20
-915.82330409
 30
0.0
 11
1904.83952237
 21
-916.55612209
 31
0.0
  0
LINE
  5
25E
100
AcDbEntity
  8
Sc.1_5
 62
     9
  6
CONTINUOUS
370
    -2
100
AcDbLine
 10
1904.10670429
 20
-925.15663883
 30
0.0
 11
1904.83952228
 21
-925.88945684
 31
0.0
  0
LINE
  5
25F
100
AcDbEntity
  8
Sc.1_5
 62
     9
  6
CONTINUOUS
370
    -2
100
AcDbLine
 10
1904.10670419
 20
-934.48997358
 30
0.0
 11
1904.83952218
 21
-935.22279158
 31
0.0
  0
LINE
  5
260
100
AcDbEntity
  8
Sc.1_5
 62
     9
  6
CONTINUOUS
370
    -2
100
AcDbLine
 10
1904.1067041
 20
-943.82330832
 30
0.0
 11
1904.6332732
 21
-944.34987744
 31
0.0
  0
LINE
  5
261
100
AcDbEntity
  8
Sc.1_5
 62
     9
  6
CONTINUOUS
370
    -2
100
AcDbLine
 10
1904.83951928
 20
-941.01030619
 30
0.0
 11
1904.10670128
 21
-941.74312418
 31
0.0
  0
LINE
  5
262
100
AcDbEntity
  8
Sc.1_5
 62
     9
  6
CONTINUOUS
370
    -2
100
AcDbLine
 10
1904.83951938
 20
-931.67697144
 30
0.0
 11
1904.10670137
 21
-932.40978943
 31
0.0
  0
LINE
  5
263
100
AcDbEntity
  8
Sc.1_5
 62
     9
  6
CONTINUOUS
370
    -2
100
AcDbLine
 10
1904.83951947
 20
-922.3436367
 30
0.0
 11
1904.10670147
 21
-923.07645469
 31
0.0
  0
LINE
  5
264
100
AcDbEntity
  8
Sc.1_5
 62
     9
  6
CONTINUOUS
370
    -2
100
AcDbLine
 10
1904.83951957
 20
-913.01030195
 30
0.0
 11
1904.10670156
 21
-913.74311994
 31
0.0
  0
LINE
  5
265
100
AcDbEntity
  8
Sc.1_5
 62
     9
  6
CONTINUOUS
370
    -2
100
AcDbLine
 10
1879.49387367
 20
-909.07645851
 30
0.0
 11
1880.39834663
 21
-909.67944049
 31
0.0
  0
LINE
  5
266
100
AcDbEntity
  8
Sc.1_5
 62
     9
  6
CONTINUOUS
370
    -2
100
AcDbLine
 10
1879.49387463
 20
-918.40979215
 30
0.0
 11
1880.39834759
 21
-919.01277413
 31
0.0
  0
LINE
  5
267
100
AcDbEntity
  8
Sc.1_5
 62
     9
  6
CONTINUOUS
370
    -2
100
AcDbLine
 10
1879.49387559
 20
-927.7431258
 30
0.0
 11
1880.39834855
 21
-928.34610778
 31
0.0
  0
LINE
  5
268
100
AcDbEntity
  8
Sc.1_5
 62
     9
  6
CONTINUOUS
370
    -2
100
AcDbLine
 10
1879.49387655
 20
-937.07645944
 30
0.0
 11
1880.39834951
 21
-937.67944142
 31
0.0
  0
LINE
  5
269
100
AcDbEntity
  8
Sc.1_5
 62
     9
  6
CONTINUOUS
370
    -2
100
AcDbLine
 10
1879.49387197
 20
-911.15662752
 30
0.0
 11
1880.39834498
 21
-910.55364561
 31
0.0
  0
LINE
  5
26A
100
AcDbEntity
  8
Sc.1_5
 62
     9
  6
CONTINUOUS
370
    -2
100
AcDbLine
 10
1879.49387019
 20
-920.48996116
 30
0.0
 11
1880.39834321
 21
-919.88697926
 31
0.0
  0
LINE
  5
26B
100
AcDbEntity
  8
Sc.1_5
 62
     9
  6
CONTINUOUS
370
    -2
100
AcDbLine
 10
1879.49386842
 20
-929.82329481
 30
0.0
 11
1880.39834143
 21
-929.22031291
 31
0.0
  0
LINE
  5
26C
100
AcDbEntity
  8
Sc.1_5
 62
     9
  6
CONTINUOUS
370
    -2
100
AcDbLine
 10
1879.49386665
 20
-939.15662845
 30
0.0
 11
1880.39833966
 21
-938.55364655
 31
0.0
  0
LINE
  5
26D
100
AcDbEntity
  8
Sc.1_5
 62
     9
  6
CONTINUOUS
370
    -2
100
AcDbLine
 10
1903.20223368
 20
-905.88698435
 30
0.0
 11
1904.10670664
 21
-906.48996633
 31
0.0
  0
LINE
  5
26E
100
AcDbEntity
  8
Sc.1_5
 62
     9
  6
CONTINUOUS
370
    -2
100
AcDbLine
 10
1903.20223464
 20
-915.220318
 30
0.0
 11
1904.1067076
 21
-915.82329998
 31
0.0
  0
LINE
  5
26F
100
AcDbEntity
  8
Sc.1_5
 62
     9
  6
CONTINUOUS
370
    -2
100
AcDbLine
 10
1903.2022356
 20
-924.55365164
 30
0.0
 11
1904.10670856
 21
-925.15663362
 31
0.0
  0
LINE
  5
270
100
AcDbEntity
  8
Sc.1_5
 62
     9
  6
CONTINUOUS
370
    -2
100
AcDbLine
 10
1903.20223657
 20
-933.88698529
 30
0.0
 11
1904.10670953
 21
-934.48996727
 31
0.0
  0
LINE
  5
271
100
AcDbEntity
  8
Sc.1_5
 62
     9
  6
CONTINUOUS
370
    -2
100
AcDbLine
 10
1903.20223753
 20
-943.22031893
 30
0.0
 11
1904.10671049
 21
-943.82330091
 31
0.0
  0
LINE
  5
272
100
AcDbEntity
  8
Sc.1_5
 62
     9
  6
CONTINUOUS
370
    -2
100
AcDbLine
 10
1904.10670477
 20
-941.74312361
 30
0.0
 11
1903.2022318
 21
-942.34610557
 31
0.0
  0
LINE
  5
273
100
AcDbEntity
  8
Sc.1_5
 62
     9
  6
CONTINUOUS
370
    -2
100
AcDbLine
 10
1904.10670592
 20
-932.40978996
 30
0.0
 11
1903.20223295
 21
-933.01277193
 31
0.0
  0
LINE
  5
274
100
AcDbEntity
  8
Sc.1_5
 62
     9
  6
CONTINUOUS
370
    -2
100
AcDbLine
 10
1904.10670707
 20
-923.07645632
 30
0.0
 11
1903.2022341
 21
-923.67943828
 31
0.0
  0
LINE
  5
275
100
AcDbEntity
  8
Sc.1_5
 62
     9
  6
CONTINUOUS
370
    -2
100
AcDbLine
 10
1904.10670822
 20
-913.74312267
 30
0.0
 11
1903.20223525
 21
-914.34610463
 31
0.0
  0
LINE
  5
276
100
AcDbEntity
  8
Sc.1_5
 62
     9
  6
CONTINUOUS
370
    -2
100
AcDbLine
 10
1880.39834301
 20
-909.67943875
 30
0.0
 11
1881.70965856
 21
-910.11654402
 31
0.0
  0
LINE
  5
277
100
AcDbEntity
  8
Sc.1_5
 62
     9
  6
CONTINUOUS
370
    -2
100
AcDbLine
 10
1880.39834338
 20
-919.01277306
 30
0.0
 11
1881.70965893
 21
-919.44987833
 31
0.0
  0
LINE
  5
278
100
AcDbEntity
  8
Sc.1_5
 62
     9
  6
CONTINUOUS
370
    -2
100
AcDbLine
 10
1880.39834376
 20
-928.34610737
 30
0.0
 11
1881.70965931
 21
-928.78321264
 31
0.0
  0
LINE
  5
279
100
AcDbEntity
  8
Sc.1_5
 62
     9
  6
CONTINUOUS
370
    -2
100
AcDbLine
 10
1880.39834413
 20
-937.67944167
 30
0.0
 11
1881.70965968
 21
-938.11654695
 31
0.0
  0
LINE
  5
27A
100
AcDbEntity
  8
Sc.1_5
 62
     9
  6
CONTINUOUS
370
    -2
100
AcDbLine
 10
1880.39834253
 20
-910.55364982
 30
0.0
 11
1881.70965809
 21
-910.11654457
 31
0.0
  0
LINE
  5
27B
100
AcDbEntity
  8
Sc.1_5
 62
     9
  6
CONTINUOUS
370
    -2
100
AcDbLine
 10
1880.39834197
 20
-919.88698413
 30
0.0
 11
1881.70965753
 21
-919.44987888
 31
0.0
  0
LINE
  5
27C
100
AcDbEntity
  8
Sc.1_5
 62
     9
  6
CONTINUOUS
370
    -2
100
AcDbLine
 10
1880.39834141
 20
-929.22031843
 30
0.0
 11
1881.70965697
 21
-928.78321319
 31
0.0
  0
LINE
  5
27D
100
AcDbEntity
  8
Sc.1_5
 62
     9
  6
CONTINUOUS
370
    -2
100
AcDbLine
 10
1880.39834085
 20
-938.55365274
 30
0.0
 11
1881.70965641
 21
-938.1165475
 31
0.0
  0
LINE
  5
27E
100
AcDbEntity
  8
Sc.1_5
 62
     9
  6
CONTINUOUS
370
    -2
100
AcDbLine
 10
1901.89091871
 20
-905.44987756
 30
0.0
 11
1903.20223143
 21
-905.88698189
 31
0.0
  0
LINE
  5
27F
100
AcDbEntity
  8
Sc.1_5
 62
     9
  6
CONTINUOUS
370
    -2
100
AcDbLine
 10
1901.89091625
 20
-914.78321092
 30
0.0
 11
1903.2022318
 21
-915.2203162
 31
0.0
  0
LINE
  5
280
100
AcDbEntity
  8
Sc.1_5
 62
     9
  6
CONTINUOUS
370
    -2
100
AcDbLine
 10
1901.89091662
 20
-924.11654523
 30
0.0
 11
1903.20223217
 21
-924.5536505
 31
0.0
  0
LINE
  5
281
100
AcDbEntity
  8
Sc.1_5
 62
     9
  6
CONTINUOUS
370
    -2
100
AcDbLine
 10
1901.890917
 20
-933.44987954
 30
0.0
 11
1903.20223255
 21
-933.88698481
 31
0.0
  0
LINE
  5
282
100
AcDbEntity
  8
Sc.1_5
 62
     9
  6
CONTINUOUS
370
    -2
100
AcDbLine
 10
1901.89091737
 20
-942.78321385
 30
0.0
 11
1903.20223292
 21
-943.22031912
 31
0.0
  0
LINE
  5
283
100
AcDbEntity
  8
Sc.1_5
 62
     9
  6
CONTINUOUS
370
    -2
100
AcDbLine
 10
1903.20222847
 20
-942.34610785
 30
0.0
 11
1901.89091291
 21
-942.78321309
 31
0.0
  0
LINE
  5
284
100
AcDbEntity
  8
Sc.1_5
 62
     9
  6
CONTINUOUS
370
    -2
100
AcDbLine
 10
1903.20222903
 20
-933.01277354
 30
0.0
 11
1901.89091347
 21
-933.44987878
 31
0.0
  0
LINE
  5
285
100
AcDbEntity
  8
Sc.1_5
 62
     9
  6
CONTINUOUS
370
    -2
100
AcDbLine
 10
1903.2022296
 20
-923.67943923
 30
0.0
 11
1901.89091404
 21
-924.11654448
 31
0.0
  0
LINE
  5
286
100
AcDbEntity
  8
Sc.1_5
 62
     9
  6
CONTINUOUS
370
    -2
100
AcDbLine
 10
1903.20223016
 20
-914.34610492
 30
0.0
 11
1901.8909146
 21
-914.78321017
 31
0.0
  0
LINE
  5
287
100
AcDbEntity
  8
Sc.1_5
 62
     9
  6
CONTINUOUS
370
    -2
100
AcDbLine
 10
1882.46696824
 20
-910.11654341
 30
0.0
 11
1883.46802106
 21
-910.22777157
 31
0.0
  0
LINE
  5
288
100
AcDbEntity
  8
Sc.1_5
 62
     9
  6
CONTINUOUS
370
    -2
100
AcDbLine
 10
1882.46697955
 20
-919.44987606
 30
0.0
 11
1883.46803237
 21
-919.56110422
 31
0.0
  0
LINE
  5
289
100
AcDbEntity
  8
Sc.1_5
 62
     9
  6
CONTINUOUS
370
    -2
100
AcDbLine
 10
1882.46699087
 20
-928.78320871
 30
0.0
 11
1883.46804368
 21
-928.89443687
 31
0.0
  0
LINE
  5
28A
100
AcDbEntity
  8
Sc.1_5
 62
     9
  6
CONTINUOUS
370
    -2
100
AcDbLine
 10
1882.46700218
 20
-938.11654136
 30
0.0
 11
1883.46805499
 21
-938.22776952
 31
0.0
  0
LINE
  5
28B
100
AcDbEntity
  8
Sc.1_5
 62
     9
  6
CONTINUOUS
370
    -2
100
AcDbLine
 10
1882.46695684
 20
-910.11654354
 30
0.0
 11
1883.46800965
 21
-910.00531541
 31
0.0
  0
LINE
  5
28C
100
AcDbEntity
  8
Sc.1_5
 62
     9
  6
CONTINUOUS
370
    -2
100
AcDbLine
 10
1882.46694534
 20
-919.44987619
 30
0.0
 11
1883.46799815
 21
-919.33864806
 31
0.0
  0
LINE
  5
28D
100
AcDbEntity
  8
Sc.1_5
 62
     9
  6
CONTINUOUS
370
    -2
100
AcDbLine
 10
1882.46693384
 20
-928.78320884
 30
0.0
 11
1883.46798665
 21
-928.67198071
 31
0.0
  0
LINE
  5
28E
100
AcDbEntity
  8
Sc.1_5
 62
     9
  6
CONTINUOUS
370
    -2
100
AcDbLine
 10
1882.46692234
 20
-938.11654149
 30
0.0
 11
1883.46797515
 21
-938.00531336
 31
0.0
  0
LINE
  5
28F
100
AcDbEntity
  8
Sc.1_5
 62
     9
  6
CONTINUOUS
370
    -2
100
AcDbLine
 10
1901.13367931
 20
-942.78321382
 30
0.0
 11
1900.13262647
 21
-942.67198593
 31
0.0
  0
LINE
  5
290
100
AcDbEntity
  8
Sc.1_5
 62
     9
  6
CONTINUOUS
370
    -2
100
AcDbLine
 10
1901.13366551
 20
-933.44988117
 30
0.0
 11
1900.13261267
 21
-933.33865328
 31
0.0
  0
LINE
  5
291
100
AcDbEntity
  8
Sc.1_5
 62
     9
  6
CONTINUOUS
370
    -2
100
AcDbLine
 10
1901.13365172
 20
-924.11654852
 30
0.0
 11
1900.13259887
 21
-924.00532063
 31
0.0
  0
LINE
  5
292
100
AcDbEntity
  8
Sc.1_5
 62
     9
  6
CONTINUOUS
370
    -2
100
AcDbLine
 10
1901.13363792
 20
-914.78321587
 30
0.0
 11
1900.13258507
 21
-914.67198798
 31
0.0
  0
LINE
  5
293
100
AcDbEntity
  8
Sc.1_5
 62
     9
  6
CONTINUOUS
370
    -2
100
AcDbLine
 10
1901.13362412
 20
-905.44988321
 30
0.0
 11
1901.13357352
 21
-905.44987759
 31
0.0
  0
LINE
  5
294
100
AcDbEntity
  8
Sc.1_5
 62
     9
  6
CONTINUOUS
370
    -2
100
AcDbLine
 10
1901.13357812
 20
-942.78320953
 30
0.0
 11
1900.1325253
 21
-942.89443766
 31
0.0
  0
LINE
  5
295
100
AcDbEntity
  8
Sc.1_5
 62
     9
  6
CONTINUOUS
370
    -2
100
AcDbLine
 10
1901.13358962
 20
-933.44987688
 30
0.0
 11
1900.1325368
 21
-933.56110501
 31
0.0
  0
LINE
  5
296
100
AcDbEntity
  8
Sc.1_5
 62
     9
  6
CONTINUOUS
370
    -2
100
AcDbLine
 10
1901.13360112
 20
-924.11654422
 30
0.0
 11
1900.1325483
 21
-924.22777236
 31
0.0
  0
LINE
  5
297
100
AcDbEntity
  8
Sc.1_5
 62
     9
  6
CONTINUOUS
370
    -2
100
AcDbLine
 10
1901.13361262
 20
-914.78321157
 30
0.0
 11
1900.1325598
 21
-914.89443971
 31
0.0
  0
LINE
  5
298
100
AcDbEntity
  8
Sc.1_5
 62
     9
  6
CONTINUOUS
370
    -2
100
AcDbLine
 10
1901.13362412
 20
-905.44987892
 30
0.0
 11
1900.1325713
 21
-905.56110706
 31
0.0
  0
ENDBLK
  5
299
100
AcDbEntity
100
AcDbBlockEnd
  0
BLOCK
  5
29A
100
AcDbEntity
  8
Sc.1_5
100
AcDbBlockBegin
  2
*X2040
 70
     1
 10
0.0
 20
0.0
 30
0.0
  3
*X2040
  1

  4
Cadwork hatch
  0
LINE
  5
29B
100
AcDbEntity
  8
Sc.1_5
 62
     9
  6
CONTINUOUS
370
    -2
100
AcDbLine
 10
1877.8002875
 20
-896.44987739
 30
0.0
 11
1877.80028832
 21
-895.82492575
 31
0.0
  0
LINE
  5
29C
100
AcDbEntity
  8
Sc.1_5
 62
     9
  6
CONTINUOUS
370
    -2
100
AcDbLine
 10
1877.8002928
 20
-892.40816107
 30
0.0
 11
1877.80029444
 21
-891.15825779
 31
0.0
  0
LINE
  5
29D
100
AcDbEntity
  8
Sc.1_5
 62
     9
  6
CONTINUOUS
370
    -2
100
AcDbLine
 10
1877.80029891
 20
-887.74149311
 30
0.0
 11
1877.80030055
 21
-886.49158983
 31
0.0
  0
LINE
  5
29E
100
AcDbEntity
  8
Sc.1_5
 62
     9
  6
CONTINUOUS
370
    -2
100
AcDbLine
 10
1877.80030503
 20
-883.07482515
 30
0.0
 11
1877.80030667
 21
-881.82492188
 31
0.0
  0
LINE
  5
29F
100
AcDbEntity
  8
Sc.1_5
 62
     9
  6
CONTINUOUS
370
    -2
100
AcDbLine
 10
1877.80031115
 20
-878.40815719
 30
0.0
 11
1877.80031279
 21
-877.15825392
 31
0.0
  0
LINE
  5
2A0
100
AcDbEntity
  8
Sc.1_5
 62
     9
  6
CONTINUOUS
370
    -2
100
AcDbLine
 10
1877.80031726
 20
-873.74148924
 30
0.0
 11
1877.8003189
 21
-872.49158596
 31
0.0
  0
LINE
  5
2A1
100
AcDbEntity
  8
Sc.1_5
 62
     9
  6
CONTINUOUS
370
    -2
100
AcDbLine
 10
1877.80032338
 20
-869.07482128
 30
0.0
 11
1877.80032502
 21
-867.824918
 31
0.0
  0
LINE
  5
2A2
100
AcDbEntity
  8
Sc.1_5
 62
     9
  6
CONTINUOUS
370
    -2
100
AcDbLine
 10
1877.8003295
 20
-864.40815332
 30
0.0
 11
1877.80033114
 21
-863.15825004
 31
0.0
  0
LINE
  5
2A3
100
AcDbEntity
  8
Sc.1_5
 62
     9
  6
CONTINUOUS
370
    -2
100
AcDbLine
 10
1877.80033561
 20
-859.74148536
 30
0.0
 11
1877.80033725
 21
-858.49158209
 31
0.0
  0
LINE
  5
2A4
100
AcDbEntity
  8
Sc.1_5
 62
     9
  6
CONTINUOUS
370
    -2
100
AcDbLine
 10
1877.80034173
 20
-855.0748174
 30
0.0
 11
1877.80034337
 21
-853.82491413
 31
0.0
  0
LINE
  5
2A5
100
AcDbEntity
  8
Sc.1_5
 62
     9
  6
CONTINUOUS
370
    -2
100
AcDbLine
 10
1877.80034785
 20
-850.40814944
 30
0.0
 11
1877.80034949
 21
-849.15824617
 31
0.0
  0
LINE
  5
2A6
100
AcDbEntity
  8
Sc.1_5
 62
     9
  6
CONTINUOUS
370
    -2
100
AcDbLine
 10
1877.80035396
 20
-845.74148149
 30
0.0
 11
1877.8003556
 21
-844.49157821
 31
0.0
  0
LINE
  5
2A7
100
AcDbEntity
  8
Sc.1_5
 62
     9
  6
CONTINUOUS
370
    -2
100
AcDbLine
 10
1877.80036008
 20
-841.07481353
 30
0.0
 11
1877.80036172
 21
-839.82491025
 31
0.0
  0
LINE
  5
2A8
100
AcDbEntity
  8
Sc.1_5
 62
     9
  6
CONTINUOUS
370
    -2
100
AcDbLine
 10
1877.8003662
 20
-836.40814557
 30
0.0
 11
1877.80036784
 21
-835.1582423
 31
0.0
  0
LINE
  5
2A9
100
AcDbEntity
  8
Sc.1_5
 62
     9
  6
CONTINUOUS
370
    -2
100
AcDbLine
 10
1877.80037231
 20
-831.74147761
 30
0.0
 11
1877.80037395
 21
-830.49157434
 31
0.0
  0
LINE
  5
2AA
100
AcDbEntity
  8
Sc.1_5
 62
     9
  6
CONTINUOUS
370
    -2
100
AcDbLine
 10
1877.80037843
 20
-827.07480965
 30
0.0
 11
1877.80038007
 21
-825.82490638
 31
0.0
  0
LINE
  5
2AB
100
AcDbEntity
  8
Sc.1_5
 62
     9
  6
CONTINUOUS
370
    -2
100
AcDbLine
 10
1877.80038455
 20
-822.4081417
 30
0.0
 11
1877.80038619
 21
-821.15823842
 31
0.0
  0
LINE
  5
2AC
100
AcDbEntity
  8
Sc.1_5
 62
     9
  6
CONTINUOUS
370
    -2
100
AcDbLine
 10
1901.89092307
 20
-891.78324109
 30
0.0
 11
1901.13362665
 21
-891.7832401
 31
0.0
  0
LINE
  5
2AD
100
AcDbEntity
  8
Sc.1_5
 62
     9
  6
CONTINUOUS
370
    -2
100
AcDbLine
 10
1901.89093531
 20
-882.44990801
 30
0.0
 11
1901.13363888
 21
-882.44990702
 31
0.0
  0
LINE
  5
2AE
100
AcDbEntity
  8
Sc.1_5
 62
     9
  6
CONTINUOUS
370
    -2
100
AcDbLine
 10
1901.89094754
 20
-873.11657493
 30
0.0
 11
1901.13365112
 21
-873.11657394
 31
0.0
  0
LINE
  5
2AF
100
AcDbEntity
  8
Sc.1_5
 62
     9
  6
CONTINUOUS
370
    -2
100
AcDbLine
 10
1901.89095977
 20
-863.78324185
 30
0.0
 11
1901.13366335
 21
-863.78324086
 31
0.0
  0
LINE
  5
2B0
100
AcDbEntity
  8
Sc.1_5
 62
     9
  6
CONTINUOUS
370
    -2
100
AcDbLine
 10
1901.89097201
 20
-854.44990877
 30
0.0
 11
1901.13367558
 21
-854.44990778
 31
0.0
  0
LINE
  5
2B1
100
AcDbEntity
  8
Sc.1_5
 62
     9
  6
CONTINUOUS
370
    -2
100
AcDbLine
 10
1901.89098424
 20
-845.11657569
 30
0.0
 11
1901.13368782
 21
-845.1165747
 31
0.0
  0
LINE
  5
2B2
100
AcDbEntity
  8
Sc.1_5
 62
     9
  6
CONTINUOUS
370
    -2
100
AcDbLine
 10
1901.89099647
 20
-835.78324262
 30
0.0
 11
1901.13370005
 21
-835.78324162
 31
0.0
  0
LINE
  5
2B3
100
AcDbEntity
  8
Sc.1_5
 62
     9
  6
CONTINUOUS
370
    -2
100
AcDbLine
 10
1901.89100871
 20
-826.44990954
 30
0.0
 11
1901.13371228
 21
-826.44990854
 31
0.0
  0
LINE
  5
2B4
100
AcDbEntity
  8
Sc.1_5
 62
     9
  6
CONTINUOUS
370
    -2
100
AcDbLine
 10
1882.46696661
 20
-887.11654943
 30
0.0
 11
1881.70967018
 21
-887.11654843
 31
0.0
  0
LINE
  5
2B5
100
AcDbEntity
  8
Sc.1_5
 62
     9
  6
CONTINUOUS
370
    -2
100
AcDbLine
 10
1882.46697884
 20
-877.78321635
 30
0.0
 11
1881.70968242
 21
-877.78321535
 31
0.0
  0
LINE
  5
2B6
100
AcDbEntity
  8
Sc.1_5
 62
     9
  6
CONTINUOUS
370
    -2
100
AcDbLine
 10
1882.46699107
 20
-868.44988327
 30
0.0
 11
1881.70969465
 21
-868.44988228
 31
0.0
  0
LINE
  5
2B7
100
AcDbEntity
  8
Sc.1_5
 62
     9
  6
CONTINUOUS
370
    -2
100
AcDbLine
 10
1882.46700331
 20
-859.11655019
 30
0.0
 11
1881.70970688
 21
-859.1165492
 31
0.0
  0
LINE
  5
2B8
100
AcDbEntity
  8
Sc.1_5
 62
     9
  6
CONTINUOUS
370
    -2
100
AcDbLine
 10
1882.46701554
 20
-849.78321711
 30
0.0
 11
1881.70971912
 21
-849.78321612
 31
0.0
  0
LINE
  5
2B9
100
AcDbEntity
  8
Sc.1_5
 62
     9
  6
CONTINUOUS
370
    -2
100
AcDbLine
 10
1882.46702777
 20
-840.44988403
 30
0.0
 11
1881.70973135
 21
-840.44988304
 31
0.0
  0
LINE
  5
2BA
100
AcDbEntity
  8
Sc.1_5
 62
     9
  6
CONTINUOUS
370
    -2
100
AcDbLine
 10
1882.46704001
 20
-831.11655095
 30
0.0
 11
1881.70974359
 21
-831.11654996
 31
0.0
  0
LINE
  5
2BB
100
AcDbEntity
  8
Sc.1_5
 62
     9
  6
CONTINUOUS
370
    -2
100
AcDbLine
 10
1882.46705224
 20
-821.78321787
 30
0.0
 11
1881.70975582
 21
-821.78321688
 31
0.0
  0
LINE
  5
2BC
100
AcDbEntity
  8
Sc.1_5
 62
     9
  6
CONTINUOUS
370
    -2
100
AcDbLine
 10
1900.13242589
 20
-891.8939548
 30
0.0
 11
1883.46785692
 21
-896.33814277
 31
0.0
  0
LINE
  5
2BD
100
AcDbEntity
  8
Sc.1_5
 62
     9
  6
CONTINUOUS
370
    -2
100
AcDbLine
 10
1900.13245413
 20
-882.56062362
 30
0.0
 11
1883.46788516
 21
-887.00481159
 31
0.0
  0
LINE
  5
2BE
100
AcDbEntity
  8
Sc.1_5
 62
     9
  6
CONTINUOUS
370
    -2
100
AcDbLine
 10
1900.13248237
 20
-873.22729244
 30
0.0
 11
1883.4679134
 21
-877.67148041
 31
0.0
  0
LINE
  5
2BF
100
AcDbEntity
  8
Sc.1_5
 62
     9
  6
CONTINUOUS
370
    -2
100
AcDbLine
 10
1900.13251061
 20
-863.89396126
 30
0.0
 11
1883.46794164
 21
-868.33814923
 31
0.0
  0
LINE
  5
2C0
100
AcDbEntity
  8
Sc.1_5
 62
     9
  6
CONTINUOUS
370
    -2
100
AcDbLine
 10
1900.13253885
 20
-854.56063008
 30
0.0
 11
1883.46796988
 21
-859.00481805
 31
0.0
  0
LINE
  5
2C1
100
AcDbEntity
  8
Sc.1_5
 62
     9
  6
CONTINUOUS
370
    -2
100
AcDbLine
 10
1900.13256709
 20
-845.2272989
 30
0.0
 11
1883.46799812
 21
-849.67148687
 31
0.0
  0
LINE
  5
2C2
100
AcDbEntity
  8
Sc.1_5
 62
     9
  6
CONTINUOUS
370
    -2
100
AcDbLine
 10
1900.13259533
 20
-835.89396772
 30
0.0
 11
1883.46802636
 21
-840.33815569
 31
0.0
  0
LINE
  5
2C3
100
AcDbEntity
  8
Sc.1_5
 62
     9
  6
CONTINUOUS
370
    -2
100
AcDbLine
 10
1900.13262357
 20
-826.56063654
 30
0.0
 11
1883.46805461
 21
-831.00482451
 31
0.0
  0
LINE
  5
2C4
100
AcDbEntity
  8
Sc.1_5
 62
     9
  6
CONTINUOUS
370
    -2
100
AcDbLine
 10
1890.58143768
 20
-819.77446941
 30
0.0
 11
1883.46808285
 21
-821.67149334
 31
0.0
  0
LINE
  5
2C5
100
AcDbEntity
  8
Sc.1_5
 62
     9
  6
CONTINUOUS
370
    -2
100
AcDbLine
 10
1900.13242618
 20
-891.67252544
 30
0.0
 11
1883.46786886
 21
-887.22829378
 31
0.0
  0
LINE
  5
2C6
100
AcDbEntity
  8
Sc.1_5
 62
     9
  6
CONTINUOUS
370
    -2
100
AcDbLine
 10
1900.13242241
 20
-882.33919426
 30
0.0
 11
1883.46786509
 21
-877.8949626
 31
0.0
  0
LINE
  5
2C7
100
AcDbEntity
  8
Sc.1_5
 62
     9
  6
CONTINUOUS
370
    -2
100
AcDbLine
 10
1900.13241863
 20
-873.00586308
 30
0.0
 11
1883.46786132
 21
-868.56163143
 31
0.0
  0
LINE
  5
2C8
100
AcDbEntity
  8
Sc.1_5
 62
     9
  6
CONTINUOUS
370
    -2
100
AcDbLine
 10
1900.13241486
 20
-863.6725319
 30
0.0
 11
1883.46785754
 21
-859.22830025
 31
0.0
  0
LINE
  5
2C9
100
AcDbEntity
  8
Sc.1_5
 62
     9
  6
CONTINUOUS
370
    -2
100
AcDbLine
 10
1900.13241109
 20
-854.33920072
 30
0.0
 11
1883.46785377
 21
-849.89496907
 31
0.0
  0
LINE
  5
2CA
100
AcDbEntity
  8
Sc.1_5
 62
     9
  6
CONTINUOUS
370
    -2
100
AcDbLine
 10
1900.13240731
 20
-845.00586954
 30
0.0
 11
1883.46785
 21
-840.56163789
 31
0.0
  0
LINE
  5
2CB
100
AcDbEntity
  8
Sc.1_5
 62
     9
  6
CONTINUOUS
370
    -2
100
AcDbLine
 10
1900.13240354
 20
-835.67253836
 30
0.0
 11
1883.46784622
 21
-831.22830671
 31
0.0
  0
LINE
  5
2CC
100
AcDbEntity
  8
Sc.1_5
 62
     9
  6
CONTINUOUS
370
    -2
100
AcDbLine
 10
1900.13239977
 20
-826.33920718
 30
0.0
 11
1883.46784245
 21
-821.89497553
 31
0.0
  0
LINE
  5
2CD
100
AcDbEntity
  8
Sc.1_5
 62
     9
  6
CONTINUOUS
370
    -2
100
AcDbLine
 10
1905.80028731
 20
-895.82495397
 30
0.0
 11
1905.46652659
 21
-894.60115841
 31
0.0
  0
LINE
  5
2CE
100
AcDbEntity
  8
Sc.1_5
 62
     9
  6
CONTINUOUS
370
    -2
100
AcDbLine
 10
1905.80028731
 20
-886.49157541
 30
0.0
 11
1905.46653908
 21
-885.26782562
 31
0.0
  0
LINE
  5
2CF
100
AcDbEntity
  8
Sc.1_5
 62
     9
  6
CONTINUOUS
370
    -2
100
AcDbLine
 10
1905.80028731
 20
-877.15819685
 30
0.0
 11
1905.46655156
 21
-875.93449283
 31
0.0
  0
LINE
  5
2D0
100
AcDbEntity
  8
Sc.1_5
 62
     9
  6
CONTINUOUS
370
    -2
100
AcDbLine
 10
1905.80028731
 20
-867.82481829
 30
0.0
 11
1905.46656404
 21
-866.60116005
 31
0.0
  0
LINE
  5
2D1
100
AcDbEntity
  8
Sc.1_5
 62
     9
  6
CONTINUOUS
370
    -2
100
AcDbLine
 10
1905.80028731
 20
-858.49143973
 30
0.0
 11
1905.46657653
 21
-857.26782726
 31
0.0
  0
LINE
  5
2D2
100
AcDbEntity
  8
Sc.1_5
 62
     9
  6
CONTINUOUS
370
    -2
100
AcDbLine
 10
1905.80028731
 20
-849.15806117
 30
0.0
 11
1905.46658901
 21
-847.93449448
 31
0.0
  0
LINE
  5
2D3
100
AcDbEntity
  8
Sc.1_5
 62
     9
  6
CONTINUOUS
370
    -2
100
AcDbLine
 10
1905.80028731
 20
-839.82468261
 30
0.0
 11
1905.4666015
 21
-838.60116169
 31
0.0
  0
LINE
  5
2D4
100
AcDbEntity
  8
Sc.1_5
 62
     9
  6
CONTINUOUS
370
    -2
100
AcDbLine
 10
1905.80028731
 20
-830.49130405
 30
0.0
 11
1905.46661398
 21
-829.2678289
 31
0.0
  0
LINE
  5
2D5
100
AcDbEntity
  8
Sc.1_5
 62
     9
  6
CONTINUOUS
370
    -2
100
AcDbLine
 10
1905.80028731
 20
-821.15792549
 30
0.0
 11
1905.46662646
 21
-819.93449612
 31
0.0
  0
LINE
  5
2D6
100
AcDbEntity
  8
Sc.1_5
 62
     9
  6
CONTINUOUS
370
    -2
100
AcDbLine
 10
1905.80028731
 20
-887.74157107
 30
0.0
 11
1905.46653265
 21
-888.96533243
 31
0.0
  0
LINE
  5
2D7
100
AcDbEntity
  8
Sc.1_5
 62
     9
  6
CONTINUOUS
370
    -2
100
AcDbLine
 10
1905.80028731
 20
-878.40827767
 30
0.0
 11
1905.46654339
 21
-879.63199964
 31
0.0
  0
LINE
  5
2D8
100
AcDbEntity
  8
Sc.1_5
 62
     9
  6
CONTINUOUS
370
    -2
100
AcDbLine
 10
1905.80028731
 20
-869.07498426
 30
0.0
 11
1905.46655413
 21
-870.29866685
 31
0.0
  0
LINE
  5
2D9
100
AcDbEntity
  8
Sc.1_5
 62
     9
  6
CONTINUOUS
370
    -2
100
AcDbLine
 10
1905.80028731
 20
-859.74169086
 30
0.0
 11
1905.46656487
 21
-860.96533407
 31
0.0
  0
LINE
  5
2DA
100
AcDbEntity
  8
Sc.1_5
 62
     9
  6
CONTINUOUS
370
    -2
100
AcDbLine
 10
1905.80028731
 20
-850.40839745
 30
0.0
 11
1905.46657561
 21
-851.63200128
 31
0.0
  0
LINE
  5
2DB
100
AcDbEntity
  8
Sc.1_5
 62
     9
  6
CONTINUOUS
370
    -2
100
AcDbLine
 10
1905.80028731
 20
-841.07510405
 30
0.0
 11
1905.46658635
 21
-842.2986685
 31
0.0
  0
LINE
  5
2DC
100
AcDbEntity
  8
Sc.1_5
 62
     9
  6
CONTINUOUS
370
    -2
100
AcDbLine
 10
1905.80028731
 20
-831.74181064
 30
0.0
 11
1905.46659709
 21
-832.96533571
 31
0.0
  0
LINE
  5
2DD
100
AcDbEntity
  8
Sc.1_5
 62
     9
  6
CONTINUOUS
370
    -2
100
AcDbLine
 10
1905.80028731
 20
-822.40851724
 30
0.0
 11
1905.46660783
 21
-823.63200292
 31
0.0
  0
LINE
  5
2DE
100
AcDbEntity
  8
Sc.1_5
 62
     9
  6
CONTINUOUS
370
    -2
100
AcDbLine
 10
1878.13406165
 20
-893.63199365
 30
0.0
 11
1877.8002949
 21
-892.40817598
 31
0.0
  0
LINE
  5
2DF
100
AcDbEntity
  8
Sc.1_5
 62
     9
  6
CONTINUOUS
370
    -2
100
AcDbLine
 10
1878.13407413
 20
-884.29866087
 30
0.0
 11
1877.80030739
 21
-883.0748432
 31
0.0
  0
LINE
  5
2E0
100
AcDbEntity
  8
Sc.1_5
 62
     9
  6
CONTINUOUS
370
    -2
100
AcDbLine
 10
1878.13408661
 20
-874.96532808
 30
0.0
 11
1877.80031987
 21
-873.74151041
 31
0.0
  0
LINE
  5
2E1
100
AcDbEntity
  8
Sc.1_5
 62
     9
  6
CONTINUOUS
370
    -2
100
AcDbLine
 10
1878.1340991
 20
-865.63199529
 30
0.0
 11
1877.80033235
 21
-864.40817763
 31
0.0
  0
LINE
  5
2E2
100
AcDbEntity
  8
Sc.1_5
 62
     9
  6
CONTINUOUS
370
    -2
100
AcDbLine
 10
1878.13411158
 20
-856.29866251
 30
0.0
 11
1877.80034484
 21
-855.07484484
 31
0.0
  0
LINE
  5
2E3
100
AcDbEntity
  8
Sc.1_5
 62
     9
  6
CONTINUOUS
370
    -2
100
AcDbLine
 10
1878.13412407
 20
-846.96532972
 30
0.0
 11
1877.80035732
 21
-845.74151205
 31
0.0
  0
LINE
  5
2E4
100
AcDbEntity
  8
Sc.1_5
 62
     9
  6
CONTINUOUS
370
    -2
100
AcDbLine
 10
1878.13413655
 20
-837.63199694
 30
0.0
 11
1877.8003698
 21
-836.40817927
 31
0.0
  0
LINE
  5
2E5
100
AcDbEntity
  8
Sc.1_5
 62
     9
  6
CONTINUOUS
370
    -2
100
AcDbLine
 10
1878.13414903
 20
-828.29866415
 30
0.0
 11
1877.80038229
 21
-827.07484648
 31
0.0
  0
LINE
  5
2E6
100
AcDbEntity
  8
Sc.1_5
 62
     9
  6
CONTINUOUS
370
    -2
100
AcDbLine
 10
1877.80038143
 20
-825.82491746
 30
0.0
 11
1878.13415139
 21
-824.60110067
 31
0.0
  0
LINE
  5
2E7
100
AcDbEntity
  8
Sc.1_5
 62
     9
  6
CONTINUOUS
370
    -2
100
AcDbLine
 10
1877.80036945
 20
-835.15825025
 30
0.0
 11
1878.1341394
 21
-833.93443345
 31
0.0
  0
LINE
  5
2E8
100
AcDbEntity
  8
Sc.1_5
 62
     9
  6
CONTINUOUS
370
    -2
100
AcDbLine
 10
1877.80035747
 20
-844.49158303
 30
0.0
 11
1878.13412742
 21
-843.26776624
 31
0.0
  0
LINE
  5
2E9
100
AcDbEntity
  8
Sc.1_5
 62
     9
  6
CONTINUOUS
370
    -2
100
AcDbLine
 10
1877.80034548
 20
-853.82491582
 30
0.0
 11
1878.13411544
 21
-852.60109903
 31
0.0
  0
LINE
  5
2EA
100
AcDbEntity
  8
Sc.1_5
 62
     9
  6
CONTINUOUS
370
    -2
100
AcDbLine
 10
1877.8003335
 20
-863.15824861
 30
0.0
 11
1878.13410345
 21
-861.93443181
 31
0.0
  0
LINE
  5
2EB
100
AcDbEntity
  8
Sc.1_5
 62
     9
  6
CONTINUOUS
370
    -2
100
AcDbLine
 10
1877.80032152
 20
-872.49158139
 30
0.0
 11
1878.13409147
 21
-871.2677646
 31
0.0
  0
LINE
  5
2EC
100
AcDbEntity
  8
Sc.1_5
 62
     9
  6
CONTINUOUS
370
    -2
100
AcDbLine
 10
1877.80030953
 20
-881.82491418
 30
0.0
 11
1878.13407949
 21
-880.60109738
 31
0.0
  0
LINE
  5
2ED
100
AcDbEntity
  8
Sc.1_5
 62
     9
  6
CONTINUOUS
370
    -2
100
AcDbLine
 10
1877.80029755
 20
-891.15824696
 30
0.0
 11
1878.1340675
 21
-889.93443017
 31
0.0
  0
LINE
  5
2EE
100
AcDbEntity
  8
Sc.1_5
 62
     9
  6
CONTINUOUS
370
    -2
100
AcDbLine
 10
1905.46652076
 20
-894.60114036
 30
0.0
 11
1904.83952486
 21
-893.55614408
 31
0.0
  0
LINE
  5
2EF
100
AcDbEntity
  8
Sc.1_5
 62
     9
  6
CONTINUOUS
370
    -2
100
AcDbLine
 10
1905.46653294
 20
-885.26780567
 30
0.0
 11
1904.83953703
 21
-884.22280939
 31
0.0
  0
LINE
  5
2F0
100
AcDbEntity
  8
Sc.1_5
 62
     9
  6
CONTINUOUS
370
    -2
100
AcDbLine
 10
1905.46654511
 20
-875.93447098
 30
0.0
 11
1904.8395492
 21
-874.88947469
 31
0.0
  0
LINE
  5
2F1
100
AcDbEntity
  8
Sc.1_5
 62
     9
  6
CONTINUOUS
370
    -2
100
AcDbLine
 10
1905.46655728
 20
-866.60113629
 30
0.0
 11
1904.83956137
 21
-865.55614
 31
0.0
  0
LINE
  5
2F2
100
AcDbEntity
  8
Sc.1_5
 62
     9
  6
CONTINUOUS
370
    -2
100
AcDbLine
 10
1905.46656945
 20
-857.2678016
 30
0.0
 11
1904.83957354
 21
-856.22280531
 31
0.0
  0
LINE
  5
2F3
100
AcDbEntity
  8
Sc.1_5
 62
     9
  6
CONTINUOUS
370
    -2
100
AcDbLine
 10
1905.46658162
 20
-847.9344669
 30
0.0
 11
1904.83958571
 21
-846.88947062
 31
0.0
  0
LINE
  5
2F4
100
AcDbEntity
  8
Sc.1_5
 62
     9
  6
CONTINUOUS
370
    -2
100
AcDbLine
 10
1905.46659379
 20
-838.60113221
 30
0.0
 11
1904.83959788
 21
-837.55613593
 31
0.0
  0
LINE
  5
2F5
100
AcDbEntity
  8
Sc.1_5
 62
     9
  6
CONTINUOUS
370
    -2
100
AcDbLine
 10
1905.46660597
 20
-829.26779752
 30
0.0
 11
1904.83961006
 21
-828.22280123
 31
0.0
  0
LINE
  5
2F6
100
AcDbEntity
  8
Sc.1_5
 62
     9
  6
CONTINUOUS
370
    -2
100
AcDbLine
 10
1905.46661814
 20
-819.93446283
 30
0.0
 11
1905.37062237
 21
-819.77446941
 31
0.0
  0
LINE
  5
2F7
100
AcDbEntity
  8
Sc.1_5
 62
     9
  6
CONTINUOUS
370
    -2
100
AcDbLine
 10
1905.46652883
 20
-888.97225881
 30
0.0
 11
1904.83953011
 21
-890.01725341
 31
0.0
  0
LINE
  5
2F8
100
AcDbEntity
  8
Sc.1_5
 62
     9
  6
CONTINUOUS
370
    -2
100
AcDbLine
 10
1905.46654174
 20
-879.63892412
 30
0.0
 11
1904.83954302
 21
-880.68391872
 31
0.0
  0
LINE
  5
2F9
100
AcDbEntity
  8
Sc.1_5
 62
     9
  6
CONTINUOUS
370
    -2
100
AcDbLine
 10
1905.46655466
 20
-870.30558943
 30
0.0
 11
1904.83955594
 21
-871.35058403
 31
0.0
  0
LINE
  5
2FA
100
AcDbEntity
  8
Sc.1_5
 62
     9
  6
CONTINUOUS
370
    -2
100
AcDbLine
 10
1905.46656758
 20
-860.97225473
 30
0.0
 11
1904.83956886
 21
-862.01724933
 31
0.0
  0
LINE
  5
2FB
100
AcDbEntity
  8
Sc.1_5
 62
     9
  6
CONTINUOUS
370
    -2
100
AcDbLine
 10
1905.46658049
 20
-851.63892004
 30
0.0
 11
1904.83958178
 21
-852.68391464
 31
0.0
  0
LINE
  5
2FC
100
AcDbEntity
  8
Sc.1_5
 62
     9
  6
CONTINUOUS
370
    -2
100
AcDbLine
 10
1905.46659341
 20
-842.30558535
 30
0.0
 11
1904.83959469
 21
-843.35057995
 31
0.0
  0
LINE
  5
2FD
100
AcDbEntity
  8
Sc.1_5
 62
     9
  6
CONTINUOUS
370
    -2
100
AcDbLine
 10
1905.46660633
 20
-832.97225066
 30
0.0
 11
1904.83960761
 21
-834.01724526
 31
0.0
  0
LINE
  5
2FE
100
AcDbEntity
  8
Sc.1_5
 62
     9
  6
CONTINUOUS
370
    -2
100
AcDbLine
 10
1905.46661924
 20
-823.63891597
 30
0.0
 11
1904.83962053
 21
-824.68391057
 31
0.0
  0
LINE
  5
2FF
100
AcDbEntity
  8
Sc.1_5
 62
     9
  6
CONTINUOUS
370
    -2
100
AcDbLine
 10
1878.76105423
 20
-894.67696858
 30
0.0
 11
1878.13405832
 21
-893.6319723
 31
0.0
  0
LINE
  5
300
100
AcDbEntity
  8
Sc.1_5
 62
     9
  6
CONTINUOUS
370
    -2
100
AcDbLine
 10
1878.7610664
 20
-885.34363389
 30
0.0
 11
1878.13407049
 21
-884.29863761
 31
0.0
  0
LINE
  5
301
100
AcDbEntity
  8
Sc.1_5
 62
     9
  6
CONTINUOUS
370
    -2
100
AcDbLine
 10
1878.76107858
 20
-876.0102992
 30
0.0
 11
1878.13408267
 21
-874.96530291
 31
0.0
  0
LINE
  5
302
100
AcDbEntity
  8
Sc.1_5
 62
     9
  6
CONTINUOUS
370
    -2
100
AcDbLine
 10
1878.76109075
 20
-866.67696451
 30
0.0
 11
1878.13409484
 21
-865.63196822
 31
0.0
  0
LINE
  5
303
100
AcDbEntity
  8
Sc.1_5
 62
     9
  6
CONTINUOUS
370
    -2
100
AcDbLine
 10
1878.76110292
 20
-857.34362982
 30
0.0
 11
1878.13410701
 21
-856.29863353
 31
0.0
  0
LINE
  5
304
100
AcDbEntity
  8
Sc.1_5
 62
     9
  6
CONTINUOUS
370
    -2
100
AcDbLine
 10
1878.76111509
 20
-848.01029512
 30
0.0
 11
1878.13411918
 21
-846.96529884
 31
0.0
  0
LINE
  5
305
100
AcDbEntity
  8
Sc.1_5
 62
     9
  6
CONTINUOUS
370
    -2
100
AcDbLine
 10
1878.76112726
 20
-838.67696043
 30
0.0
 11
1878.13413135
 21
-837.63196415
 31
0.0
  0
LINE
  5
306
100
AcDbEntity
  8
Sc.1_5
 62
     9
  6
CONTINUOUS
370
    -2
100
AcDbLine
 10
1878.76113943
 20
-829.34362574
 30
0.0
 11
1878.13414352
 21
-828.29862945
 31
0.0
  0
LINE
  5
307
100
AcDbEntity
  8
Sc.1_5
 62
     9
  6
CONTINUOUS
370
    -2
100
AcDbLine
 10
1878.7611516
 20
-820.01029105
 30
0.0
 11
1878.61965904
 21
-819.77446941
 31
0.0
  0
LINE
  5
308
100
AcDbEntity
  8
Sc.1_5
 62
     9
  6
CONTINUOUS
370
    -2
100
AcDbLine
 10
1878.13414681
 20
-824.60110558
 30
0.0
 11
1878.76114546
 21
-823.55611094
 31
0.0
  0
LINE
  5
309
100
AcDbEntity
  8
Sc.1_5
 62
     9
  6
CONTINUOUS
370
    -2
100
AcDbLine
 10
1878.13413451
 20
-833.93444028
 30
0.0
 11
1878.76113316
 21
-832.88944563
 31
0.0
  0
LINE
  5
30A
100
AcDbEntity
  8
Sc.1_5
 62
     9
  6
CONTINUOUS
370
    -2
100
AcDbLine
 10
1878.13412222
 20
-843.26777497
 30
0.0
 11
1878.76112087
 21
-842.22278033
 31
0.0
  0
LINE
  5
30B
100
AcDbEntity
  8
Sc.1_5
 62
     9
  6
CONTINUOUS
370
    -2
100
AcDbLine
 10
1878.13410992
 20
-852.60110966
 30
0.0
 11
1878.76110857
 21
-851.55611502
 31
0.0
  0
LINE
  5
30C
100
AcDbEntity
  8
Sc.1_5
 62
     9
  6
CONTINUOUS
370
    -2
100
AcDbLine
 10
1878.13409763
 20
-861.93444435
 30
0.0
 11
1878.76109628
 21
-860.88944971
 31
0.0
  0
LINE
  5
30D
100
AcDbEntity
  8
Sc.1_5
 62
     9
  6
CONTINUOUS
370
    -2
100
AcDbLine
 10
1878.13408533
 20
-871.26777904
 30
0.0
 11
1878.76108398
 21
-870.2227844
 31
0.0
  0
LINE
  5
30E
100
AcDbEntity
  8
Sc.1_5
 62
     9
  6
CONTINUOUS
370
    -2
100
AcDbLine
 10
1878.13407304
 20
-880.60111373
 30
0.0
 11
1878.76107169
 21
-879.55611909
 31
0.0
  0
LINE
  5
30F
100
AcDbEntity
  8
Sc.1_5
 62
     9
  6
CONTINUOUS
370
    -2
100
AcDbLine
 10
1878.13406074
 20
-889.93444843
 30
0.0
 11
1878.76105939
 21
-888.88945378
 31
0.0
  0
LINE
  5
310
100
AcDbEntity
  8
Sc.1_5
 62
     9
  6
CONTINUOUS
370
    -2
100
AcDbLine
 10
1904.83952602
 20
-893.5561478
 30
0.0
 11
1904.10670892
 21
-892.82332877
 31
0.0
  0
LINE
  5
311
100
AcDbEntity
  8
Sc.1_5
 62
     9
  6
CONTINUOUS
370
    -2
100
AcDbLine
 10
1904.83953825
 20
-884.22281226
 30
0.0
 11
1904.10672115
 21
-883.48999323
 31
0.0
  0
LINE
  5
312
100
AcDbEntity
  8
Sc.1_5
 62
     9
  6
CONTINUOUS
370
    -2
100
AcDbLine
 10
1904.83955049
 20
-874.88947672
 30
0.0
 11
1904.10673339
 21
-874.15665769
 31
0.0
  0
LINE
  5
313
100
AcDbEntity
  8
Sc.1_5
 62
     9
  6
CONTINUOUS
370
    -2
100
AcDbLine
 10
1904.83956272
 20
-865.55614117
 30
0.0
 11
1904.10674562
 21
-864.82332215
 31
0.0
  0
LINE
  5
314
100
AcDbEntity
  8
Sc.1_5
 62
     9
  6
CONTINUOUS
370
    -2
100
AcDbLine
 10
1904.83957495
 20
-856.22280563
 30
0.0
 11
1904.10675785
 21
-855.48998661
 31
0.0
  0
LINE
  5
315
100
AcDbEntity
  8
Sc.1_5
 62
     9
  6
CONTINUOUS
370
    -2
100
AcDbLine
 10
1904.83958719
 20
-846.88947009
 30
0.0
 11
1904.10677009
 21
-846.15665107
 31
0.0
  0
LINE
  5
316
100
AcDbEntity
  8
Sc.1_5
 62
     9
  6
CONTINUOUS
370
    -2
100
AcDbLine
 10
1904.83959942
 20
-837.55613455
 30
0.0
 11
1904.10678232
 21
-836.82331553
 31
0.0
  0
LINE
  5
317
100
AcDbEntity
  8
Sc.1_5
 62
     9
  6
CONTINUOUS
370
    -2
100
AcDbLine
 10
1904.83961165
 20
-828.22279901
 30
0.0
 11
1904.10679455
 21
-827.48997999
 31
0.0
  0
LINE
  5
318
100
AcDbEntity
  8
Sc.1_5
 62
     9
  6
CONTINUOUS
370
    -2
100
AcDbLine
 10
1904.83953067
 20
-890.01034232
 30
0.0
 11
1904.10671164
 21
-890.74315942
 31
0.0
  0
LINE
  5
319
100
AcDbEntity
  8
Sc.1_5
 62
     9
  6
CONTINUOUS
370
    -2
100
AcDbLine
 10
1904.8395429
 20
-880.67700678
 30
0.0
 11
1904.10672388
 21
-881.40982388
 31
0.0
  0
LINE
  5
31A
100
AcDbEntity
  8
Sc.1_5
 62
     9
  6
CONTINUOUS
370
    -2
100
AcDbLine
 10
1904.83955513
 20
-871.34367124
 30
0.0
 11
1904.10673611
 21
-872.07648834
 31
0.0
  0
LINE
  5
31B
100
AcDbEntity
  8
Sc.1_5
 62
     9
  6
CONTINUOUS
370
    -2
100
AcDbLine
 10
1904.83956737
 20
-862.0103357
 30
0.0
 11
1904.10674835
 21
-862.7431528
 31
0.0
  0
LINE
  5
31C
100
AcDbEntity
  8
Sc.1_5
 62
     9
  6
CONTINUOUS
370
    -2
100
AcDbLine
 10
1904.8395796
 20
-852.67700016
 30
0.0
 11
1904.10676058
 21
-853.40981726
 31
0.0
  0
LINE
  5
31D
100
AcDbEntity
  8
Sc.1_5
 62
     9
  6
CONTINUOUS
370
    -2
100
AcDbLine
 10
1904.83959183
 20
-843.34366462
 30
0.0
 11
1904.10677281
 21
-844.07648172
 31
0.0
  0
LINE
  5
31E
100
AcDbEntity
  8
Sc.1_5
 62
     9
  6
CONTINUOUS
370
    -2
100
AcDbLine
 10
1904.83960407
 20
-834.01032908
 30
0.0
 11
1904.10678505
 21
-834.74314618
 31
0.0
  0
LINE
  5
31F
100
AcDbEntity
  8
Sc.1_5
 62
     9
  6
CONTINUOUS
370
    -2
100
AcDbLine
 10
1904.8396163
 20
-824.67699354
 30
0.0
 11
1904.10679728
 21
-825.40981064
 31
0.0
  0
LINE
  5
320
100
AcDbEntity
  8
Sc.1_5
 62
     9
  6
CONTINUOUS
370
    -2
100
AcDbLine
 10
1879.49387083
 20
-895.40978755
 30
0.0
 11
1878.76105373
 21
-894.67696853
 31
0.0
  0
LINE
  5
321
100
AcDbEntity
  8
Sc.1_5
 62
     9
  6
CONTINUOUS
370
    -2
100
AcDbLine
 10
1879.49388307
 20
-886.07645201
 30
0.0
 11
1878.76106597
 21
-885.34363299
 31
0.0
  0
LINE
  5
322
100
AcDbEntity
  8
Sc.1_5
 62
     9
  6
CONTINUOUS
370
    -2
100
AcDbLine
 10
1879.4938953
 20
-876.74311647
 30
0.0
 11
1878.7610782
 21
-876.01029745
 31
0.0
  0
LINE
  5
323
100
AcDbEntity
  8
Sc.1_5
 62
     9
  6
CONTINUOUS
370
    -2
100
AcDbLine
 10
1879.49390753
 20
-867.40978093
 30
0.0
 11
1878.76109043
 21
-866.67696191
 31
0.0
  0
LINE
  5
324
100
AcDbEntity
  8
Sc.1_5
 62
     9
  6
CONTINUOUS
370
    -2
100
AcDbLine
 10
1879.49391977
 20
-858.07644539
 30
0.0
 11
1878.76110267
 21
-857.34362637
 31
0.0
  0
LINE
  5
325
100
AcDbEntity
  8
Sc.1_5
 62
     9
  6
CONTINUOUS
370
    -2
100
AcDbLine
 10
1879.493932
 20
-848.74310985
 30
0.0
 11
1878.7611149
 21
-848.01029083
 31
0.0
  0
LINE
  5
326
100
AcDbEntity
  8
Sc.1_5
 62
     9
  6
CONTINUOUS
370
    -2
100
AcDbLine
 10
1879.49394423
 20
-839.40977431
 30
0.0
 11
1878.76112713
 21
-838.67695529
 31
0.0
  0
LINE
  5
327
100
AcDbEntity
  8
Sc.1_5
 62
     9
  6
CONTINUOUS
370
    -2
100
AcDbLine
 10
1879.49395647
 20
-830.07643877
 30
0.0
 11
1878.76113937
 21
-829.34361975
 31
0.0
  0
LINE
  5
328
100
AcDbEntity
  8
Sc.1_5
 62
     9
  6
CONTINUOUS
370
    -2
100
AcDbLine
 10
1879.4939687
 20
-820.74310323
 30
0.0
 11
1878.7611516
 21
-820.01028421
 31
0.0
  0
LINE
  5
329
100
AcDbEntity
  8
Sc.1_5
 62
     9
  6
CONTINUOUS
370
    -2
100
AcDbLine
 10
1878.76114979
 20
-823.55610465
 30
0.0
 11
1879.49396881
 21
-822.82328755
 31
0.0
  0
LINE
  5
32A
100
AcDbEntity
  8
Sc.1_5
 62
     9
  6
CONTINUOUS
370
    -2
100
AcDbLine
 10
1878.76113756
 20
-832.88944019
 30
0.0
 11
1879.49395658
 21
-832.15662309
 31
0.0
  0
LINE
  5
32B
100
AcDbEntity
  8
Sc.1_5
 62
     9
  6
CONTINUOUS
370
    -2
100
AcDbLine
 10
1878.76112533
 20
-842.22277573
 30
0.0
 11
1879.49394435
 21
-841.48995863
 31
0.0
  0
LINE
  5
32C
100
AcDbEntity
  8
Sc.1_5
 62
     9
  6
CONTINUOUS
370
    -2
100
AcDbLine
 10
1878.76111309
 20
-851.55611127
 30
0.0
 11
1879.49393211
 21
-850.82329417
 31
0.0
  0
LINE
  5
32D
100
AcDbEntity
  8
Sc.1_5
 62
     9
  6
CONTINUOUS
370
    -2
100
AcDbLine
 10
1878.76110086
 20
-860.88944681
 30
0.0
 11
1879.49391988
 21
-860.15662971
 31
0.0
  0
LINE
  5
32E
100
AcDbEntity
  8
Sc.1_5
 62
     9
  6
CONTINUOUS
370
    -2
100
AcDbLine
 10
1878.76108863
 20
-870.22278235
 30
0.0
 11
1879.49390765
 21
-869.48996525
 31
0.0
  0
LINE
  5
32F
100
AcDbEntity
  8
Sc.1_5
 62
     9
  6
CONTINUOUS
370
    -2
100
AcDbLine
 10
1878.76107639
 20
-879.55611789
 30
0.0
 11
1879.49389541
 21
-878.82330079
 31
0.0
  0
LINE
  5
330
100
AcDbEntity
  8
Sc.1_5
 62
     9
  6
CONTINUOUS
370
    -2
100
AcDbLine
 10
1878.76106416
 20
-888.88945343
 30
0.0
 11
1879.49388318
 21
-888.15663633
 31
0.0
  0
LINE
  5
331
100
AcDbEntity
  8
Sc.1_5
 62
     9
  6
CONTINUOUS
370
    -2
100
AcDbLine
 10
1904.1067071
 20
-892.82333017
 30
0.0
 11
1903.20223485
 21
-892.22034697
 31
0.0
  0
LINE
  5
332
100
AcDbEntity
  8
Sc.1_5
 62
     9
  6
CONTINUOUS
370
    -2
100
AcDbLine
 10
1904.10671828
 20
-883.48999573
 30
0.0
 11
1903.20224602
 21
-882.88701253
 31
0.0
  0
LINE
  5
333
100
AcDbEntity
  8
Sc.1_5
 62
     9
  6
CONTINUOUS
370
    -2
100
AcDbLine
 10
1904.10672945
 20
-874.15666129
 30
0.0
 11
1903.2022572
 21
-873.55367809
 31
0.0
  0
LINE
  5
334
100
AcDbEntity
  8
Sc.1_5
 62
     9
  6
CONTINUOUS
370
    -2
100
AcDbLine
 10
1904.10674063
 20
-864.82332685
 30
0.0
 11
1903.20226838
 21
-864.22034364
 31
0.0
  0
LINE
  5
335
100
AcDbEntity
  8
Sc.1_5
 62
     9
  6
CONTINUOUS
370
    -2
100
AcDbLine
 10
1904.10675181
 20
-855.48999241
 30
0.0
 11
1903.20227955
 21
-854.8870092
 31
0.0
  0
LINE
  5
336
100
AcDbEntity
  8
Sc.1_5
 62
     9
  6
CONTINUOUS
370
    -2
100
AcDbLine
 10
1904.10676299
 20
-846.15665797
 30
0.0
 11
1903.20229073
 21
-845.55367476
 31
0.0
  0
LINE
  5
337
100
AcDbEntity
  8
Sc.1_5
 62
     9
  6
CONTINUOUS
370
    -2
100
AcDbLine
 10
1904.10677416
 20
-836.82332353
 30
0.0
 11
1903.20230191
 21
-836.22034032
 31
0.0
  0
LINE
  5
338
100
AcDbEntity
  8
Sc.1_5
 62
     9
  6
CONTINUOUS
370
    -2
100
AcDbLine
 10
1904.10678534
 20
-827.48998909
 30
0.0
 11
1903.20231309
 21
-826.88700588
 31
0.0
  0
LINE
  5
339
100
AcDbEntity
  8
Sc.1_5
 62
     9
  6
CONTINUOUS
370
    -2
100
AcDbLine
 10
1904.1067115
 20
-890.74316099
 30
0.0
 11
1903.20223763
 21
-891.34614177
 31
0.0
  0
LINE
  5
33A
100
AcDbEntity
  8
Sc.1_5
 62
     9
  6
CONTINUOUS
370
    -2
100
AcDbLine
 10
1904.10672542
 20
-881.40982655
 30
0.0
 11
1903.20225154
 21
-882.01280732
 31
0.0
  0
LINE
  5
33B
100
AcDbEntity
  8
Sc.1_5
 62
     9
  6
CONTINUOUS
370
    -2
100
AcDbLine
 10
1904.10673933
 20
-872.07649211
 30
0.0
 11
1903.20226545
 21
-872.67947288
 31
0.0
  0
LINE
  5
33C
100
AcDbEntity
  8
Sc.1_5
 62
     9
  6
CONTINUOUS
370
    -2
100
AcDbLine
 10
1904.10675324
 20
-862.74315767
 30
0.0
 11
1903.20227937
 21
-863.34613844
 31
0.0
  0
LINE
  5
33D
100
AcDbEntity
  8
Sc.1_5
 62
     9
  6
CONTINUOUS
370
    -2
100
AcDbLine
 10
1904.10676715
 20
-853.40982323
 30
0.0
 11
1903.20229328
 21
-854.012804
 31
0.0
  0
LINE
  5
33E
100
AcDbEntity
  8
Sc.1_5
 62
     9
  6
CONTINUOUS
370
    -2
100
AcDbLine
 10
1904.10678106
 20
-844.07648879
 30
0.0
 11
1903.20230719
 21
-844.67946956
 31
0.0
  0
LINE
  5
33F
100
AcDbEntity
  8
Sc.1_5
 62
     9
  6
CONTINUOUS
370
    -2
100
AcDbLine
 10
1904.10679497
 20
-834.74315435
 30
0.0
 11
1903.2023211
 21
-835.34613512
 31
0.0
  0
LINE
  5
340
100
AcDbEntity
  8
Sc.1_5
 62
     9
  6
CONTINUOUS
370
    -2
100
AcDbLine
 10
1904.10680889
 20
-825.40981991
 30
0.0
 11
1903.20233501
 21
-826.01280068
 31
0.0
  0
LINE
  5
341
100
AcDbEntity
  8
Sc.1_5
 62
     9
  6
CONTINUOUS
370
    -2
100
AcDbLine
 10
1880.39834092
 20
-896.01277377
 30
0.0
 11
1879.49386867
 21
-895.40979056
 31
0.0
  0
LINE
  5
342
100
AcDbEntity
  8
Sc.1_5
 62
     9
  6
CONTINUOUS
370
    -2
100
AcDbLine
 10
1880.3983521
 20
-886.67943933
 30
0.0
 11
1879.49387984
 21
-886.07645612
 31
0.0
  0
LINE
  5
343
100
AcDbEntity
  8
Sc.1_5
 62
     9
  6
CONTINUOUS
370
    -2
100
AcDbLine
 10
1880.39836327
 20
-877.34610489
 30
0.0
 11
1879.49389102
 21
-876.74312168
 31
0.0
  0
LINE
  5
344
100
AcDbEntity
  8
Sc.1_5
 62
     9
  6
CONTINUOUS
370
    -2
100
AcDbLine
 10
1880.39837445
 20
-868.01277045
 30
0.0
 11
1879.4939022
 21
-867.40978724
 31
0.0
  0
LINE
  5
345
100
AcDbEntity
  8
Sc.1_5
 62
     9
  6
CONTINUOUS
370
    -2
100
AcDbLine
 10
1880.39838563
 20
-858.67943601
 30
0.0
 11
1879.49391337
 21
-858.0764528
 31
0.0
  0
LINE
  5
346
100
AcDbEntity
  8
Sc.1_5
 62
     9
  6
CONTINUOUS
370
    -2
100
AcDbLine
 10
1880.3983968
 20
-849.34610157
 30
0.0
 11
1879.49392455
 21
-848.74311836
 31
0.0
  0
LINE
  5
347
100
AcDbEntity
  8
Sc.1_5
 62
     9
  6
CONTINUOUS
370
    -2
100
AcDbLine
 10
1880.39840798
 20
-840.01276713
 30
0.0
 11
1879.49393573
 21
-839.40978392
 31
0.0
  0
LINE
  5
348
100
AcDbEntity
  8
Sc.1_5
 62
     9
  6
CONTINUOUS
370
    -2
100
AcDbLine
 10
1880.39841916
 20
-830.67943269
 30
0.0
 11
1879.4939469
 21
-830.07644948
 31
0.0
  0
LINE
  5
349
100
AcDbEntity
  8
Sc.1_5
 62
     9
  6
CONTINUOUS
370
    -2
100
AcDbLine
 10
1880.39843033
 20
-821.34609825
 30
0.0
 11
1879.49395808
 21
-820.74311504
 31
0.0
  0
LINE
  5
34A
100
AcDbEntity
  8
Sc.1_5
 62
     9
  6
CONTINUOUS
370
    -2
100
AcDbLine
 10
1879.49396955
 20
-822.82329252
 30
0.0
 11
1880.39844338
 21
-822.22031168
 31
0.0
  0
LINE
  5
34B
100
AcDbEntity
  8
Sc.1_5
 62
     9
  6
CONTINUOUS
370
    -2
100
AcDbLine
 10
1879.49395626
 20
-832.15662696
 30
0.0
 11
1880.39843009
 21
-831.55364612
 31
0.0
  0
LINE
  5
34C
100
AcDbEntity
  8
Sc.1_5
 62
     9
  6
CONTINUOUS
370
    -2
100
AcDbLine
 10
1879.49394297
 20
-841.4899614
 30
0.0
 11
1880.3984168
 21
-840.88698056
 31
0.0
  0
LINE
  5
34D
100
AcDbEntity
  8
Sc.1_5
 62
     9
  6
CONTINUOUS
370
    -2
100
AcDbLine
 10
1879.49392968
 20
-850.82329584
 30
0.0
 11
1880.39840351
 21
-850.220315
 31
0.0
  0
LINE
  5
34E
100
AcDbEntity
  8
Sc.1_5
 62
     9
  6
CONTINUOUS
370
    -2
100
AcDbLine
 10
1879.49391639
 20
-860.15663028
 30
0.0
 11
1880.39839022
 21
-859.55364944
 31
0.0
  0
LINE
  5
34F
100
AcDbEntity
  8
Sc.1_5
 62
     9
  6
CONTINUOUS
370
    -2
100
AcDbLine
 10
1879.49390309
 20
-869.48996472
 30
0.0
 11
1880.39837693
 21
-868.88698388
 31
0.0
  0
LINE
  5
350
100
AcDbEntity
  8
Sc.1_5
 62
     9
  6
CONTINUOUS
370
    -2
100
AcDbLine
 10
1879.4938898
 20
-878.82329916
 30
0.0
 11
1880.39836364
 21
-878.22031832
 31
0.0
  0
LINE
  5
351
100
AcDbEntity
  8
Sc.1_5
 62
     9
  6
CONTINUOUS
370
    -2
100
AcDbLine
 10
1879.49387651
 20
-888.1566336
 30
0.0
 11
1880.39835035
 21
-887.55365276
 31
0.0
  0
LINE
  5
352
100
AcDbEntity
  8
Sc.1_5
 62
     9
  6
CONTINUOUS
370
    -2
100
AcDbLine
 10
1903.20223846
 20
-892.2203487
 30
0.0
 11
1901.89092337
 21
-891.78324169
 31
0.0
  0
LINE
  5
353
100
AcDbEntity
  8
Sc.1_5
 62
     9
  6
CONTINUOUS
370
    -2
100
AcDbLine
 10
1903.20225023
 20
-882.8870136
 30
0.0
 11
1901.89093513
 21
-882.44990658
 31
0.0
  0
LINE
  5
354
100
AcDbEntity
  8
Sc.1_5
 62
     9
  6
CONTINUOUS
370
    -2
100
AcDbLine
 10
1903.20226199
 20
-873.5536785
 30
0.0
 11
1901.8909469
 21
-873.11657148
 31
0.0
  0
LINE
  5
355
100
AcDbEntity
  8
Sc.1_5
 62
     9
  6
CONTINUOUS
370
    -2
100
AcDbLine
 10
1903.20227376
 20
-864.2203434
 30
0.0
 11
1901.89095867
 21
-863.78323638
 31
0.0
  0
LINE
  5
356
100
AcDbEntity
  8
Sc.1_5
 62
     9
  6
CONTINUOUS
370
    -2
100
AcDbLine
 10
1903.20228552
 20
-854.88700829
 30
0.0
 11
1901.89097043
 21
-854.44990128
 31
0.0
  0
LINE
  5
357
100
AcDbEntity
  8
Sc.1_5
 62
     9
  6
CONTINUOUS
370
    -2
100
AcDbLine
 10
1903.20229729
 20
-845.55367319
 30
0.0
 11
1901.8909822
 21
-845.11656617
 31
0.0
  0
LINE
  5
358
100
AcDbEntity
  8
Sc.1_5
 62
     9
  6
CONTINUOUS
370
    -2
100
AcDbLine
 10
1903.20230906
 20
-836.22033809
 30
0.0
 11
1901.89099396
 21
-835.78323107
 31
0.0
  0
LINE
  5
359
100
AcDbEntity
  8
Sc.1_5
 62
     9
  6
CONTINUOUS
370
    -2
100
AcDbLine
 10
1903.20232082
 20
-826.88700298
 30
0.0
 11
1901.89100573
 21
-826.44989597
 31
0.0
  0
LINE
  5
35A
100
AcDbEntity
  8
Sc.1_5
 62
     9
  6
CONTINUOUS
370
    -2
100
AcDbLine
 10
1903.20224008
 20
-891.34613756
 30
0.0
 11
1901.89092384
 21
-891.78324114
 31
0.0
  0
LINE
  5
35B
100
AcDbEntity
  8
Sc.1_5
 62
     9
  6
CONTINUOUS
370
    -2
100
AcDbLine
 10
1903.20225278
 20
-882.01280246
 30
0.0
 11
1901.89093654
 21
-882.44990604
 31
0.0
  0
LINE
  5
35C
100
AcDbEntity
  8
Sc.1_5
 62
     9
  6
CONTINUOUS
370
    -2
100
AcDbLine
 10
1903.20226548
 20
-872.67946736
 30
0.0
 11
1901.89094924
 21
-873.11657093
 31
0.0
  0
LINE
  5
35D
100
AcDbEntity
  8
Sc.1_5
 62
     9
  6
CONTINUOUS
370
    -2
100
AcDbLine
 10
1903.20227818
 20
-863.34613225
 30
0.0
 11
1901.89096194
 21
-863.78323583
 31
0.0
  0
LINE
  5
35E
100
AcDbEntity
  8
Sc.1_5
 62
     9
  6
CONTINUOUS
370
    -2
100
AcDbLine
 10
1903.20229088
 20
-854.01279715
 30
0.0
 11
1901.89097464
 21
-854.44990073
 31
0.0
  0
LINE
  5
35F
100
AcDbEntity
  8
Sc.1_5
 62
     9
  6
CONTINUOUS
370
    -2
100
AcDbLine
 10
1903.20230358
 20
-844.67946205
 30
0.0
 11
1901.89098734
 21
-845.11656563
 31
0.0
  0
LINE
  5
360
100
AcDbEntity
  8
Sc.1_5
 62
     9
  6
CONTINUOUS
370
    -2
100
AcDbLine
 10
1903.20231628
 20
-835.34612694
 30
0.0
 11
1901.89100004
 21
-835.78323052
 31
0.0
  0
LINE
  5
361
100
AcDbEntity
  8
Sc.1_5
 62
     9
  6
CONTINUOUS
370
    -2
100
AcDbLine
 10
1903.20232899
 20
-826.01279184
 30
0.0
 11
1901.89101275
 21
-826.44989542
 31
0.0
  0
LINE
  5
362
100
AcDbEntity
  8
Sc.1_5
 62
     9
  6
CONTINUOUS
370
    -2
100
AcDbLine
 10
1881.70964069
 20
-896.44987739
 30
0.0
 11
1880.39834317
 21
-896.01277623
 31
0.0
  0
LINE
  5
363
100
AcDbEntity
  8
Sc.1_5
 62
     9
  6
CONTINUOUS
370
    -2
100
AcDbLine
 10
1881.70967003
 20
-887.11654814
 30
0.0
 11
1880.39835494
 21
-886.67944113
 31
0.0
  0
LINE
  5
364
100
AcDbEntity
  8
Sc.1_5
 62
     9
  6
CONTINUOUS
370
    -2
100
AcDbLine
 10
1881.7096818
 20
-877.78321304
 30
0.0
 11
1880.3983667
 21
-877.34610602
 31
0.0
  0
LINE
  5
365
100
AcDbEntity
  8
Sc.1_5
 62
     9
  6
CONTINUOUS
370
    -2
100
AcDbLine
 10
1881.70969356
 20
-868.44987794
 30
0.0
 11
1880.39837847
 21
-868.01277092
 31
0.0
  0
LINE
  5
366
100
AcDbEntity
  8
Sc.1_5
 62
     9
  6
CONTINUOUS
370
    -2
100
AcDbLine
 10
1881.70970533
 20
-859.11654284
 30
0.0
 11
1880.39839023
 21
-858.67943582
 31
0.0
  0
LINE
  5
367
100
AcDbEntity
  8
Sc.1_5
 62
     9
  6
CONTINUOUS
370
    -2
100
AcDbLine
 10
1881.70971709
 20
-849.78320773
 30
0.0
 11
1880.398402
 21
-849.34610072
 31
0.0
  0
LINE
  5
368
100
AcDbEntity
  8
Sc.1_5
 62
     9
  6
CONTINUOUS
370
    -2
100
AcDbLine
 10
1881.70972886
 20
-840.44987263
 30
0.0
 11
1880.39841376
 21
-840.01276561
 31
0.0
  0
LINE
  5
369
100
AcDbEntity
  8
Sc.1_5
 62
     9
  6
CONTINUOUS
370
    -2
100
AcDbLine
 10
1881.70974062
 20
-831.11653753
 30
0.0
 11
1880.39842553
 21
-830.67943051
 31
0.0
  0
LINE
  5
36A
100
AcDbEntity
  8
Sc.1_5
 62
     9
  6
CONTINUOUS
370
    -2
100
AcDbLine
 10
1881.70975239
 20
-821.78320242
 30
0.0
 11
1880.3984373
 21
-821.34609541
 31
0.0
  0
LINE
  5
36B
100
AcDbEntity
  8
Sc.1_5
 62
     9
  6
CONTINUOUS
370
    -2
100
AcDbLine
 10
1880.39844435
 20
-822.22030676
 30
0.0
 11
1881.70976059
 21
-821.78320318
 31
0.0
  0
LINE
  5
36C
100
AcDbEntity
  8
Sc.1_5
 62
     9
  6
CONTINUOUS
370
    -2
100
AcDbLine
 10
1880.39843165
 20
-831.55364186
 30
0.0
 11
1881.70974789
 21
-831.11653828
 31
0.0
  0
LINE
  5
36D
100
AcDbEntity
  8
Sc.1_5
 62
     9
  6
CONTINUOUS
370
    -2
100
AcDbLine
 10
1880.39841895
 20
-840.88697696
 30
0.0
 11
1881.70973519
 21
-840.44987338
 31
0.0
  0
LINE
  5
36E
100
AcDbEntity
  8
Sc.1_5
 62
     9
  6
CONTINUOUS
370
    -2
100
AcDbLine
 10
1880.39840625
 20
-850.22031206
 30
0.0
 11
1881.70972249
 21
-849.78320849
 31
0.0
  0
LINE
  5
36F
100
AcDbEntity
  8
Sc.1_5
 62
     9
  6
CONTINUOUS
370
    -2
100
AcDbLine
 10
1880.39839355
 20
-859.55364717
 30
0.0
 11
1881.70970979
 21
-859.11654359
 31
0.0
  0
LINE
  5
370
100
AcDbEntity
  8
Sc.1_5
 62
     9
  6
CONTINUOUS
370
    -2
100
AcDbLine
 10
1880.39838085
 20
-868.88698227
 30
0.0
 11
1881.70969708
 21
-868.44987869
 31
0.0
  0
LINE
  5
371
100
AcDbEntity
  8
Sc.1_5
 62
     9
  6
CONTINUOUS
370
    -2
100
AcDbLine
 10
1880.39836814
 20
-878.22031737
 30
0.0
 11
1881.70968438
 21
-877.78321379
 31
0.0
  0
LINE
  5
372
100
AcDbEntity
  8
Sc.1_5
 62
     9
  6
CONTINUOUS
370
    -2
100
AcDbLine
 10
1880.39835544
 20
-887.55365248
 30
0.0
 11
1881.70967168
 21
-887.1165489
 31
0.0
  0
LINE
  5
373
100
AcDbEntity
  8
Sc.1_5
 62
     9
  6
CONTINUOUS
370
    -2
100
AcDbLine
 10
1901.13361362
 20
-891.78324131
 30
0.0
 11
1900.13256087
 21
-891.67201185
 31
0.0
  0
LINE
  5
374
100
AcDbEntity
  8
Sc.1_5
 62
     9
  6
CONTINUOUS
370
    -2
100
AcDbLine
 10
1901.13361445
 20
-882.44990787
 30
0.0
 11
1900.13256169
 21
-882.3386784
 31
0.0
  0
LINE
  5
375
100
AcDbEntity
  8
Sc.1_5
 62
     9
  6
CONTINUOUS
370
    -2
100
AcDbLine
 10
1901.13361528
 20
-873.11657442
 30
0.0
 11
1900.13256252
 21
-873.00534496
 31
0.0
  0
LINE
  5
376
100
AcDbEntity
  8
Sc.1_5
 62
     9
  6
CONTINUOUS
370
    -2
100
AcDbLine
 10
1901.13361611
 20
-863.78324098
 30
0.0
 11
1900.13256335
 21
-863.67201151
 31
0.0
  0
LINE
  5
377
100
AcDbEntity
  8
Sc.1_5
 62
     9
  6
CONTINUOUS
370
    -2
100
AcDbLine
 10
1901.13361693
 20
-854.44990753
 30
0.0
 11
1900.13256418
 21
-854.33867807
 31
0.0
  0
LINE
  5
378
100
AcDbEntity
  8
Sc.1_5
 62
     9
  6
CONTINUOUS
370
    -2
100
AcDbLine
 10
1901.13361776
 20
-845.11657409
 30
0.0
 11
1900.132565
 21
-845.00534462
 31
0.0
  0
LINE
  5
379
100
AcDbEntity
  8
Sc.1_5
 62
     9
  6
CONTINUOUS
370
    -2
100
AcDbLine
 10
1901.13361859
 20
-835.78324064
 30
0.0
 11
1900.13256583
 21
-835.67201118
 31
0.0
  0
LINE
  5
37A
100
AcDbEntity
  8
Sc.1_5
 62
     9
  6
CONTINUOUS
370
    -2
100
AcDbLine
 10
1901.13361942
 20
-826.4499072
 30
0.0
 11
1900.13256666
 21
-826.33867773
 31
0.0
  0
LINE
  5
37B
100
AcDbEntity
  8
Sc.1_5
 62
     9
  6
CONTINUOUS
370
    -2
100
AcDbLine
 10
1901.13362503
 20
-891.78324118
 30
0.0
 11
1900.13257198
 21
-891.89446802
 31
0.0
  0
LINE
  5
37C
100
AcDbEntity
  8
Sc.1_5
 62
     9
  6
CONTINUOUS
370
    -2
100
AcDbLine
 10
1901.13364867
 20
-882.44990774
 30
0.0
 11
1900.13259562
 21
-882.56113458
 31
0.0
  0
LINE
  5
37D
100
AcDbEntity
  8
Sc.1_5
 62
     9
  6
CONTINUOUS
370
    -2
100
AcDbLine
 10
1901.13367231
 20
-873.11657429
 30
0.0
 11
1900.13261926
 21
-873.22780113
 31
0.0
  0
LINE
  5
37E
100
AcDbEntity
  8
Sc.1_5
 62
     9
  6
CONTINUOUS
370
    -2
100
AcDbLine
 10
1901.13369595
 20
-863.78324085
 30
0.0
 11
1900.1326429
 21
-863.89446769
 31
0.0
  0
LINE
  5
37F
100
AcDbEntity
  8
Sc.1_5
 62
     9
  6
CONTINUOUS
370
    -2
100
AcDbLine
 10
1901.13371959
 20
-854.4499074
 30
0.0
 11
1900.13266654
 21
-854.56113424
 31
0.0
  0
LINE
  5
380
100
AcDbEntity
  8
Sc.1_5
 62
     9
  6
CONTINUOUS
370
    -2
100
AcDbLine
 10
1901.13374323
 20
-845.11657396
 30
0.0
 11
1900.13269018
 21
-845.2278008
 31
0.0
  0
LINE
  5
381
100
AcDbEntity
  8
Sc.1_5
 62
     9
  6
CONTINUOUS
370
    -2
100
AcDbLine
 10
1901.13376687
 20
-835.78324051
 30
0.0
 11
1900.13271382
 21
-835.89446735
 31
0.0
  0
LINE
  5
382
100
AcDbEntity
  8
Sc.1_5
 62
     9
  6
CONTINUOUS
370
    -2
100
AcDbLine
 10
1901.13379051
 20
-826.44990707
 30
0.0
 11
1900.13273746
 21
-826.56113391
 31
0.0
  0
LINE
  5
383
100
AcDbEntity
  8
Sc.1_5
 62
     9
  6
CONTINUOUS
370
    -2
100
AcDbLine
 10
1882.46693682
 20
-821.78321007
 30
0.0
 11
1883.46798961
 21
-821.89443927
 31
0.0
  0
LINE
  5
384
100
AcDbEntity
  8
Sc.1_5
 62
     9
  6
CONTINUOUS
370
    -2
100
AcDbLine
 10
1882.46693848
 20
-831.11654351
 30
0.0
 11
1883.46799126
 21
-831.22777271
 31
0.0
  0
LINE
  5
385
100
AcDbEntity
  8
Sc.1_5
 62
     9
  6
CONTINUOUS
370
    -2
100
AcDbLine
 10
1882.46694014
 20
-840.44987696
 30
0.0
 11
1883.46799292
 21
-840.56110616
 31
0.0
  0
LINE
  5
386
100
AcDbEntity
  8
Sc.1_5
 62
     9
  6
CONTINUOUS
370
    -2
100
AcDbLine
 10
1882.46694179
 20
-849.7832104
 30
0.0
 11
1883.46799458
 21
-849.8944396
 31
0.0
  0
LINE
  5
387
100
AcDbEntity
  8
Sc.1_5
 62
     9
  6
CONTINUOUS
370
    -2
100
AcDbLine
 10
1882.46694345
 20
-859.11654385
 30
0.0
 11
1883.46799624
 21
-859.22777305
 31
0.0
  0
LINE
  5
388
100
AcDbEntity
  8
Sc.1_5
 62
     9
  6
CONTINUOUS
370
    -2
100
AcDbLine
 10
1882.46694511
 20
-868.44987729
 30
0.0
 11
1883.4679979
 21
-868.56110649
 31
0.0
  0
LINE
  5
389
100
AcDbEntity
  8
Sc.1_5
 62
     9
  6
CONTINUOUS
370
    -2
100
AcDbLine
 10
1882.46694677
 20
-877.78321074
 30
0.0
 11
1883.46799955
 21
-877.89443994
 31
0.0
  0
LINE
  5
38A
100
AcDbEntity
  8
Sc.1_5
 62
     9
  6
CONTINUOUS
370
    -2
100
AcDbLine
 10
1882.46694843
 20
-887.11654419
 30
0.0
 11
1883.46800121
 21
-887.22777338
 31
0.0
  0
LINE
  5
38B
100
AcDbEntity
  8
Sc.1_5
 62
     9
  6
CONTINUOUS
370
    -2
100
AcDbLine
 10
1882.4671392
 20
-821.78321436
 30
0.0
 11
1883.46819225
 21
-821.67198752
 31
0.0
  0
LINE
  5
38C
100
AcDbEntity
  8
Sc.1_5
 62
     9
  6
CONTINUOUS
370
    -2
100
AcDbLine
 10
1882.46711556
 20
-831.1165478
 30
0.0
 11
1883.46816861
 21
-831.00532096
 31
0.0
  0
LINE
  5
38D
100
AcDbEntity
  8
Sc.1_5
 62
     9
  6
CONTINUOUS
370
    -2
100
AcDbLine
 10
1882.46709192
 20
-840.44988125
 30
0.0
 11
1883.46814497
 21
-840.33865441
 31
0.0
  0
LINE
  5
38E
100
AcDbEntity
  8
Sc.1_5
 62
     9
  6
CONTINUOUS
370
    -2
100
AcDbLine
 10
1882.46706828
 20
-849.7832147
 30
0.0
 11
1883.46812133
 21
-849.67198785
 31
0.0
  0
LINE
  5
38F
100
AcDbEntity
  8
Sc.1_5
 62
     9
  6
CONTINUOUS
370
    -2
100
AcDbLine
 10
1882.46704464
 20
-859.11654814
 30
0.0
 11
1883.46809769
 21
-859.0053213
 31
0.0
  0
LINE
  5
390
100
AcDbEntity
  8
Sc.1_5
 62
     9
  6
CONTINUOUS
370
    -2
100
AcDbLine
 10
1882.467021
 20
-868.44988159
 30
0.0
 11
1883.46807405
 21
-868.33865475
 31
0.0
  0
LINE
  5
391
100
AcDbEntity
  8
Sc.1_5
 62
     9
  6
CONTINUOUS
370
    -2
100
AcDbLine
 10
1882.46699736
 20
-877.78321503
 30
0.0
 11
1883.46805041
 21
-877.67198819
 31
0.0
  0
LINE
  5
392
100
AcDbEntity
  8
Sc.1_5
 62
     9
  6
CONTINUOUS
370
    -2
100
AcDbLine
 10
1882.46697372
 20
-887.11654848
 30
0.0
 11
1883.46802677
 21
-887.00532164
 31
0.0
  0
LINE
  5
393
100
AcDbEntity
  8
Sc.1_5
 62
     9
  6
CONTINUOUS
370
    -2
100
AcDbLine
 10
1882.46699089
 20
-896.44987739
 30
0.0
 11
1883.46800313
 21
-896.33865508
 31
0.0
  0
ENDBLK
  5
394
100
AcDbEntity
100
AcDbBlockEnd
  0
BLOCK
  5
395
100
AcDbEntity
  8
Sc.1_5
100
AcDbBlockBegin
  2
*X2041
 70
     1
 10
0.0
 20
0.0
 30
0.0
  3
*X2041
  1

  4
Cadwork hatch
  0
LINE
  5
396
100
AcDbEntity
  8
Sc.1_5
 62
     9
  6
CONTINUOUS
370
    -2
100
AcDbLine
 10
1905.80028631
 20
-953.34987752
 30
0.0
 11
1905.80028631
 21
-953.97482911
 31
0.0
  0
LINE
  5
397
100
AcDbEntity
  8
Sc.1_5
 62
     9
  6
CONTINUOUS
370
    -2
100
AcDbLine
 10
1905.80028631
 20
-957.3915935
 30
0.0
 11
1905.80028631
 21
-958.64149667
 31
0.0
  0
LINE
  5
398
100
AcDbEntity
  8
Sc.1_5
 62
     9
  6
CONTINUOUS
370
    -2
100
AcDbLine
 10
1905.80028631
 20
-962.05826106
 30
0.0
 11
1905.80028631
 21
-963.30816423
 31
0.0
  0
LINE
  5
399
100
AcDbEntity
  8
Sc.1_5
 62
     9
  6
CONTINUOUS
370
    -2
100
AcDbLine
 10
1905.80028631
 20
-966.72492862
 30
0.0
 11
1905.80028631
 21
-967.97483179
 31
0.0
  0
LINE
  5
39A
100
AcDbEntity
  8
Sc.1_5
 62
     9
  6
CONTINUOUS
370
    -2
100
AcDbLine
 10
1905.80028631
 20
-971.39159618
 30
0.0
 11
1905.80028631
 21
-972.64149935
 31
0.0
  0
LINE
  5
39B
100
AcDbEntity
  8
Sc.1_5
 62
     9
  6
CONTINUOUS
370
    -2
100
AcDbLine
 10
1905.80028631
 20
-976.05826374
 30
0.0
 11
1905.80028631
 21
-977.30816691
 31
0.0
  0
LINE
  5
39C
100
AcDbEntity
  8
Sc.1_5
 62
     9
  6
CONTINUOUS
370
    -2
100
AcDbLine
 10
1905.80028631
 20
-980.7249313
 30
0.0
 11
1905.80028631
 21
-981.97483447
 31
0.0
  0
LINE
  5
39D
100
AcDbEntity
  8
Sc.1_5
 62
     9
  6
CONTINUOUS
370
    -2
100
AcDbLine
 10
1905.80028631
 20
-985.39159886
 30
0.0
 11
1905.80028631
 21
-986.64150203
 31
0.0
  0
LINE
  5
39E
100
AcDbEntity
  8
Sc.1_5
 62
     9
  6
CONTINUOUS
370
    -2
100
AcDbLine
 10
1905.80028631
 20
-990.05826642
 30
0.0
 11
1905.80028631
 21
-991.30816959
 31
0.0
  0
LINE
  5
39F
100
AcDbEntity
  8
Sc.1_5
 62
     9
  6
CONTINUOUS
370
    -2
100
AcDbLine
 10
1905.80028631
 20
-994.72493398
 30
0.0
 11
1905.80028631
 21
-995.97483715
 31
0.0
  0
LINE
  5
3A0
100
AcDbEntity
  8
Sc.1_5
 62
     9
  6
CONTINUOUS
370
    -2
100
AcDbLine
 10
1905.80028631
 20
-999.39160155
 30
0.0
 11
1905.80028631
 21
-1000.64150471
 31
0.0
  0
LINE
  5
3A1
100
AcDbEntity
  8
Sc.1_5
 62
     9
  6
CONTINUOUS
370
    -2
100
AcDbLine
 10
1905.80028631
 20
-1004.05826911
 30
0.0
 11
1905.80028631
 21
-1005.30817227
 31
0.0
  0
LINE
  5
3A2
100
AcDbEntity
  8
Sc.1_5
 62
     9
  6
CONTINUOUS
370
    -2
100
AcDbLine
 10
1905.80028631
 20
-1008.72493667
 30
0.0
 11
1905.80028631
 21
-1009.77446941
 31
0.0
  0
LINE
  5
3A3
100
AcDbEntity
  8
Sc.1_5
 62
     9
  6
CONTINUOUS
370
    -2
100
AcDbLine
 10
1881.70965891
 20
-958.016545
 30
0.0
 11
1882.46695526
 21
-958.016545
 31
0.0
  0
LINE
  5
3A4
100
AcDbEntity
  8
Sc.1_5
 62
     9
  6
CONTINUOUS
370
    -2
100
AcDbLine
 10
1881.70965891
 20
-967.34987728
 30
0.0
 11
1882.46695526
 21
-967.34987728
 31
0.0
  0
LINE
  5
3A5
100
AcDbEntity
  8
Sc.1_5
 62
     9
  6
CONTINUOUS
370
    -2
100
AcDbLine
 10
1881.70965891
 20
-976.68320957
 30
0.0
 11
1882.46695526
 21
-976.68320957
 31
0.0
  0
LINE
  5
3A6
100
AcDbEntity
  8
Sc.1_5
 62
     9
  6
CONTINUOUS
370
    -2
100
AcDbLine
 10
1881.70965891
 20
-986.01654185
 30
0.0
 11
1882.46695526
 21
-986.01654185
 31
0.0
  0
LINE
  5
3A7
100
AcDbEntity
  8
Sc.1_5
 62
     9
  6
CONTINUOUS
370
    -2
100
AcDbLine
 10
1881.70965891
 20
-995.34987414
 30
0.0
 11
1882.46695526
 21
-995.34987414
 31
0.0
  0
LINE
  5
3A8
100
AcDbEntity
  8
Sc.1_5
 62
     9
  6
CONTINUOUS
370
    -2
100
AcDbLine
 10
1881.70965891
 20
-1004.68320642
 30
0.0
 11
1882.46695526
 21
-1004.68320642
 31
0.0
  0
LINE
  5
3A9
100
AcDbEntity
  8
Sc.1_5
 62
     9
  6
CONTINUOUS
370
    -2
100
AcDbLine
 10
1901.13361983
 20
-953.34987852
 30
0.0
 11
1901.89091619
 21
-953.34987852
 31
0.0
  0
LINE
  5
3AA
100
AcDbEntity
  8
Sc.1_5
 62
     9
  6
CONTINUOUS
370
    -2
100
AcDbLine
 10
1901.13361983
 20
-962.68321081
 30
0.0
 11
1901.89091619
 21
-962.68321081
 31
0.0
  0
LINE
  5
3AB
100
AcDbEntity
  8
Sc.1_5
 62
     9
  6
CONTINUOUS
370
    -2
100
AcDbLine
 10
1901.13361983
 20
-972.01654309
 30
0.0
 11
1901.89091619
 21
-972.01654309
 31
0.0
  0
LINE
  5
3AC
100
AcDbEntity
  8
Sc.1_5
 62
     9
  6
CONTINUOUS
370
    -2
100
AcDbLine
 10
1901.13361983
 20
-981.34987537
 30
0.0
 11
1901.89091619
 21
-981.34987537
 31
0.0
  0
LINE
  5
3AD
100
AcDbEntity
  8
Sc.1_5
 62
     9
  6
CONTINUOUS
370
    -2
100
AcDbLine
 10
1901.13361983
 20
-990.68320766
 30
0.0
 11
1901.89091619
 21
-990.68320766
 31
0.0
  0
LINE
  5
3AE
100
AcDbEntity
  8
Sc.1_5
 62
     9
  6
CONTINUOUS
370
    -2
100
AcDbLine
 10
1901.13361983
 20
-1000.01653994
 30
0.0
 11
1901.89091619
 21
-1000.01653994
 31
0.0
  0
LINE
  5
3AF
100
AcDbEntity
  8
Sc.1_5
 62
     9
  6
CONTINUOUS
370
    -2
100
AcDbLine
 10
1901.13361983
 20
-1009.34987223
 30
0.0
 11
1901.89091619
 21
-1009.34987223
 31
0.0
  0
LINE
  5
3B0
100
AcDbEntity
  8
Sc.1_5
 62
     9
  6
CONTINUOUS
370
    -2
100
AcDbLine
 10
1883.46815579
 20
-957.90582899
 30
0.0
 11
1900.13271752
 21
-953.46161956
 31
0.0
  0
LINE
  5
3B1
100
AcDbEntity
  8
Sc.1_5
 62
     9
  6
CONTINUOUS
370
    -2
100
AcDbLine
 10
1883.46813979
 20
-967.23915938
 30
0.0
 11
1900.13270151
 21
-962.79494994
 31
0.0
  0
LINE
  5
3B2
100
AcDbEntity
  8
Sc.1_5
 62
     9
  6
CONTINUOUS
370
    -2
100
AcDbLine
 10
1883.46812378
 20
-976.57248976
 30
0.0
 11
1900.1326855
 21
-972.12828033
 31
0.0
  0
LINE
  5
3B3
100
AcDbEntity
  8
Sc.1_5
 62
     9
  6
CONTINUOUS
370
    -2
100
AcDbLine
 10
1883.46810777
 20
-985.90582015
 30
0.0
 11
1900.13266949
 21
-981.46161071
 31
0.0
  0
LINE
  5
3B4
100
AcDbEntity
  8
Sc.1_5
 62
     9
  6
CONTINUOUS
370
    -2
100
AcDbLine
 10
1883.46809177
 20
-995.23915053
 30
0.0
 11
1900.13265349
 21
-990.7949411
 31
0.0
  0
LINE
  5
3B5
100
AcDbEntity
  8
Sc.1_5
 62
     9
  6
CONTINUOUS
370
    -2
100
AcDbLine
 10
1883.46807576
 20
-1004.57248092
 30
0.0
 11
1900.13263748
 21
-1000.12827148
 31
0.0
  0
LINE
  5
3B6
100
AcDbEntity
  8
Sc.1_5
 62
     9
  6
CONTINUOUS
370
    -2
100
AcDbLine
 10
1898.95945432
 20
-1009.77446941
 30
0.0
 11
1900.13262147
 21
-1009.46160187
 31
0.0
  0
LINE
  5
3B7
100
AcDbEntity
  8
Sc.1_5
 62
     9
  6
CONTINUOUS
370
    -2
100
AcDbLine
 10
1883.46815579
 20
-958.12725833
 30
0.0
 11
1900.13271752
 21
-962.57146777
 31
0.0
  0
LINE
  5
3B8
100
AcDbEntity
  8
Sc.1_5
 62
     9
  6
CONTINUOUS
370
    -2
100
AcDbLine
 10
1883.4681718
 20
-967.46058872
 30
0.0
 11
1900.13273352
 21
-971.90479815
 31
0.0
  0
LINE
  5
3B9
100
AcDbEntity
  8
Sc.1_5
 62
     9
  6
CONTINUOUS
370
    -2
100
AcDbLine
 10
1883.46818781
 20
-976.7939191
 30
0.0
 11
1900.13274953
 21
-981.23812854
 31
0.0
  0
LINE
  5
3BA
100
AcDbEntity
  8
Sc.1_5
 62
     9
  6
CONTINUOUS
370
    -2
100
AcDbLine
 10
1883.46820381
 20
-986.12724949
 30
0.0
 11
1900.13276554
 21
-990.57145892
 31
0.0
  0
LINE
  5
3BB
100
AcDbEntity
  8
Sc.1_5
 62
     9
  6
CONTINUOUS
370
    -2
100
AcDbLine
 10
1883.46821982
 20
-995.46057987
 30
0.0
 11
1900.13278154
 21
-999.90478931
 31
0.0
  0
LINE
  5
3BC
100
AcDbEntity
  8
Sc.1_5
 62
     9
  6
CONTINUOUS
370
    -2
100
AcDbLine
 10
1883.46823583
 20
-1004.79391026
 30
0.0
 11
1900.13279755
 21
-1009.23811969
 31
0.0
  0
LINE
  5
3BD
100
AcDbEntity
  8
Sc.1_5
 62
     9
  6
CONTINUOUS
370
    -2
100
AcDbLine
 10
1877.800288
 20
-953.97483135
 30
0.0
 11
1878.13405199
 21
-955.19863261
 31
0.0
  0
LINE
  5
3BE
100
AcDbEntity
  8
Sc.1_5
 62
     9
  6
CONTINUOUS
370
    -2
100
AcDbLine
 10
1877.80030456
 20
-963.30822498
 30
0.0
 11
1878.13405174
 21
-964.5319646
 31
0.0
  0
LINE
  5
3BF
100
AcDbEntity
  8
Sc.1_5
 62
     9
  6
CONTINUOUS
370
    -2
100
AcDbLine
 10
1877.80032112
 20
-972.6416186
 30
0.0
 11
1878.13405149
 21
-973.86529659
 31
0.0
  0
LINE
  5
3C0
100
AcDbEntity
  8
Sc.1_5
 62
     9
  6
CONTINUOUS
370
    -2
100
AcDbLine
 10
1877.80033768
 20
-981.97501223
 30
0.0
 11
1878.13405124
 21
-983.19862858
 31
0.0
  0
LINE
  5
3C1
100
AcDbEntity
  8
Sc.1_5
 62
     9
  6
CONTINUOUS
370
    -2
100
AcDbLine
 10
1877.80035424
 20
-991.30840585
 30
0.0
 11
1878.13405099
 21
-992.53196057
 31
0.0
  0
LINE
  5
3C2
100
AcDbEntity
  8
Sc.1_5
 62
     9
  6
CONTINUOUS
370
    -2
100
AcDbLine
 10
1877.8003708
 20
-1000.64179948
 30
0.0
 11
1878.13405074
 21
-1001.86529257
 31
0.0
  0
LINE
  5
3C3
100
AcDbEntity
  8
Sc.1_5
 62
     9
  6
CONTINUOUS
370
    -2
100
AcDbLine
 10
1877.80030234
 20
-962.0582123
 30
0.0
 11
1878.13405332
 21
-960.83445811
 31
0.0
  0
LINE
  5
3C4
100
AcDbEntity
  8
Sc.1_5
 62
     9
  6
CONTINUOUS
370
    -2
100
AcDbLine
 10
1877.8003189
 20
-971.39148905
 30
0.0
 11
1878.13405482
 21
-970.1677901
 31
0.0
  0
LINE
  5
3C5
100
AcDbEntity
  8
Sc.1_5
 62
     9
  6
CONTINUOUS
370
    -2
100
AcDbLine
 10
1877.80033546
 20
-980.7247658
 30
0.0
 11
1878.13405631
 21
-979.50112209
 31
0.0
  0
LINE
  5
3C6
100
AcDbEntity
  8
Sc.1_5
 62
     9
  6
CONTINUOUS
370
    -2
100
AcDbLine
 10
1877.80035202
 20
-990.05804255
 30
0.0
 11
1878.1340578
 21
-988.83445408
 31
0.0
  0
LINE
  5
3C7
100
AcDbEntity
  8
Sc.1_5
 62
     9
  6
CONTINUOUS
370
    -2
100
AcDbLine
 10
1877.80036858
 20
-999.3913193
 30
0.0
 11
1878.1340593
 21
-998.16778608
 31
0.0
  0
LINE
  5
3C8
100
AcDbEntity
  8
Sc.1_5
 62
     9
  6
CONTINUOUS
370
    -2
100
AcDbLine
 10
1877.80038514
 20
-1008.72459605
 30
0.0
 11
1878.13406079
 21
-1007.50111807
 31
0.0
  0
LINE
  5
3C9
100
AcDbEntity
  8
Sc.1_5
 62
     9
  6
CONTINUOUS
370
    -2
100
AcDbLine
 10
1905.46651588
 20
-956.16776146
 30
0.0
 11
1905.8002842
 21
-957.39157858
 31
0.0
  0
LINE
  5
3CA
100
AcDbEntity
  8
Sc.1_5
 62
     9
  6
CONTINUOUS
370
    -2
100
AcDbLine
 10
1905.46651563
 20
-965.50109345
 30
0.0
 11
1905.80028395
 21
-966.72491057
 31
0.0
  0
LINE
  5
3CB
100
AcDbEntity
  8
Sc.1_5
 62
     9
  6
CONTINUOUS
370
    -2
100
AcDbLine
 10
1905.46651538
 20
-974.83442544
 30
0.0
 11
1905.8002837
 21
-976.05824257
 31
0.0
  0
LINE
  5
3CC
100
AcDbEntity
  8
Sc.1_5
 62
     9
  6
CONTINUOUS
370
    -2
100
AcDbLine
 10
1905.46651513
 20
-984.16775743
 30
0.0
 11
1905.80028345
 21
-985.39157456
 31
0.0
  0
LINE
  5
3CD
100
AcDbEntity
  8
Sc.1_5
 62
     9
  6
CONTINUOUS
370
    -2
100
AcDbLine
 10
1905.46651488
 20
-993.50108942
 30
0.0
 11
1905.8002832
 21
-994.72490655
 31
0.0
  0
LINE
  5
3CE
100
AcDbEntity
  8
Sc.1_5
 62
     9
  6
CONTINUOUS
370
    -2
100
AcDbLine
 10
1905.46651463
 20
-1002.83442141
 30
0.0
 11
1905.80028295
 21
-1004.05823854
 31
0.0
  0
LINE
  5
3CF
100
AcDbEntity
  8
Sc.1_5
 62
     9
  6
CONTINUOUS
370
    -2
100
AcDbLine
 10
1905.80028445
 20
-1005.30816745
 30
0.0
 11
1905.46651613
 21
-1006.53198458
 31
0.0
  0
LINE
  5
3D0
100
AcDbEntity
  8
Sc.1_5
 62
     9
  6
CONTINUOUS
370
    -2
100
AcDbLine
 10
1905.8002842
 20
-995.97483546
 30
0.0
 11
1905.46651588
 21
-997.19865259
 31
0.0
  0
LINE
  5
3D1
100
AcDbEntity
  8
Sc.1_5
 62
     9
  6
CONTINUOUS
370
    -2
100
AcDbLine
 10
1905.80028395
 20
-986.64150347
 30
0.0
 11
1905.46651563
 21
-987.8653206
 31
0.0
  0
LINE
  5
3D2
100
AcDbEntity
  8
Sc.1_5
 62
     9
  6
CONTINUOUS
370
    -2
100
AcDbLine
 10
1905.8002837
 20
-977.30817148
 30
0.0
 11
1905.46651538
 21
-978.53198861
 31
0.0
  0
LINE
  5
3D3
100
AcDbEntity
  8
Sc.1_5
 62
     9
  6
CONTINUOUS
370
    -2
100
AcDbLine
 10
1905.80028345
 20
-967.97483949
 30
0.0
 11
1905.46651512
 21
-969.19865661
 31
0.0
  0
LINE
  5
3D4
100
AcDbEntity
  8
Sc.1_5
 62
     9
  6
CONTINUOUS
370
    -2
100
AcDbLine
 10
1905.8002832
 20
-958.6415075
 30
0.0
 11
1905.46651487
 21
-959.86532462
 31
0.0
  0
LINE
  5
3D5
100
AcDbEntity
  8
Sc.1_5
 62
     9
  6
CONTINUOUS
370
    -2
100
AcDbLine
 10
1878.13405782
 20
-955.19865065
 30
0.0
 11
1878.76105505
 21
-956.24364603
 31
0.0
  0
LINE
  5
3D6
100
AcDbEntity
  8
Sc.1_5
 62
     9
  6
CONTINUOUS
370
    -2
100
AcDbLine
 10
1878.13405789
 20
-964.53198455
 30
0.0
 11
1878.76105511
 21
-965.57697992
 31
0.0
  0
LINE
  5
3D7
100
AcDbEntity
  8
Sc.1_5
 62
     9
  6
CONTINUOUS
370
    -2
100
AcDbLine
 10
1878.13405795
 20
-973.86531845
 30
0.0
 11
1878.76105517
 21
-974.91031382
 31
0.0
  0
LINE
  5
3D8
100
AcDbEntity
  8
Sc.1_5
 62
     9
  6
CONTINUOUS
370
    -2
100
AcDbLine
 10
1878.13405801
 20
-983.19865234
 30
0.0
 11
1878.76105523
 21
-984.24364772
 31
0.0
  0
LINE
  5
3D9
100
AcDbEntity
  8
Sc.1_5
 62
     9
  6
CONTINUOUS
370
    -2
100
AcDbLine
 10
1878.13405807
 20
-992.53198624
 30
0.0
 11
1878.7610553
 21
-993.57698162
 31
0.0
  0
LINE
  5
3DA
100
AcDbEntity
  8
Sc.1_5
 62
     9
  6
CONTINUOUS
370
    -2
100
AcDbLine
 10
1878.13405813
 20
-1001.86532014
 30
0.0
 11
1878.76105536
 21
-1002.91031551
 31
0.0
  0
LINE
  5
3DB
100
AcDbEntity
  8
Sc.1_5
 62
     9
  6
CONTINUOUS
370
    -2
100
AcDbLine
 10
1878.13405714
 20
-960.82753173
 30
0.0
 11
1878.76105443
 21
-959.78253639
 31
0.0
  0
LINE
  5
3DC
100
AcDbEntity
  8
Sc.1_5
 62
     9
  6
CONTINUOUS
370
    -2
100
AcDbLine
 10
1878.13405646
 20
-970.16086562
 30
0.0
 11
1878.76105375
 21
-969.11587029
 31
0.0
  0
LINE
  5
3DD
100
AcDbEntity
  8
Sc.1_5
 62
     9
  6
CONTINUOUS
370
    -2
100
AcDbLine
 10
1878.13405577
 20
-979.49419952
 30
0.0
 11
1878.76105307
 21
-978.44920419
 31
0.0
  0
LINE
  5
3DE
100
AcDbEntity
  8
Sc.1_5
 62
     9
  6
CONTINUOUS
370
    -2
100
AcDbLine
 10
1878.13405509
 20
-988.82753342
 30
0.0
 11
1878.76105238
 21
-987.78253808
 31
0.0
  0
LINE
  5
3DF
100
AcDbEntity
  8
Sc.1_5
 62
     9
  6
CONTINUOUS
370
    -2
100
AcDbLine
 10
1878.13405441
 20
-998.16086731
 30
0.0
 11
1878.7610517
 21
-997.11587198
 31
0.0
  0
LINE
  5
3E0
100
AcDbEntity
  8
Sc.1_5
 62
     9
  6
CONTINUOUS
370
    -2
100
AcDbLine
 10
1878.13405372
 20
-1007.49420121
 30
0.0
 11
1878.76105102
 21
-1006.44920588
 31
0.0
  0
LINE
  5
3E1
100
AcDbEntity
  8
Sc.1_5
 62
     9
  6
CONTINUOUS
370
    -2
100
AcDbLine
 10
1904.83952198
 20
-955.12278744
 30
0.0
 11
1905.46651921
 21
-956.16778281
 31
0.0
  0
LINE
  5
3E2
100
AcDbEntity
  8
Sc.1_5
 62
     9
  6
CONTINUOUS
370
    -2
100
AcDbLine
 10
1904.83952204
 20
-964.45612133
 30
0.0
 11
1905.46651927
 21
-965.50111671
 31
0.0
  0
LINE
  5
3E3
100
AcDbEntity
  8
Sc.1_5
 62
     9
  6
CONTINUOUS
370
    -2
100
AcDbLine
 10
1904.83952211
 20
-973.78945523
 30
0.0
 11
1905.46651933
 21
-974.8344506
 31
0.0
  0
LINE
  5
3E4
100
AcDbEntity
  8
Sc.1_5
 62
     9
  6
CONTINUOUS
370
    -2
100
AcDbLine
 10
1904.83952217
 20
-983.12278913
 30
0.0
 11
1905.46651939
 21
-984.1677845
 31
0.0
  0
LINE
  5
3E5
100
AcDbEntity
  8
Sc.1_5
 62
     9
  6
CONTINUOUS
370
    -2
100
AcDbLine
 10
1904.83952223
 20
-992.45612302
 30
0.0
 11
1905.46651946
 21
-993.5011184
 31
0.0
  0
LINE
  5
3E6
100
AcDbEntity
  8
Sc.1_5
 62
     9
  6
CONTINUOUS
370
    -2
100
AcDbLine
 10
1904.83952229
 20
-1001.78945692
 30
0.0
 11
1905.46651952
 21
-1002.8344523
 31
0.0
  0
LINE
  5
3E7
100
AcDbEntity
  8
Sc.1_5
 62
     9
  6
CONTINUOUS
370
    -2
100
AcDbLine
 10
1905.46652133
 20
-1006.53197585
 30
0.0
 11
1904.8395241
 21
-1007.57697123
 31
0.0
  0
LINE
  5
3E8
100
AcDbEntity
  8
Sc.1_5
 62
     9
  6
CONTINUOUS
370
    -2
100
AcDbLine
 10
1905.46652139
 20
-997.19864195
 30
0.0
 11
1904.83952416
 21
-998.24363733
 31
0.0
  0
LINE
  5
3E9
100
AcDbEntity
  8
Sc.1_5
 62
     9
  6
CONTINUOUS
370
    -2
100
AcDbLine
 10
1905.46652145
 20
-987.86530806
 30
0.0
 11
1904.83952422
 21
-988.91030343
 31
0.0
  0
LINE
  5
3EA
100
AcDbEntity
  8
Sc.1_5
 62
     9
  6
CONTINUOUS
370
    -2
100
AcDbLine
 10
1905.46652151
 20
-978.53197416
 30
0.0
 11
1904.83952429
 21
-979.57696954
 31
0.0
  0
LINE
  5
3EB
100
AcDbEntity
  8
Sc.1_5
 62
     9
  6
CONTINUOUS
370
    -2
100
AcDbLine
 10
1905.46652157
 20
-969.19864026
 30
0.0
 11
1904.83952435
 21
-970.24363564
 31
0.0
  0
LINE
  5
3EC
100
AcDbEntity
  8
Sc.1_5
 62
     9
  6
CONTINUOUS
370
    -2
100
AcDbLine
 10
1905.46652164
 20
-959.86530637
 30
0.0
 11
1904.83952441
 21
-960.91030174
 31
0.0
  0
LINE
  5
3ED
100
AcDbEntity
  8
Sc.1_5
 62
     9
  6
CONTINUOUS
370
    -2
100
AcDbLine
 10
1878.76105389
 20
-956.24364231
 30
0.0
 11
1879.49387188
 21
-956.97646031
 31
0.0
  0
LINE
  5
3EE
100
AcDbEntity
  8
Sc.1_5
 62
     9
  6
CONTINUOUS
370
    -2
100
AcDbLine
 10
1878.76105389
 20
-965.57697705
 30
0.0
 11
1879.49387188
 21
-966.30979505
 31
0.0
  0
LINE
  5
3EF
100
AcDbEntity
  8
Sc.1_5
 62
     9
  6
CONTINUOUS
370
    -2
100
AcDbLine
 10
1878.76105389
 20
-974.9103118
 30
0.0
 11
1879.49387188
 21
-975.6431298
 31
0.0
  0
LINE
  5
3F0
100
AcDbEntity
  8
Sc.1_5
 62
     9
  6
CONTINUOUS
370
    -2
100
AcDbLine
 10
1878.76105389
 20
-984.24364655
 30
0.0
 11
1879.49387188
 21
-984.97646454
 31
0.0
  0
LINE
  5
3F1
100
AcDbEntity
  8
Sc.1_5
 62
     9
  6
CONTINUOUS
370
    -2
100
AcDbLine
 10
1878.76105389
 20
-993.57698129
 30
0.0
 11
1879.49387188
 21
-994.30979929
 31
0.0
  0
LINE
  5
3F2
100
AcDbEntity
  8
Sc.1_5
 62
     9
  6
CONTINUOUS
370
    -2
100
AcDbLine
 10
1878.76105389
 20
-1002.91031604
 30
0.0
 11
1879.49387188
 21
-1003.64313404
 31
0.0
  0
LINE
  5
3F3
100
AcDbEntity
  8
Sc.1_5
 62
     9
  6
CONTINUOUS
370
    -2
100
AcDbLine
 10
1878.76105389
 20
-959.78944748
 30
0.0
 11
1879.49387188
 21
-959.05662948
 31
0.0
  0
LINE
  5
3F4
100
AcDbEntity
  8
Sc.1_5
 62
     9
  6
CONTINUOUS
370
    -2
100
AcDbLine
 10
1878.76105389
 20
-969.12278223
 30
0.0
 11
1879.49387188
 21
-968.38996423
 31
0.0
  0
LINE
  5
3F5
100
AcDbEntity
  8
Sc.1_5
 62
     9
  6
CONTINUOUS
370
    -2
100
AcDbLine
 10
1878.76105389
 20
-978.45611697
 30
0.0
 11
1879.49387188
 21
-977.72329897
 31
0.0
  0
LINE
  5
3F6
100
AcDbEntity
  8
Sc.1_5
 62
     9
  6
CONTINUOUS
370
    -2
100
AcDbLine
 10
1878.76105389
 20
-987.78945172
 30
0.0
 11
1879.49387188
 21
-987.05663372
 31
0.0
  0
LINE
  5
3F7
100
AcDbEntity
  8
Sc.1_5
 62
     9
  6
CONTINUOUS
370
    -2
100
AcDbLine
 10
1878.76105389
 20
-997.12278646
 30
0.0
 11
1879.49387188
 21
-996.38996846
 31
0.0
  0
LINE
  5
3F8
100
AcDbEntity
  8
Sc.1_5
 62
     9
  6
CONTINUOUS
370
    -2
100
AcDbLine
 10
1878.76105389
 20
-1006.45612121
 30
0.0
 11
1879.49387188
 21
-1005.72330321
 31
0.0
  0
LINE
  5
3F9
100
AcDbEntity
  8
Sc.1_5
 62
     9
  6
CONTINUOUS
370
    -2
100
AcDbLine
 10
1904.10670448
 20
-954.38996949
 30
0.0
 11
1904.83952248
 21
-955.12278749
 31
0.0
  0
LINE
  5
3FA
100
AcDbEntity
  8
Sc.1_5
 62
     9
  6
CONTINUOUS
370
    -2
100
AcDbLine
 10
1904.10670448
 20
-963.72330424
 30
0.0
 11
1904.83952248
 21
-964.45612223
 31
0.0
  0
LINE
  5
3FB
100
AcDbEntity
  8
Sc.1_5
 62
     9
  6
CONTINUOUS
370
    -2
100
AcDbLine
 10
1904.10670448
 20
-973.05663898
 30
0.0
 11
1904.83952248
 21
-973.78945698
 31
0.0
  0
LINE
  5
3FC
100
AcDbEntity
  8
Sc.1_5
 62
     9
  6
CONTINUOUS
370
    -2
100
AcDbLine
 10
1904.10670448
 20
-982.38997373
 30
0.0
 11
1904.83952248
 21
-983.12279173
 31
0.0
  0
LINE
  5
3FD
100
AcDbEntity
  8
Sc.1_5
 62
     9
  6
CONTINUOUS
370
    -2
100
AcDbLine
 10
1904.10670448
 20
-991.72330847
 30
0.0
 11
1904.83952248
 21
-992.45612647
 31
0.0
  0
LINE
  5
3FE
100
AcDbEntity
  8
Sc.1_5
 62
     9
  6
CONTINUOUS
370
    -2
100
AcDbLine
 10
1904.10670448
 20
-1001.05664322
 30
0.0
 11
1904.83952248
 21
-1001.78946122
 31
0.0
  0
LINE
  5
3FF
100
AcDbEntity
  8
Sc.1_5
 62
     9
  6
CONTINUOUS
370
    -2
100
AcDbLine
 10
1904.83951964
 20
-1007.57697582
 30
0.0
 11
1904.10670164
 21
-1008.30979382
 31
0.0
  0
LINE
  5
400
100
AcDbEntity
  8
Sc.1_5
 62
     9
  6
CONTINUOUS
370
    -2
100
AcDbLine
 10
1904.83951964
 20
-998.24364108
 30
0.0
 11
1904.10670164
 21
-998.97645908
 31
0.0
  0
LINE
  5
401
100
AcDbEntity
  8
Sc.1_5
 62
     9
  6
CONTINUOUS
370
    -2
100
AcDbLine
 10
1904.83951964
 20
-988.91030633
 30
0.0
 11
1904.10670164
 21
-989.64312433
 31
0.0
  0
LINE
  5
402
100
AcDbEntity
  8
Sc.1_5
 62
     9
  6
CONTINUOUS
370
    -2
100
AcDbLine
 10
1904.83951964
 20
-979.57697159
 30
0.0
 11
1904.10670164
 21
-980.30978959
 31
0.0
  0
LINE
  5
403
100
AcDbEntity
  8
Sc.1_5
 62
     9
  6
CONTINUOUS
370
    -2
100
AcDbLine
 10
1904.83951964
 20
-970.24363684
 30
0.0
 11
1904.10670164
 21
-970.97645484
 31
0.0
  0
LINE
  5
404
100
AcDbEntity
  8
Sc.1_5
 62
     9
  6
CONTINUOUS
370
    -2
100
AcDbLine
 10
1904.83951964
 20
-960.9103021
 30
0.0
 11
1904.10670164
 21
-961.64312009
 31
0.0
  0
LINE
  5
405
100
AcDbEntity
  8
Sc.1_5
 62
     9
  6
CONTINUOUS
370
    -2
100
AcDbLine
 10
1879.4938737
 20
-956.97645891
 30
0.0
 11
1880.39834667
 21
-957.57944088
 31
0.0
  0
LINE
  5
406
100
AcDbEntity
  8
Sc.1_5
 62
     9
  6
CONTINUOUS
370
    -2
100
AcDbLine
 10
1879.49387476
 20
-966.30979255
 30
0.0
 11
1880.39834773
 21
-966.91277453
 31
0.0
  0
LINE
  5
407
100
AcDbEntity
  8
Sc.1_5
 62
     9
  6
CONTINUOUS
370
    -2
100
AcDbLine
 10
1879.49387582
 20
-975.6431262
 30
0.0
 11
1880.39834878
 21
-976.24610817
 31
0.0
  0
LINE
  5
408
100
AcDbEntity
  8
Sc.1_5
 62
     9
  6
CONTINUOUS
370
    -2
100
AcDbLine
 10
1879.49387687
 20
-984.97645984
 30
0.0
 11
1880.39834984
 21
-985.57944182
 31
0.0
  0
LINE
  5
409
100
AcDbEntity
  8
Sc.1_5
 62
     9
  6
CONTINUOUS
370
    -2
100
AcDbLine
 10
1879.49387793
 20
-994.30979349
 30
0.0
 11
1880.39835089
 21
-994.91277546
 31
0.0
  0
LINE
  5
40A
100
AcDbEntity
  8
Sc.1_5
 62
     9
  6
CONTINUOUS
370
    -2
100
AcDbLine
 10
1879.49387898
 20
-1003.64312713
 30
0.0
 11
1880.39835195
 21
-1004.24610911
 31
0.0
  0
LINE
  5
40B
100
AcDbEntity
  8
Sc.1_5
 62
     9
  6
CONTINUOUS
370
    -2
100
AcDbLine
 10
1879.49387202
 20
-959.05662792
 30
0.0
 11
1880.39834503
 21
-958.45364601
 31
0.0
  0
LINE
  5
40C
100
AcDbEntity
  8
Sc.1_5
 62
     9
  6
CONTINUOUS
370
    -2
100
AcDbLine
 10
1879.49387035
 20
-968.38996156
 30
0.0
 11
1880.39834335
 21
-967.78697965
 31
0.0
  0
LINE
  5
40D
100
AcDbEntity
  8
Sc.1_5
 62
     9
  6
CONTINUOUS
370
    -2
100
AcDbLine
 10
1879.49386867
 20
-977.72329521
 30
0.0
 11
1880.39834167
 21
-977.1203133
 31
0.0
  0
LINE
  5
40E
100
AcDbEntity
  8
Sc.1_5
 62
     9
  6
CONTINUOUS
370
    -2
100
AcDbLine
 10
1879.49386699
 20
-987.05662885
 30
0.0
 11
1880.39834
 21
-986.45364694
 31
0.0
  0
LINE
  5
40F
100
AcDbEntity
  8
Sc.1_5
 62
     9
  6
CONTINUOUS
370
    -2
100
AcDbLine
 10
1879.49386531
 20
-996.3899625
 30
0.0
 11
1880.39833832
 21
-995.78698059
 31
0.0
  0
LINE
  5
410
100
AcDbEntity
  8
Sc.1_5
 62
     9
  6
CONTINUOUS
370
    -2
100
AcDbLine
 10
1879.49386363
 20
-1005.72329614
 30
0.0
 11
1880.39833664
 21
-1005.12031423
 31
0.0
  0
LINE
  5
411
100
AcDbEntity
  8
Sc.1_5
 62
     9
  6
CONTINUOUS
370
    -2
100
AcDbLine
 10
1903.20223368
 20
-953.78698451
 30
0.0
 11
1904.10670665
 21
-954.38996648
 31
0.0
  0
LINE
  5
412
100
AcDbEntity
  8
Sc.1_5
 62
     9
  6
CONTINUOUS
370
    -2
100
AcDbLine
 10
1903.20223474
 20
-963.12031816
 30
0.0
 11
1904.10670771
 21
-963.72330013
 31
0.0
  0
LINE
  5
413
100
AcDbEntity
  8
Sc.1_5
 62
     9
  6
CONTINUOUS
370
    -2
100
AcDbLine
 10
1903.2022358
 20
-972.4536518
 30
0.0
 11
1904.10670876
 21
-973.05663377
 31
0.0
  0
LINE
  5
414
100
AcDbEntity
  8
Sc.1_5
 62
     9
  6
CONTINUOUS
370
    -2
100
AcDbLine
 10
1903.20223685
 20
-981.78698545
 30
0.0
 11
1904.10670982
 21
-982.38996742
 31
0.0
  0
LINE
  5
415
100
AcDbEntity
  8
Sc.1_5
 62
     9
  6
CONTINUOUS
370
    -2
100
AcDbLine
 10
1903.20223791
 20
-991.12031909
 30
0.0
 11
1904.10671088
 21
-991.72330106
 31
0.0
  0
LINE
  5
416
100
AcDbEntity
  8
Sc.1_5
 62
     9
  6
CONTINUOUS
370
    -2
100
AcDbLine
 10
1903.20223897
 20
-1000.45365274
 30
0.0
 11
1904.10671193
 21
-1001.05663471
 31
0.0
  0
LINE
  5
417
100
AcDbEntity
  8
Sc.1_5
 62
     9
  6
CONTINUOUS
370
    -2
100
AcDbLine
 10
1904.10670303
 20
-1008.30979105
 30
0.0
 11
1903.20223006
 21
-1008.91277302
 31
0.0
  0
LINE
  5
418
100
AcDbEntity
  8
Sc.1_5
 62
     9
  6
CONTINUOUS
370
    -2
100
AcDbLine
 10
1904.10670408
 20
-998.9764574
 30
0.0
 11
1903.20223112
 21
-999.57943938
 31
0.0
  0
LINE
  5
419
100
AcDbEntity
  8
Sc.1_5
 62
     9
  6
CONTINUOUS
370
    -2
100
AcDbLine
 10
1904.10670514
 20
-989.64312376
 30
0.0
 11
1903.20223217
 21
-990.24610573
 31
0.0
  0
LINE
  5
41A
100
AcDbEntity
  8
Sc.1_5
 62
     9
  6
CONTINUOUS
370
    -2
100
AcDbLine
 10
1904.1067062
 20
-980.30979011
 30
0.0
 11
1903.20223323
 21
-980.91277209
 31
0.0
  0
LINE
  5
41B
100
AcDbEntity
  8
Sc.1_5
 62
     9
  6
CONTINUOUS
370
    -2
100
AcDbLine
 10
1904.10670725
 20
-970.97645647
 30
0.0
 11
1903.20223429
 21
-971.57943844
 31
0.0
  0
LINE
  5
41C
100
AcDbEntity
  8
Sc.1_5
 62
     9
  6
CONTINUOUS
370
    -2
100
AcDbLine
 10
1904.10670831
 20
-961.64312282
 30
0.0
 11
1903.20223534
 21
-962.2461048
 31
0.0
  0
LINE
  5
41D
100
AcDbEntity
  8
Sc.1_5
 62
     9
  6
CONTINUOUS
370
    -2
100
AcDbLine
 10
1880.39834305
 20
-957.57943914
 30
0.0
 11
1881.70965861
 21
-958.0165444
 31
0.0
  0
LINE
  5
41E
100
AcDbEntity
  8
Sc.1_5
 62
     9
  6
CONTINUOUS
370
    -2
100
AcDbLine
 10
1880.39834352
 20
-966.91277345
 30
0.0
 11
1881.70965908
 21
-967.34987871
 31
0.0
  0
LINE
  5
41F
100
AcDbEntity
  8
Sc.1_5
 62
     9
  6
CONTINUOUS
370
    -2
100
AcDbLine
 10
1880.39834399
 20
-976.24610776
 30
0.0
 11
1881.70965954
 21
-976.68321302
 31
0.0
  0
LINE
  5
420
100
AcDbEntity
  8
Sc.1_5
 62
     9
  6
CONTINUOUS
370
    -2
100
AcDbLine
 10
1880.39834446
 20
-985.57944207
 30
0.0
 11
1881.70966001
 21
-986.01654733
 31
0.0
  0
LINE
  5
421
100
AcDbEntity
  8
Sc.1_5
 62
     9
  6
CONTINUOUS
370
    -2
100
AcDbLine
 10
1880.39834493
 20
-994.91277637
 30
0.0
 11
1881.70966048
 21
-995.34988163
 31
0.0
  0
LINE
  5
422
100
AcDbEntity
  8
Sc.1_5
 62
     9
  6
CONTINUOUS
370
    -2
100
AcDbLine
 10
1880.39834539
 20
-1004.24611068
 30
0.0
 11
1881.70966095
 21
-1004.68321594
 31
0.0
  0
LINE
  5
423
100
AcDbEntity
  8
Sc.1_5
 62
     9
  6
CONTINUOUS
370
    -2
100
AcDbLine
 10
1880.39834259
 20
-958.45365021
 30
0.0
 11
1881.70965814
 21
-958.01654495
 31
0.0
  0
LINE
  5
424
100
AcDbEntity
  8
Sc.1_5
 62
     9
  6
CONTINUOUS
370
    -2
100
AcDbLine
 10
1880.39834212
 20
-967.78698452
 30
0.0
 11
1881.70965767
 21
-967.34987926
 31
0.0
  0
LINE
  5
425
100
AcDbEntity
  8
Sc.1_5
 62
     9
  6
CONTINUOUS
370
    -2
100
AcDbLine
 10
1880.39834165
 20
-977.12031883
 30
0.0
 11
1881.7096572
 21
-976.68321357
 31
0.0
  0
LINE
  5
426
100
AcDbEntity
  8
Sc.1_5
 62
     9
  6
CONTINUOUS
370
    -2
100
AcDbLine
 10
1880.39834118
 20
-986.45365313
 30
0.0
 11
1881.70965674
 21
-986.01654787
 31
0.0
  0
LINE
  5
427
100
AcDbEntity
  8
Sc.1_5
 62
     9
  6
CONTINUOUS
370
    -2
100
AcDbLine
 10
1880.39834071
 20
-995.78698744
 30
0.0
 11
1881.70965627
 21
-995.34988218
 31
0.0
  0
LINE
  5
428
100
AcDbEntity
  8
Sc.1_5
 62
     9
  6
CONTINUOUS
370
    -2
100
AcDbLine
 10
1880.39834025
 20
-1005.12032175
 30
0.0
 11
1881.7096558
 21
-1004.68321649
 31
0.0
  0
LINE
  5
429
100
AcDbEntity
  8
Sc.1_5
 62
     9
  6
CONTINUOUS
370
    -2
100
AcDbLine
 10
1901.89091859
 20
-953.34987769
 30
0.0
 11
1903.20223143
 21
-953.78698205
 31
0.0
  0
LINE
  5
42A
100
AcDbEntity
  8
Sc.1_5
 62
     9
  6
CONTINUOUS
370
    -2
100
AcDbLine
 10
1901.89091635
 20
-962.6832111
 30
0.0
 11
1903.2022319
 21
-963.12031636
 31
0.0
  0
LINE
  5
42B
100
AcDbEntity
  8
Sc.1_5
 62
     9
  6
CONTINUOUS
370
    -2
100
AcDbLine
 10
1901.89091681
 20
-972.0165454
 30
0.0
 11
1903.20223237
 21
-972.45365066
 31
0.0
  0
LINE
  5
42C
100
AcDbEntity
  8
Sc.1_5
 62
     9
  6
CONTINUOUS
370
    -2
100
AcDbLine
 10
1901.89091728
 20
-981.34987971
 30
0.0
 11
1903.20223284
 21
-981.78698497
 31
0.0
  0
LINE
  5
42D
100
AcDbEntity
  8
Sc.1_5
 62
     9
  6
CONTINUOUS
370
    -2
100
AcDbLine
 10
1901.89091775
 20
-990.68321402
 30
0.0
 11
1903.2022333
 21
-991.12031928
 31
0.0
  0
LINE
  5
42E
100
AcDbEntity
  8
Sc.1_5
 62
     9
  6
CONTINUOUS
370
    -2
100
AcDbLine
 10
1901.89091822
 20
-1000.01654833
 30
0.0
 11
1903.20223377
 21
-1000.45365359
 31
0.0
  0
LINE
  5
42F
100
AcDbEntity
  8
Sc.1_5
 62
     9
  6
CONTINUOUS
370
    -2
100
AcDbLine
 10
1901.89091869
 20
-1009.34988264
 30
0.0
 11
1903.1646788
 21
-1009.77446941
 31
0.0
  0
LINE
  5
430
100
AcDbEntity
  8
Sc.1_5
 62
     9
  6
CONTINUOUS
370
    -2
100
AcDbLine
 10
1903.20222791
 20
-1008.91277662
 30
0.0
 11
1901.89091235
 21
-1009.34988188
 31
0.0
  0
LINE
  5
431
100
AcDbEntity
  8
Sc.1_5
 62
     9
  6
CONTINUOUS
370
    -2
100
AcDbLine
 10
1903.20222838
 20
-999.57944231
 30
0.0
 11
1901.89091282
 21
-1000.01654757
 31
0.0
  0
LINE
  5
432
100
AcDbEntity
  8
Sc.1_5
 62
     9
  6
CONTINUOUS
370
    -2
100
AcDbLine
 10
1903.20222884
 20
-990.24610801
 30
0.0
 11
1901.89091329
 21
-990.68321327
 31
0.0
  0
LINE
  5
433
100
AcDbEntity
  8
Sc.1_5
 62
     9
  6
CONTINUOUS
370
    -2
100
AcDbLine
 10
1903.20222931
 20
-980.9127737
 30
0.0
 11
1901.89091376
 21
-981.34987896
 31
0.0
  0
LINE
  5
434
100
AcDbEntity
  8
Sc.1_5
 62
     9
  6
CONTINUOUS
370
    -2
100
AcDbLine
 10
1903.20222978
 20
-971.57943939
 30
0.0
 11
1901.89091423
 21
-972.01654465
 31
0.0
  0
LINE
  5
435
100
AcDbEntity
  8
Sc.1_5
 62
     9
  6
CONTINUOUS
370
    -2
100
AcDbLine
 10
1903.20223025
 20
-962.24610508
 30
0.0
 11
1901.89091469
 21
-962.68321034
 31
0.0
  0
LINE
  5
436
100
AcDbEntity
  8
Sc.1_5
 62
     9
  6
CONTINUOUS
370
    -2
100
AcDbLine
 10
1882.46696829
 20
-958.01654378
 30
0.0
 11
1883.46802111
 21
-958.12777193
 31
0.0
  0
LINE
  5
437
100
AcDbEntity
  8
Sc.1_5
 62
     9
  6
CONTINUOUS
370
    -2
100
AcDbLine
 10
1882.4669797
 20
-967.34987643
 30
0.0
 11
1883.46803251
 21
-967.46110458
 31
0.0
  0
LINE
  5
438
100
AcDbEntity
  8
Sc.1_5
 62
     9
  6
CONTINUOUS
370
    -2
100
AcDbLine
 10
1882.4669911
 20
-976.68320908
 30
0.0
 11
1883.46804392
 21
-976.79443723
 31
0.0
  0
LINE
  5
439
100
AcDbEntity
  8
Sc.1_5
 62
     9
  6
CONTINUOUS
370
    -2
100
AcDbLine
 10
1882.46700251
 20
-986.01654173
 30
0.0
 11
1883.46805532
 21
-986.12776988
 31
0.0
  0
LINE
  5
43A
100
AcDbEntity
  8
Sc.1_5
 62
     9
  6
CONTINUOUS
370
    -2
100
AcDbLine
 10
1882.46701391
 20
-995.34987439
 30
0.0
 11
1883.46806673
 21
-995.46110253
 31
0.0
  0
LINE
  5
43B
100
AcDbEntity
  8
Sc.1_5
 62
     9
  6
CONTINUOUS
370
    -2
100
AcDbLine
 10
1882.46702532
 20
-1004.68320704
 30
0.0
 11
1883.46807814
 21
-1004.79443518
 31
0.0
  0
LINE
  5
43C
100
AcDbEntity
  8
Sc.1_5
 62
     9
  6
CONTINUOUS
370
    -2
100
AcDbLine
 10
1882.46695688
 20
-958.01654391
 30
0.0
 11
1883.4680097
 21
-957.90531577
 31
0.0
  0
LINE
  5
43D
100
AcDbEntity
  8
Sc.1_5
 62
     9
  6
CONTINUOUS
370
    -2
100
AcDbLine
 10
1882.46694548
 20
-967.34987656
 30
0.0
 11
1883.46799829
 21
-967.23864842
 31
0.0
  0
LINE
  5
43E
100
AcDbEntity
  8
Sc.1_5
 62
     9
  6
CONTINUOUS
370
    -2
100
AcDbLine
 10
1882.46693407
 20
-976.68320921
 30
0.0
 11
1883.46798689
 21
-976.57198107
 31
0.0
  0
LINE
  5
43F
100
AcDbEntity
  8
Sc.1_5
 62
     9
  6
CONTINUOUS
370
    -2
100
AcDbLine
 10
1882.46692267
 20
-986.01654186
 30
0.0
 11
1883.46797548
 21
-985.90531372
 31
0.0
  0
LINE
  5
440
100
AcDbEntity
  8
Sc.1_5
 62
     9
  6
CONTINUOUS
370
    -2
100
AcDbLine
 10
1882.46691126
 20
-995.34987451
 30
0.0
 11
1883.46796408
 21
-995.23864637
 31
0.0
  0
LINE
  5
441
100
AcDbEntity
  8
Sc.1_5
 62
     9
  6
CONTINUOUS
370
    -2
100
AcDbLine
 10
1882.46689985
 20
-1004.68320717
 30
0.0
 11
1883.46795267
 21
-1004.57197902
 31
0.0
  0
LINE
  5
442
100
AcDbEntity
  8
Sc.1_5
 62
     9
  6
CONTINUOUS
370
    -2
100
AcDbLine
 10
1901.13370747
 20
-1009.3498793
 30
0.0
 11
1900.13265463
 21
-1009.23865142
 31
0.0
  0
LINE
  5
443
100
AcDbEntity
  8
Sc.1_5
 62
     9
  6
CONTINUOUS
370
    -2
100
AcDbLine
 10
1901.13369358
 20
-1000.01654665
 30
0.0
 11
1900.13264073
 21
-999.90531877
 31
0.0
  0
LINE
  5
444
100
AcDbEntity
  8
Sc.1_5
 62
     9
  6
CONTINUOUS
370
    -2
100
AcDbLine
 10
1901.13367969
 20
-990.683214
 30
0.0
 11
1900.13262684
 21
-990.57198612
 31
0.0
  0
LINE
  5
445
100
AcDbEntity
  8
Sc.1_5
 62
     9
  6
CONTINUOUS
370
    -2
100
AcDbLine
 10
1901.1336658
 20
-981.34988135
 30
0.0
 11
1900.13261295
 21
-981.23865347
 31
0.0
  0
LINE
  5
446
100
AcDbEntity
  8
Sc.1_5
 62
     9
  6
CONTINUOUS
370
    -2
100
AcDbLine
 10
1901.13365191
 20
-972.0165487
 30
0.0
 11
1900.13259906
 21
-971.90532082
 31
0.0
  0
LINE
  5
447
100
AcDbEntity
  8
Sc.1_5
 62
     9
  6
CONTINUOUS
370
    -2
100
AcDbLine
 10
1901.13363801
 20
-962.68321605
 30
0.0
 11
1900.13258517
 21
-962.57198817
 31
0.0
  0
LINE
  5
448
100
AcDbEntity
  8
Sc.1_5
 62
     9
  6
CONTINUOUS
370
    -2
100
AcDbLine
 10
1901.13362412
 20
-953.3498834
 30
0.0
 11
1901.13357309
 21
-953.34987773
 31
0.0
  0
LINE
  5
449
100
AcDbEntity
  8
Sc.1_5
 62
     9
  6
CONTINUOUS
370
    -2
100
AcDbLine
 10
1901.13355569
 20
-1009.34987501
 30
0.0
 11
1900.13250287
 21
-1009.46110315
 31
0.0
  0
LINE
  5
44A
100
AcDbEntity
  8
Sc.1_5
 62
     9
  6
CONTINUOUS
370
    -2
100
AcDbLine
 10
1901.13356709
 20
-1000.01654236
 30
0.0
 11
1900.13251428
 21
-1000.1277705
 31
0.0
  0
LINE
  5
44B
100
AcDbEntity
  8
Sc.1_5
 62
     9
  6
CONTINUOUS
370
    -2
100
AcDbLine
 10
1901.1335785
 20
-990.68320971
 30
0.0
 11
1900.13252568
 21
-990.79443785
 31
0.0
  0
LINE
  5
44C
100
AcDbEntity
  8
Sc.1_5
 62
     9
  6
CONTINUOUS
370
    -2
100
AcDbLine
 10
1901.1335899
 20
-981.34987706
 30
0.0
 11
1900.13253709
 21
-981.4611052
 31
0.0
  0
LINE
  5
44D
100
AcDbEntity
  8
Sc.1_5
 62
     9
  6
CONTINUOUS
370
    -2
100
AcDbLine
 10
1901.13360131
 20
-972.01654441
 30
0.0
 11
1900.13254849
 21
-972.12777255
 31
0.0
  0
LINE
  5
44E
100
AcDbEntity
  8
Sc.1_5
 62
     9
  6
CONTINUOUS
370
    -2
100
AcDbLine
 10
1901.13361272
 20
-962.68321176
 30
0.0
 11
1900.1325599
 21
-962.7944399
 31
0.0
  0
LINE
  5
44F
100
AcDbEntity
  8
Sc.1_5
 62
     9
  6
CONTINUOUS
370
    -2
100
AcDbLine
 10
1901.13362412
 20
-953.34987911
 30
0.0
 11
1900.13257131
 21
-953.46110725
 31
0.0
  0
ENDBLK
  5
450
100
AcDbEntity
100
AcDbBlockEnd
  0
ENDSEC
  0
SECTION
  2
ENTITIES
  0
3DFACE
  5
451
100
AcDbEntity
  8
Sc.1_5
 62
     7
  6
CONTINUOUS
370
    20
100
AcDbFace
 70
     0
 10
1905.80028731
 20
-905.44987739
 30
914.4
 11
1905.80028692
 21
-944.34987739
 31
914.4
 12
1877.8002865
 22
-944.34987861
 32
914.4
 13
1877.80028689
 23
-905.44987861
 33
914.4
  0
INSERT
  5
452
100
AcDbEntity
  8
Sc.1_5
 62
     0
370
    20
100
AcDbBlockReference
  2
*X2039
 10
0.0
 20
0.0
 30
0.0
  0
LINE
  5
453
100
AcDbEntity
  8
Sc.1_5
 62
     7
  6
CONTINUOUS
100
AcDbLine
 10
1908.60028731
 20
-886.34925477
 30
0.0
 11
1908.60028731
 21
-900.44987739
 31
0.0
  0
LINE
  5
454
100
AcDbEntity
  8
Sc.1_5
 62
     7
  6
CONTINUOUS
100
AcDbLine
 10
1908.60028731
 20
-900.44987739
 30
0.0
 11
1911.60028731
 21
-900.44987739
 31
0.0
  0
LINE
  5
455
100
AcDbEntity
  8
Sc.1_5
 62
     7
  6
CONTINUOUS
100
AcDbLine
 10
1911.60028731
 20
-900.44987739
 30
0.0
 11
1911.60028731
 21
-888.44987739
 31
0.0
  0
LINE
  5
456
100
AcDbEntity
  8
Sc.1_5
 62
     7
  6
CONTINUOUS
100
AcDbLine
 10
1911.60028731
 20
-888.44987739
 30
0.0
 11
1908.60028731
 21
-886.34925477
 31
0.0
  0
LINE
  5
457
100
AcDbEntity
  8
Sc.1_5
 62
     7
  6
CONTINUOUS
100
AcDbLine
 10
1992.70087031
 20
-915.72847695
 30
0.0
 11
1997.70087041
 21
-918.22847692
 31
0.0
  0
LINE
  5
458
100
AcDbEntity
  8
Sc.1_5
 62
     7
  6
CONTINUOUS
100
AcDbLine
 10
1997.70087041
 20
-918.22847692
 30
0.0
 11
1987.70087032
 21
-923.22847712
 31
0.0
  0
LINE
  5
459
100
AcDbEntity
  8
Sc.1_5
 62
     7
  6
CONTINUOUS
100
AcDbLine
 10
1987.70087032
 20
-923.22847712
 30
0.0
 11
1992.70087043
 21
-925.72847709
 31
0.0
  0
LINE
  5
45A
100
AcDbEntity
  8
Sc.1_5
 62
     7
  6
CONTINUOUS
100
AcDbLine
 10
1992.70087043
 20
-925.72847709
 30
0.0
 11
1992.70087069
 21
-947.5233982
 31
0.0
  0
LINE
  5
45B
100
AcDbEntity
  8
Sc.1_5
 62
     7
  6
CONTINUOUS
100
AcDbLine
 10
1992.70087009
 20
-897.53794739
 30
0.0
 11
1992.70087031
 21
-915.72847695
 31
0.0
  0
LWPOLYLINE
  5
45C
100
AcDbEntity
  8
Sc.1_5
 62
     7
  6
CONTINUOUS
100
AcDbPolyline
 90
        4
 70
     1
 43
0.0
 10
1992.70087037
 20
-900.94987739
 10
1908.60028731
 20
-900.94987739
 10
1908.60028731
 20
-904.94987739
 10
1992.70087037
 20
-904.94987739
  0
LWPOLYLINE
  5
45D
102
{ACAD_REACTORS
330
45E
102
}
100
AcDbEntity
  8
Sc.1_5
 62
     7
  6
CONTINUOUS
100
AcDbPolyline
 90
        4
 70
     1
 43
0.0
 10
1992.70087037
 20
-942.04987739
 10
1906.30028739
 20
-942.04987739
 10
1906.30028739
 20
-943.84987739
 10
1992.70087037
 20
-943.84987739
  0
HATCH
  5
45E
100
AcDbEntity
  8
Sc.1_5
 62
     9
  6
CONTINUOUS
100
AcDbHatch
 10
0.0
 20
0.0
 30
0.0
210
0.0
220
0.0
230
1.0
  2
CDWK12A
 70
     0
 71
     1
 91
        1
 92
        7
 72
     0
 73
     1
 93
        4
 10
1992.70087037
 20
-942.04987739
 10
1906.30028739
 20
-942.04987739
 10
1906.30028739
 20
-943.84987739
 10
1992.70087037
 20
-943.84987739
 97
        1
330
45D
 75
     0
 76
     2
 52
0.0
 41
1.0
 77
     0
 78
    15
 53
0.0
 43
0.0
 44
0.0
 45
2.70000005
 46
4.9000001
 79
     2
 49
0.0
 49
-3.70000005
 53
0.0
 43
0.0
 44
0.0
 45
4.4000001
 46
4.80000019
 79
     2
 49
0.0
 49
-5.4000001
 53
0.0
 43
0.0
 44
0.0
 45
1.39999998
 46
4.5999999
 79
     2
 49
0.0
 49
-2.4000001
 53
0.0
 43
0.0
 44
0.0
 45
2.20000005
 46
4.19999981
 79
     2
 49
0.0
 49
-3.20000005
 53
0.0
 43
0.0
 44
0.0
 45
3.79999995
 46
4.0
 79
     2
 49
0.0
 49
-4.80000019
 53
0.0
 43
0.0
 44
0.0
 45
1.20000005
 46
3.79999995
 79
     2
 49
0.0
 49
-2.20000005
 53
0.0
 43
0.0
 44
0.0
 45
2.9000001
 46
3.5
 79
     2
 49
0.0
 49
-3.9000001
 53
0.0
 43
0.0
 44
0.0
 45
4.5999999
 46
3.4000001
 79
     2
 49
0.0
 49
-5.5999999
 53
0.0
 43
0.0
 44
0.0
 45
1.89999998
 46
2.9000001
 79
     2
 49
0.0
 49
-2.9000001
 53
0.0
 43
0.0
 44
0.0
 45
3.20000005
 46
2.79999995
 79
     2
 49
0.0
 49
-4.19999981
 53
0.0
 43
0.0
 44
0.0
 45
3.9000001
 46
2.4000001
 79
     2
 49
0.0
 49
-4.9000001
 53
0.0
 43
0.0
 44
0.0
 45
2.4000001
 46
2.0999999
 79
     2
 49
0.0
 49
-3.4000001
 53
0.0
 43
0.0
 44
0.0
 45
4.9000001
 46
2.0999999
 79
     2
 49
0.0
 49
-5.9000001
 53
0.0
 43
0.0
 44
0.0
 45
3.5999999
 46
1.5
 79
     2
 49
0.0
 49
-4.5999999
 53
0.0
 43
0.0
 44
0.0
 45
1.60000002
 46
1.39999998
 79
     2
 49
0.0
 49
-2.5999999
 47
0.775229
 98
        1
 10
0.0
 20
0.0
  0
LWPOLYLINE
  5
45F
102
{ACAD_REACTORS
330
460
102
}
100
AcDbEntity
  8
Sc.1_5
 62
     7
  6
CONTINUOUS
100
AcDbPolyline
 90
        8
 70
     1
 43
0.0
 10
1992.70087037
 20
-905.44987739
 10
1908.8878301
 20
-905.44987739
 10
1908.8878301
 20
-908.55169745
 10
1908.8878301
 20
-908.55169745
 10
1908.8878301
 20
-932.4623891
 10
1927.09727175
 20
-932.4623891
 10
1927.09727175
 20
-934.04987739
 10
1992.70087037
 20
-934.04987739
  0
HATCH
  5
460
100
AcDbEntity
  8
Sc.1_5
 62
     9
  6
CONTINUOUS
100
AcDbHatch
 10
0.0
 20
0.0
 30
0.0
210
0.0
220
0.0
230
1.0
  2
Wood
 70
     0
 71
     1
 91
        1
 92
        7
 72
     0
 73
     1
 93
        7
 10
1992.70087037
 20
-905.44987739
 10
1908.8878301
 20
-905.44987739
 10
1908.8878301
 20
-908.55169745
 10
1908.8878301
 20
-932.4623891
 10
1927.09727175
 20
-932.4623891
 10
1927.09727175
 20
-934.04987739
 10
1992.70087037
 20
-934.04987739
 97
        1
330
45F
 75
     0
 76
     2
 52
0.0
 41
1.0
 77
     0
 78
    66
 53
0.0
 43
0.0
 44
0.0
 45
0.0
 46
41.23109818
 79
     4
 49
8.24619961
 49
-12.36929989
 49
4.1230998
 49
-16.49239922
 53
0.0
 43
28.86170006
 44
1.03079998
 45
0.0
 46
41.23109818
 79
     2
 49
8.24619961
 49
-32.98479843
 53
0.0
 43
24.73859978
 44
3.09229994
 45
0.0
 46
41.23109818
 79
     2
 49
4.1230998
 49
-37.10800171
 53
0.0
 43
2.06159997
 44
4.1230998
 45
0.0
 46
41.23109818
 79
     4
 49
2.06159997
 49
-28.86170006
 49
2.06159997
 49
-8.24619961
 53
0.0
 43
16.49239922
 44
6.18470001
 45
0.0
 46
41.23109818
 79
     4
 49
8.24619961
 49
-12.36929989
 49
2.06159997
 49
-18.55400085
 53
0.0
 43
6.18470001
 44
7.21540022
 45
0.0
 46
41.23109818
 79
     2
 49
6.18470001
 49
-35.04639816
 53
0.0
 43
16.49239922
 44
8.24619961
 45
0.0
 46
41.23109818
 79
     2
 49
12.36929989
 49
-28.86170006
 53
0.0
 43
4.1230998
 44
9.27700043
 45
0.0
 46
41.23109818
 79
     2
 49
8.24619961
 49
-32.98479843
 53
0.0
 43
20.6154995
 44
10.30780029
 45
0.0
 46
41.23109818
 79
     2
 49
20.6154995
 49
-20.6154995
 53
0.0
 43
8.24619961
 44
12.36929989
 45
0.0
 46
41.23109818
 79
     4
 49
4.1230998
 49
-12.36929989
 49
8.24619961
 49
-16.49239922
 53
0.0
 43
37.10800171
 44
13.40009975
 45
0.0
 46
41.23109818
 79
     2
 49
8.24619961
 49
-32.98479843
 53
0.0
 43
28.86170006
 44
14.43089962
 45
0.0
 46
41.23109818
 79
     2
 49
4.1230998
 49
-37.10800171
 53
0.0
 43
20.6154995
 44
15.4616003
 45
0.0
 46
41.23109818
 79
     2
 49
4.1230998
 49
-37.10800171
 53
0.0
 43
0.0
 44
16.49239922
 45
0.0
 46
41.23109818
 79
     2
 49
8.24619961
 49
-32.98479843
 53
0.0
 43
20.6154995
 44
17.52319908
 45
0.0
 46
41.23109818
 79
     2
 49
8.24619961
 49
-32.98479843
 53
0.0
 43
20.6154995
 44
19.58480072
 45
0.0
 46
41.23109818
 79
     4
 49
8.24619961
 49
-8.24619961
 49
8.24619961
 49
-16.49239922
 53
0.0
 43
12.36929989
 44
21.64629936
 45
0.0
 46
41.23109818
 79
     4
 49
4.1230998
 49
-20.6154995
 49
8.24619961
 49
-8.24619961
 53
0.0
 43
20.6154995
 44
22.67709923
 45
0.0
 46
41.23109818
 79
     2
 49
12.36929989
 49
-28.86170006
 53
0.0
 43
20.6154995
 44
24.73859978
 45
0.0
 46
41.23109818
 79
     2
 49
8.24619961
 49
-32.98479843
 53
0.0
 43
4.1230998
 44
25.76939964
 45
0.0
 46
41.23109818
 79
     4
 49
12.36929989
 49
-16.49239922
 49
4.1230998
 49
-8.24619961
 53
0.0
 43
4.1230998
 44
27.83099937
 45
0.0
 46
41.23109818
 79
     2
 49
20.6154995
 49
-20.6154995
 53
0.0
 43
28.86170006
 44
28.86170006
 45
0.0
 46
41.23109818
 79
     2
 49
4.1230998
 49
-37.10800171
 53
0.0
 43
16.49239922
 44
29.89249992
 45
0.0
 46
41.23109818
 79
     2
 49
8.24619961
 49
-32.98479843
 53
0.0
 43
8.24619961
 44
30.92329979
 45
0.0
 46
41.23109818
 79
     4
 49
4.1230998
 49
-16.49239922
 49
4.1230998
 49
-16.49239922
 53
0.0
 43
4.1230998
 44
31.95409966
 45
0.0
 46
41.23109818
 79
     4
 49
4.1230998
 49
-12.36929989
 49
8.24619961
 49
-16.49239922
 53
0.0
 43
12.36929989
 44
32.98479843
 45
0.0
 46
41.23109818
 79
     4
 49
4.1230998
 49
-20.6154995
 49
4.1230998
 49
-12.36929989
 53
0.0
 43
20.6154995
 44
34.0155983
 45
0.0
 46
41.23109818
 79
     2
 49
12.36929989
 49
-28.86170006
 53
0.0
 43
4.1230998
 44
36.07720184
 45
0.0
 46
41.23109818
 79
     2
 49
8.24619961
 49
-32.98479843
 53
0.0
 43
24.73859978
 44
37.10800171
 45
0.0
 46
41.23109818
 79
     2
 49
4.1230998
 49
-37.10800171
 53
0.0
 43
32.98479843
 44
38.13869858
 45
0.0
 46
41.23109818
 79
     2
 49
4.1230998
 49
-37.10800171
 53
14.03619957
 43
28.86170006
 44
3.09229994
 45
-41.23105626
 46
3.1589938600973E-05
 79
     2
 49
4.24679995
 49
-165.75320435
 53
14.03619957
 43
32.98479843
 44
12.36929989
 45
-41.23105626
 46
3.1589938600973E-05
 79
     2
 49
4.24679995
 49
-165.75320435
 53
14.03619957
 43
28.86170006
 44
37.10800171
 45
-41.23105626
 46
3.1589938600973E-05
 79
     2
 49
4.24679995
 49
-165.75320435
 53
14.03619957
 43
16.49239922
 44
21.64629936
 45
-41.23105626
 46
3.1589938600973E-05
 79
     2
 49
4.24679995
 49
-165.75320435
 53
14.03619957
 43
24.73859978
 44
27.83099937
 45
-41.23105626
 46
3.1589938600973E-05
 79
     2
 49
4.24679995
 49
-165.75320435
 53
14.03619957
 43
28.86170006
 44
24.73859978
 45
-41.23105626
 46
3.1589938600973E-05
 79
     2
 49
4.24679995
 49
-165.75320435
 53
14.03619957
 43
8.24619961
 44
31.95409966
 45
-41.23105626
 46
3.1589938600973E-05
 79
     2
 49
4.24679995
 49
-165.75320435
 53
14.03619957
 43
24.73859978
 44
29.89249992
 45
-41.23105626
 46
3.1589938600973E-05
 79
     2
 49
4.24679995
 49
-165.75320435
 53
14.03619957
 43
32.98479843
 44
14.43089962
 45
-41.23105626
 46
3.1589938600973E-05
 79
     2
 49
8.49359989
 49
-161.50639343
 53
14.03619957
 43
28.86170006
 44
17.52319908
 45
-41.23105626
 46
3.1589938600973E-05
 79
     2
 49
8.49359989
 49
-161.50639343
 53
14.03619957
 43
28.86170006
 44
19.58480072
 45
-41.23105626
 46
3.1589938600973E-05
 79
     2
 49
8.49359989
 49
-161.50639343
 53
165.96380615
 43
16.49239922
 44
6.18470001
 45
-41.23105626
 46
-3.5707624025605E-05
 79
     4
 49
4.24679995
 49
-8.49359989
 49
4.24679995
 49
-153.01280212
 53
165.96380615
 43
8.24619961
 44
12.36929989
 45
-41.23105626
 46
-3.5707624025605E-05
 79
     2
 49
4.24679995
 49
-165.75320435
 53
165.96380615
 43
8.24619961
 44
30.92329979
 45
-41.23105626
 46
-3.5707624025605E-05
 79
     2
 49
8.49359989
 49
-161.50639343
 53
194.03619385
 43
28.86170006
 44
1.03079998
 45
41.23105626
 46
-3.5707624036263E-05
 79
     2
 49
4.24679995
 49
-165.75320435
 53
345.9637146
 43
37.10800171
 44
1.03079998
 45
41.23105626
 46
-3.0175342796923E-05
 79
     2
 49
4.24679995
 49
-165.75320435
 53
345.9637146
 43
24.73859978
 44
15.4616003
 45
41.23105626
 46
-3.0175342796923E-05
 79
     2
 49
4.24679995
 49
-165.75320435
 53
345.9637146
 43
32.98479843
 44
22.67709923
 45
41.23105626
 46
-3.0175342796923E-05
 79
     2
 49
4.24679995
 49
-165.75320435
 53
345.9637146
 43
16.49239922
 44
25.76939964
 45
41.23105626
 46
-3.0175342796923E-05
 79
     2
 49
4.24679995
 49
-165.75320435
 53
345.9637146
 43
12.36929989
 44
30.92329979
 45
41.23105626
 46
-3.0175342796923E-05
 79
     2
 49
4.24679995
 49
-165.75320435
 53
345.9637146
 43
16.49239922
 44
32.98479843
 45
41.23105626
 46
-3.0175342796923E-05
 79
     2
 49
4.24679995
 49
-165.75320435
 53
345.9637146
 43
16.49239922
 44
25.76939964
 45
41.23105626
 46
-3.0175342796923E-05
 79
     2
 49
4.24679995
 49
-165.75320435
 53
345.9637146
 43
28.86170006
 44
31.95409966
 45
41.23105626
 46
-3.0175342796923E-05
 79
     2
 49
16.98719978
 49
-153.01280212
 53
345.9637146
 43
4.1230998
 44
4.1230998
 45
41.23105626
 46
-3.0175342796923E-05
 79
     2
 49
16.98719978
 49
-153.01280212
 53
345.9637146
 43
8.24619961
 44
7.21540022
 45
41.23105626
 46
-3.0175342796923E-05
 79
     2
 49
16.98719978
 49
-153.01280212
 53
345.9637146
 43
12.36929989
 44
9.27700043
 45
41.23105626
 46
-3.0175342796923E-05
 79
     4
 49
4.24679995
 49
-8.49359989
 49
8.49359989
 49
-148.76600647
 53
345.9637146
 43
12.36929989
 44
12.36929989
 45
41.23105626
 46
-3.0175342796923E-05
 79
     4
 49
8.49359989
 49
-8.49359989
 49
8.49359989
 49
-144.51919556
 53
345.9637146
 43
8.24619961
 44
16.49239922
 45
41.23105626
 46
-3.0175342796923E-05
 79
     2
 49
16.98719978
 49
-153.01280212
 53
345.9637146
 43
4.1230998
 44
19.58480072
 45
41.23105626
 46
-3.0175342796923E-05
 79
     2
 49
16.98719978
 49
-153.01280212
 53
345.9637146
 43
4.1230998
 44
21.64629936
 45
41.23105626
 46
-3.0175342796923E-05
 79
     2
 49
16.98719978
 49
-153.01280212
 53
345.9637146
 43
32.98479843
 44
34.0155983
 45
41.23105626
 46
-3.0175342796923E-05
 79
     2
 49
4.24679995
 49
-165.75320435
 53
345.96380615
 43
37.10800171
 44
38.13869858
 45
41.23105626
 46
3.5707624002512E-05
 79
     2
 49
8.49359989
 49
-161.50639343
 53
345.96380615
 43
12.36929989
 44
36.07720184
 45
41.23105626
 46
3.5707624002512E-05
 79
     2
 49
8.49359989
 49
-161.50639343
 53
345.9637146
 43
8.24619961
 44
0.0
 45
41.23105626
 46
-3.0175342796923E-05
 79
     2
 49
16.98719978
 49
-153.01280212
 53
345.9637146
 43
32.98479843
 44
28.86170006
 45
41.23105626
 46
-3.0175342796923E-05
 79
     2
 49
12.74040031
 49
-157.25959778
 53
345.9637146
 43
37.10800171
 44
25.76939964
 45
41.23105626
 46
-3.0175342796923E-05
 79
     2
 49
25.48080063
 49
-144.51919556
 47
0.775229
 98
        1
 10
0.0
 20
0.0
  0
LWPOLYLINE
  5
461
102
{ACAD_REACTORS
330
462
102
}
100
AcDbEntity
  8
Sc.1_5
 62
     7
  6
CONTINUOUS
100
AcDbPolyline
 90
        2
 70
     1
 43
0.0
 10
1907.88780968
 20
-909.44371726
 42
0.41421356
 10
1907.09406251
 20
-908.64997008
  0
LWPOLYLINE
  5
462
102
{ACAD_REACTORS
330
463
102
}
100
AcDbEntity
  8
Sc.1_5
 62
     7
  6
CONTINUOUS
100
AcDbPolyline
 90
        9
 70
     1
 43
0.0
 10
1907.09413138
 20
-908.64996934
 10
1906.30028731
 20
-908.64996934
 10
1906.30028731
 20
-934.04987739
 10
1926.32524532
 20
-934.04987739
 10
1926.3252249
 20
-933.25613247
 42
0.41330803
 10
1925.53393252
 20
-932.4623891
 10
1908.68155686
 20
-932.4623853
 42
-0.41211422
 10
1907.8878301
 20
-931.67433155
 10
1907.8878301
 20
-909.44371802
  0
HATCH
  5
463
100
AcDbEntity
  8
Sc.1_5
 62
     9
  6
CONTINUOUS
100
AcDbHatch
 10
0.0
 20
0.0
 30
0.0
210
0.0
220
0.0
230
1.0
  2
STEEL
 70
     0
 71
     1
 91
        1
 92
        7
 72
     1
 73
     1
 93
        9
 10
1907.09413138
 20
-908.64996934
 42
0.0
 10
1906.30028731
 20
-908.64996934
 42
0.0
 10
1906.30028731
 20
-934.04987739
 42
0.0
 10
1926.32524532
 20
-934.04987739
 42
0.0
 10
1926.3252249
 20
-933.25613247
 42
0.41330803
 10
1925.53393252
 20
-932.4623891
 42
0.0
 10
1908.68155686
 20
-932.4623853
 42
-0.41211422
 10
1907.8878301
 20
-931.67433155
 42
0.0
 10
1907.8878301
 20
-909.44371802
 42
0.0
 97
        1
330
462
 75
     0
 76
     2
 52
0.0
 41
1.0
 77
     0
 78
     2
 53
45.0
 43
0.0
 44
0.0
 45
-2.82842712
 46
2.82842712
 79
     2
 49
320.0
 49
0.0
 53
45.0
 43
0.0
 44
2.0
 45
-2.82842712
 46
2.82842712
 79
     2
 49
320.0
 49
0.0
 47
0.775229
 98
        1
 10
0.0
 20
0.0
  0
LINE
  5
464
100
AcDbEntity
  8
Sc.1_5
 62
     7
  6
CONTINUOUS
 48
0.5
370
    -3
100
AcDbLine
 10
1951.96685466
 20
-953.09930118
 30
500.0
 11
1944.01278844
 21
-943.19824842
 31
500.0
  0
INSERT
  5
465
100
AcDbEntity
  8
Sc.1_5
 62
     7
  6
CONTINUOUS
370
    -3
100
AcDbBlockReference
  2
CDWK_EXTR_2
 10
1944.01278844
 20
-943.19824842
 30
500.0
 41
1.0
 42
1.0
 43
1.0
 50
308.77684939
  0
LINE
  5
466
100
AcDbEntity
  8
Sc.1_5
 62
     7
  6
CONTINUOUS
 48
0.5
370
    -3
100
AcDbLine
 10
1951.52224723
 20
-968.29095758
 30
500.0
 11
1923.66757502
 21
-933.57892738
 31
500.0
  0
INSERT
  5
467
100
AcDbEntity
  8
Sc.1_5
 62
     7
  6
CONTINUOUS
370
    -3
100
AcDbBlockReference
  2
CDWK_EXTR_2
 10
1923.66757502
 20
-933.57892738
 30
500.0
 41
1.0
 42
1.0
 43
1.0
 50
308.74530391
  0
LINE
  5
468
100
AcDbEntity
  8
Sc.1_5
 62
     7
  6
CONTINUOUS
 48
0.5
370
    -3
100
AcDbLine
 10
1951.25095077
 20
-893.74120767
 30
500.0
 11
1928.9841611
 21
-908.63222615
 31
500.0
  0
INSERT
  5
469
100
AcDbEntity
  8
Sc.1_5
 62
     7
  6
CONTINUOUS
370
    -3
100
AcDbBlockReference
  2
CDWK_EXTR_2
 10
1928.9841611
 20
-908.63222615
 30
500.0
 41
1.0
 42
1.0
 43
1.0
 50
33.77280916
  0
LWPOLYLINE
  5
46A
100
AcDbEntity
  8
Sc.1_5
 62
     9
  6
CONTINUOUS
370
    20
100
AcDbPolyline
 90
       12
 70
     1
 43
0.0
 38
548.63999023
 39
-548.63999023
 10
1920.33103283
 20
-932.54842529
 10
1920.33103283
 20
-929.35151125
 10
1920.33103283
 20
-919.63119239
 10
1920.33103283
 20
-919.42630253
 10
1920.41676254
 20
-918.55322357
 10
1920.44128909
 20
-918.40023701
 10
1920.83103283
 20
-917.33687758
 10
1921.20402497
 20
-918.22589738
 10
1921.24945447
 20
-918.4179587
 10
1921.33103283
 20
-919.16127549
 10
1921.33103283
 20
-919.43541891
 10
1921.33103283
 20
-932.54842529
  0
LINE
  5
46B
100
AcDbEntity
  8
Sc.1_5
 62
     9
  6
CONTINUOUS
370
    -3
100
AcDbLine
 10
1921.33103283
 20
-932.54842529
 30
548.63999023
 11
1921.33103283
 21
-919.43541891
 31
548.63999023
  0
LINE
  5
46C
100
AcDbEntity
  8
Sc.1_5
 62
     9
  6
CONTINUOUS
370
    -3
100
AcDbLine
 10
1920.33103283
 20
-932.54842529
 30
548.63999023
 11
1920.33103283
 21
-919.63119239
 31
548.63999023
  0
LWPOLYLINE
  5
46D
100
AcDbEntity
  8
Sc.1_5
 62
     9
  6
CONTINUOUS
370
    20
100
AcDbPolyline
 90
        8
 70
     1
 43
0.0
 38
548.63999023
 39
-548.63999023
 10
1919.83103283
 20
-920.75384896
 10
1920.33103283
 20
-920.42080048
 10
1921.33103283
 20
-920.15977476
 10
1921.83103283
 20
-920.09677376
 10
1921.33103283
 20
-920.42982224
 10
1920.33103283
 20
-920.69084797
 10
1919.83103283
 20
-920.75384896
 10
1921.83103283
 20
-920.09677376
  0
LWPOLYLINE
  5
46E
100
AcDbEntity
  8
Sc.1_5
 62
     9
  6
CONTINUOUS
370
    20
100
AcDbPolyline
 90
        8
 70
     1
 43
0.0
 38
548.63999023
 39
-548.63999023
 10
1919.83103283
 20
-921.99108657
 10
1920.33103283
 20
-921.65803809
 10
1921.33103283
 20
-921.39701237
 10
1921.83103283
 20
-921.33401138
 10
1921.33103283
 20
-921.66705985
 10
1920.33103283
 20
-921.92808558
 10
1919.83103283
 20
-921.99108657
 10
1921.83103283
 20
-921.33401138
  0
3DFACE
  5
46F
100
AcDbEntity
  8
Sc.1_5
 62
     9
  6
CONTINUOUS
370
    20
100
AcDbFace
 70
     0
 10
1922.63103283
 20
-933.84987739
 30
548.63999023
 11
1921.33030673
 21
-932.5491513
 31
548.63999023
 12
1920.33175888
 22
-932.54915135
 32
548.63999023
 13
1919.03103283
 23
-933.84987739
 33
548.63999023
  0
3DFACE
  5
470
100
AcDbEntity
  8
Sc.1_5
 62
     9
  6
CONTINUOUS
370
    20
100
AcDbFace
 70
     0
 10
1922.63103283
 20
-933.84987739
 30
548.63999023
 11
1922.63103283
 21
-934.04987739
 31
548.63999023
 12
1919.03103283
 22
-934.04987739
 32
548.63999023
 13
1919.03103283
 23
-933.84987739
 33
548.63999023
  0
LWPOLYLINE
  5
471
100
AcDbEntity
  8
Sc.1_5
 62
     9
  6
CADWORK_13
370
    -3
100
AcDbPolyline
 90
        4
 70
     0
 43
0.0
 38
548.63999023
 10
1920.33103283
 20
-934.04987739
 10
1920.53103283
 20
-933.22148235
 10
1921.13103283
 20
-933.22148235
 10
1921.33103283
 20
-934.04987739
  0
LINE
  5
472
100
AcDbEntity
  8
Sc.1_5
 62
     9
  6
CADWORK_13
370
    -3
100
AcDbLine
 10
1920.83103283
 20
-933.22148235
 30
548.63999023
 11
1920.83103283
 21
-934.04987739
 31
548.63999023
  0
LWPOLYLINE
  5
473
100
AcDbEntity
  8
Sc.1_5
 62
     9
  6
CONTINUOUS
370
    20
100
AcDbPolyline
 90
        8
 70
     1
 43
0.0
 38
548.63999023
 39
-548.63999023
 10
1919.83103283
 20
-923.22832418
 10
1920.33103283
 20
-922.89527571
 10
1921.33103283
 20
-922.63424998
 10
1921.83103283
 20
-922.57124899
 10
1921.33103283
 20
-922.90429746
 10
1920.33103283
 20
-923.16532319
 10
1919.83103283
 20
-923.22832418
 10
1921.83103283
 20
-922.57124899
  0
LWPOLYLINE
  5
474
100
AcDbEntity
  8
Sc.1_5
 62
     9
  6
CONTINUOUS
370
    20
100
AcDbPolyline
 90
        8
 70
     1
 43
0.0
 38
548.63999023
 39
-548.63999023
 10
1919.83103283
 20
-924.46556179
 10
1920.33103283
 20
-924.13251332
 10
1921.33103283
 20
-923.87148759
 10
1921.83103283
 20
-923.8084866
 10
1921.33103283
 20
-924.14153508
 10
1920.33103283
 20
-924.4025608
 10
1919.83103283
 20
-924.46556179
 10
1921.83103283
 20
-923.8084866
  0
LWPOLYLINE
  5
475
100
AcDbEntity
  8
Sc.1_5
 62
     9
  6
CONTINUOUS
370
    20
100
AcDbPolyline
 90
        8
 70
     1
 43
0.0
 38
548.63999023
 39
-548.63999023
 10
1919.83103283
 20
-925.70279941
 10
1920.33103283
 20
-925.36975093
 10
1921.33103283
 20
-925.1087252
 10
1921.83103283
 20
-925.04572421
 10
1921.33103283
 20
-925.37877269
 10
1920.33103283
 20
-925.63979841
 10
1919.83103283
 20
-925.70279941
 10
1921.83103283
 20
-925.04572421
  0
LWPOLYLINE
  5
476
100
AcDbEntity
  8
Sc.1_5
 62
     9
  6
CONTINUOUS
370
    20
100
AcDbPolyline
 90
        8
 70
     1
 43
0.0
 38
548.63999023
 39
-548.63999023
 10
1919.83103283
 20
-926.94003702
 10
1920.33103283
 20
-926.60698854
 10
1921.33103283
 20
-926.34596281
 10
1921.83103283
 20
-926.28296182
 10
1921.33103283
 20
-926.6160103
 10
1920.33103283
 20
-926.87703603
 10
1919.83103283
 20
-926.94003702
 10
1921.83103283
 20
-926.28296182
  0
LWPOLYLINE
  5
477
100
AcDbEntity
  8
Sc.1_5
 62
     9
  6
CONTINUOUS
370
    20
100
AcDbPolyline
 90
        8
 70
     1
 43
0.0
 38
548.63999023
 39
-548.63999023
 10
1919.83103283
 20
-928.17727463
 10
1920.33103283
 20
-927.84422615
 10
1921.33103283
 20
-927.58320043
 10
1921.83103283
 20
-927.52019943
 10
1921.33103283
 20
-927.85324791
 10
1920.33103283
 20
-928.11427364
 10
1919.83103283
 20
-928.17727463
 10
1921.83103283
 20
-927.52019943
  0
LWPOLYLINE
  5
478
100
AcDbEntity
  8
Sc.1_5
 62
     9
  6
CONTINUOUS
370
    20
100
AcDbPolyline
 90
        8
 70
     1
 43
0.0
 38
548.63999023
 39
-548.63999023
 10
1919.83103283
 20
-929.41451224
 10
1920.33103283
 20
-929.08146376
 10
1921.33103283
 20
-928.82043804
 10
1921.83103283
 20
-928.75743705
 10
1921.33103283
 20
-929.09048552
 10
1920.33103283
 20
-929.35151125
 10
1919.83103283
 20
-929.41451224
 10
1921.83103283
 20
-928.75743705
  0
LINE
  5
479
100
AcDbEntity
  8
Sc.1_5
 62
     7
  6
CONTINUOUS
100
AcDbLine
 10
1866.45802479
 20
-932.32232628
 30
0.0
 11
1870.25802479
 21
-931.30411935
 31
0.0
  0
LINE
  5
47A
100
AcDbEntity
  8
Sc.1_5
 62
     7
  6
CONTINUOUS
100
AcDbLine
 10
1870.25802479
 20
-931.30411935
 30
0.0
 11
1870.25802479
 21
-819.77446941
 31
0.0
  0
LINE
  5
47B
100
AcDbEntity
  8
Sc.1_5
 62
     7
  6
CONTINUOUS
100
AcDbLine
 10
1866.45802479
 20
-819.77446941
 30
0.0
 11
1866.45802479
 21
-932.32232628
 31
0.0
  0
LINE
  5
47C
100
AcDbEntity
  8
Sc.1_5
 62
     7
  6
CONTINUOUS
100
AcDbLine
 10
1870.25802479
 20
-933.7583352
 30
0.0
 11
1866.45802479
 21
-934.77654213
 31
0.0
  0
LINE
  5
47D
100
AcDbEntity
  8
Sc.1_5
 62
     7
  6
CONTINUOUS
100
AcDbLine
 10
1866.45802479
 20
-934.77654213
 30
0.0
 11
1866.45802479
 21
-1009.77446941
 31
0.0
  0
LINE
  5
47E
100
AcDbEntity
  8
Sc.1_5
 62
     7
  6
CONTINUOUS
100
AcDbLine
 10
1870.25802479
 20
-1009.77446941
 30
0.0
 11
1870.25802479
 21
-933.7583352
 31
0.0
  0
LINE
  5
47F
100
AcDbEntity
  8
Sc.1_5
 62
     7
  6
CONTINUOUS
100
AcDbLine
 10
1868.35802479
 20
-819.77446941
 30
0.0
 11
1868.35802479
 21
-931.81322281
 31
0.0
  0
LINE
  5
480
100
AcDbEntity
  8
Sc.1_5
 62
     7
  6
CONTINUOUS
100
AcDbLine
 10
1868.35802479
 20
-934.26743867
 30
0.0
 11
1868.35802479
 21
-1009.77446941
 31
0.0
  0
LINE
  5
481
100
AcDbEntity
  8
Sc.1_5
 62
     7
  6
CONTINUOUS
100
AcDbLine
 10
1865.95802479
 20
-934.52685324
 30
0.0
 11
1875.18302478
 21
-932.05502194
 31
0.0
  0
LINE
  5
482
100
AcDbEntity
  8
Sc.1_5
 62
     7
  6
CONTINUOUS
100
AcDbLine
 10
1875.18302478
 20
-932.05502194
 30
0.0
 11
1875.18302478
 21
-921.96793845
 31
0.0
  0
LINE
  5
483
100
AcDbEntity
  8
Sc.1_5
 62
     7
  6
CONTINUOUS
100
AcDbLine
 10
1865.95802479
 20
-934.52685324
 30
0.0
 11
1865.95802479
 21
-939.77654213
 31
0.0
  0
LINE
  5
484
100
AcDbEntity
  8
Sc.1_5
 62
     7
  6
CONTINUOUS
100
AcDbLine
 10
1865.95802479
 20
-939.77654213
 30
0.0
 11
1865.56135401
 21
-940.46359607
 31
0.0
  0
LINE
  5
485
100
AcDbEntity
  8
Sc.1_5
 62
     7
  6
CONTINUOUS
100
AcDbLine
 10
1865.56135401
 20
-940.46359607
 30
0.0
 11
1865.95802479
 21
-940.86026685
 31
0.0
  0
LINE
  5
486
100
AcDbEntity
  8
Sc.1_5
 62
     7
  6
CONTINUOUS
100
AcDbLine
 10
1877.8002865
 20
-896.44987848
 30
0.0
 11
1877.80028689
 21
-905.44987861
 31
0.0
  0
LINE
  5
487
100
AcDbEntity
  8
Sc.1_5
 62
     7
  6
CONTINUOUS
100
AcDbLine
 10
1905.80028692
 20
-896.44987725
 30
0.0
 11
1877.8002865
 21
-896.44987848
 31
0.0
  0
LINE
  5
488
100
AcDbEntity
  8
Sc.1_5
 62
     7
  6
CONTINUOUS
100
AcDbLine
 10
1905.80028731
 20
-905.44987739
 30
0.0
 11
1905.80028692
 21
-896.44987725
 31
0.0
  0
LINE
  5
489
100
AcDbEntity
  8
Sc.1_5
 62
     9
  6
CONTINUOUS
100
AcDbLine
 10
1905.80028692
 20
-896.44987725
 30
0.0
 11
1877.80028689
 21
-905.44987861
 31
0.0
  0
LINE
  5
48A
100
AcDbEntity
  8
Sc.1_5
 62
     7
  6
CONTINUOUS
100
AcDbLine
 10
1877.80028689
 20
-905.44987861
 30
0.0
 11
1905.80028731
 21
-905.44987739
 31
0.0
  0
LINE
  5
48B
100
AcDbEntity
  8
Sc.1_5
 62
     7
  6
CONTINUOUS
100
AcDbLine
 10
1877.8002865
 20
-944.34987861
 30
0.0
 11
1877.80028689
 21
-953.34987875
 31
0.0
  0
LINE
  5
48C
100
AcDbEntity
  8
Sc.1_5
 62
     7
  6
CONTINUOUS
100
AcDbLine
 10
1905.80028692
 20
-944.34987739
 30
0.0
 11
1877.8002865
 21
-944.34987861
 31
0.0
  0
LINE
  5
48D
100
AcDbEntity
  8
Sc.1_5
 62
     7
  6
CONTINUOUS
100
AcDbLine
 10
1905.80028731
 20
-953.34987752
 30
0.0
 11
1905.80028692
 21
-944.34987739
 31
0.0
  0
LINE
  5
48E
100
AcDbEntity
  8
Sc.1_5
 62
     9
  6
CONTINUOUS
100
AcDbLine
 10
1905.80028692
 20
-944.34987739
 30
0.0
 11
1877.80028689
 21
-953.34987875
 31
0.0
  0
LINE
  5
48F
100
AcDbEntity
  8
Sc.1_5
 62
     7
  6
CONTINUOUS
100
AcDbLine
 10
1877.80028689
 20
-953.34987875
 30
0.0
 11
1905.80028731
 21
-953.34987752
 31
0.0
  0
LINE
  5
490
100
AcDbEntity
  8
Sc.1_5
 62
     7
  6
CONTINUOUS
100
AcDbLine
 10
1884.35038693
 20
-819.77446941
 30
0.0
 11
1886.85038696
 21
-814.77446934
 31
0.0
  0
LINE
  5
491
100
AcDbEntity
  8
Sc.1_5
 62
     7
  6
CONTINUOUS
100
AcDbLine
 10
1886.85038696
 20
-814.77446934
 30
0.0
 11
1891.85038704
 21
-824.77446949
 31
0.0
  0
LINE
  5
492
100
AcDbEntity
  8
Sc.1_5
 62
     7
  6
CONTINUOUS
100
AcDbLine
 10
1891.85038704
 20
-824.77446949
 30
0.0
 11
1894.35038707
 21
-819.77446941
 31
0.0
  0
LINE
  5
493
100
AcDbEntity
  8
Sc.1_5
 62
     7
  6
CONTINUOUS
100
AcDbLine
 10
1894.35038707
 20
-819.77446941
 30
0.0
 11
1912.63305445
 21
-819.77446941
 31
0.0
  0
LINE
  5
494
100
AcDbEntity
  8
Sc.1_5
 62
     7
  6
CONTINUOUS
100
AcDbLine
 10
1862.88335976
 20
-819.77446941
 30
0.0
 11
1884.35038693
 21
-819.77446941
 31
0.0
  0
LINE
  5
495
100
AcDbEntity
  8
Sc.1_5
 62
     7
  6
CONTINUOUS
100
AcDbLine
 10
1891.35038707
 20
-1009.77446898
 30
0.0
 11
1888.85038747
 21
-1014.77446927
 31
0.0
  0
LINE
  5
496
100
AcDbEntity
  8
Sc.1_5
 62
     7
  6
CONTINUOUS
100
AcDbLine
 10
1888.85038747
 20
-1014.77446927
 30
0.0
 11
1883.85038653
 21
-1004.77446956
 31
0.0
  0
LINE
  5
497
100
AcDbEntity
  8
Sc.1_5
 62
     7
  6
CONTINUOUS
100
AcDbLine
 10
1883.85038653
 20
-1004.77446956
 30
0.0
 11
1881.35038693
 21
-1009.77446985
 31
0.0
  0
LINE
  5
498
100
AcDbEntity
  8
Sc.1_5
 62
     7
  6
CONTINUOUS
100
AcDbLine
 10
1881.35038693
 20
-1009.77446985
 30
0.0
 11
1861.45815097
 21
-1009.77447159
 31
0.0
  0
LINE
  5
499
100
AcDbEntity
  8
Sc.1_5
 62
     7
  6
CONTINUOUS
100
AcDbLine
 10
1912.60620395
 20
-1009.77446712
 30
0.0
 11
1891.35038707
 21
-1009.77446898
 31
0.0
  0
LWPOLYLINE
  5
49A
102
{ACAD_REACTORS
330
49B
102
}
100
AcDbEntity
  8
Sc.1_5
 62
     7
  6
CONTINUOUS
100
AcDbPolyline
 90
        4
 70
     1
 43
0.0
 10
1877.300387
 20
-1009.77446941
 10
1877.300387
 20
-819.77446941
 10
1875.500387
 20
-819.77446941
 10
1875.500387
 20
-1009.77446941
  0
HATCH
  5
49B
100
AcDbEntity
  8
Sc.1_5
 62
     9
  6
CONTINUOUS
100
AcDbHatch
 10
0.0
 20
0.0
 30
0.0
210
0.0
220
0.0
230
1.0
  2
ANSI31
 70
     0
 71
     1
 91
        1
 92
        7
 72
     0
 73
     1
 93
        4
 10
1877.300387
 20
-1009.77446941
 10
1877.300387
 20
-819.77446941
 10
1875.500387
 20
-819.77446941
 10
1875.500387
 20
-1009.77446941
 97
        1
330
49A
 75
     0
 76
     2
 52
0.0
 41
0.3149626
 77
     0
 78
     1
 53
45.0
 43
0.0
 44
0.0
 45
0.70710678
 46
-0.70710678
 79
     0
 47
0.775229
 98
        1
 10
0.0
 20
0.0
  0
LWPOLYLINE
  5
49C
102
{ACAD_REACTORS
330
49D
102
}
100
AcDbEntity
  8
Sc.1_5
 62
     7
  6
CONTINUOUS
100
AcDbPolyline
 90
        4
 70
     1
 43
0.0
 10
1906.30028731
 20
-819.77446941
 10
1906.30028731
 20
-904.94987739
 10
1908.10028731
 20
-904.94987739
 10
1908.10028731
 20
-819.77446941
  0
HATCH
  5
49D
100
AcDbEntity
  8
Sc.1_5
 62
     9
  6
CONTINUOUS
100
AcDbHatch
 10
0.0
 20
0.0
 30
0.0
210
0.0
220
0.0
230
1.0
  2
CDWK12A
 70
     0
 71
     1
 91
        1
 92
        7
 72
     0
 73
     1
 93
        4
 10
1906.30028731
 20
-819.77446941
 10
1906.30028731
 20
-904.94987739
 10
1908.10028731
 20
-904.94987739
 10
1908.10028731
 20
-819.77446941
 97
        1
330
49C
 75
     0
 76
     2
 52
0.0
 41
1.0
 77
     0
 78
    15
 53
0.0
 43
0.0
 44
0.0
 45
2.70000005
 46
4.9000001
 79
     2
 49
0.0
 49
-3.70000005
 53
0.0
 43
0.0
 44
0.0
 45
4.4000001
 46
4.80000019
 79
     2
 49
0.0
 49
-5.4000001
 53
0.0
 43
0.0
 44
0.0
 45
1.39999998
 46
4.5999999
 79
     2
 49
0.0
 49
-2.4000001
 53
0.0
 43
0.0
 44
0.0
 45
2.20000005
 46
4.19999981
 79
     2
 49
0.0
 49
-3.20000005
 53
0.0
 43
0.0
 44
0.0
 45
3.79999995
 46
4.0
 79
     2
 49
0.0
 49
-4.80000019
 53
0.0
 43
0.0
 44
0.0
 45
1.20000005
 46
3.79999995
 79
     2
 49
0.0
 49
-2.20000005
 53
0.0
 43
0.0
 44
0.0
 45
2.9000001
 46
3.5
 79
     2
 49
0.0
 49
-3.9000001
 53
0.0
 43
0.0
 44
0.0
 45
4.5999999
 46
3.4000001
 79
     2
 49
0.0
 49
-5.5999999
 53
0.0
 43
0.0
 44
0.0
 45
1.89999998
 46
2.9000001
 79
     2
 49
0.0
 49
-2.9000001
 53
0.0
 43
0.0
 44
0.0
 45
3.20000005
 46
2.79999995
 79
     2
 49
0.0
 49
-4.19999981
 53
0.0
 43
0.0
 44
0.0
 45
3.9000001
 46
2.4000001
 79
     2
 49
0.0
 49
-4.9000001
 53
0.0
 43
0.0
 44
0.0
 45
2.4000001
 46
2.0999999
 79
     2
 49
0.0
 49
-3.4000001
 53
0.0
 43
0.0
 44
0.0
 45
4.9000001
 46
2.0999999
 79
     2
 49
0.0
 49
-5.9000001
 53
0.0
 43
0.0
 44
0.0
 45
3.5999999
 46
1.5
 79
     2
 49
0.0
 49
-4.5999999
 53
0.0
 43
0.0
 44
0.0
 45
1.60000002
 46
1.39999998
 79
     2
 49
0.0
 49
-2.5999999
 47
0.775229
 98
        1
 10
0.0
 20
0.0
  0
LWPOLYLINE
  5
49E
102
{ACAD_REACTORS
330
49F
102
}
100
AcDbEntity
  8
Sc.1_5
 62
     7
  6
CONTINUOUS
100
AcDbPolyline
 90
        4
 70
     1
 43
0.0
 10
1908.10028731
 20
-1009.77446941
 10
1908.10028731
 20
-944.34987739
 10
1906.30028731
 20
-944.34987739
 10
1906.30028731
 20
-1009.77446941
  0
HATCH
  5
49F
100
AcDbEntity
  8
Sc.1_5
 62
     9
  6
CONTINUOUS
100
AcDbHatch
 10
0.0
 20
0.0
 30
0.0
210
0.0
220
0.0
230
1.0
  2
CDWK12A
 70
     0
 71
     1
 91
        1
 92
        7
 72
     0
 73
     1
 93
        4
 10
1908.10028731
 20
-1009.77446941
 10
1908.10028731
 20
-944.34987739
 10
1906.30028731
 20
-944.34987739
 10
1906.30028731
 20
-1009.77446941
 97
        1
330
49E
 75
     0
 76
     2
 52
0.0
 41
1.0
 77
     0
 78
    15
 53
0.0
 43
0.0
 44
0.0
 45
2.70000005
 46
4.9000001
 79
     2
 49
0.0
 49
-3.70000005
 53
0.0
 43
0.0
 44
0.0
 45
4.4000001
 46
4.80000019
 79
     2
 49
0.0
 49
-5.4000001
 53
0.0
 43
0.0
 44
0.0
 45
1.39999998
 46
4.5999999
 79
     2
 49
0.0
 49
-2.4000001
 53
0.0
 43
0.0
 44
0.0
 45
2.20000005
 46
4.19999981
 79
     2
 49
0.0
 49
-3.20000005
 53
0.0
 43
0.0
 44
0.0
 45
3.79999995
 46
4.0
 79
     2
 49
0.0
 49
-4.80000019
 53
0.0
 43
0.0
 44
0.0
 45
1.20000005
 46
3.79999995
 79
     2
 49
0.0
 49
-2.20000005
 53
0.0
 43
0.0
 44
0.0
 45
2.9000001
 46
3.5
 79
     2
 49
0.0
 49
-3.9000001
 53
0.0
 43
0.0
 44
0.0
 45
4.5999999
 46
3.4000001
 79
     2
 49
0.0
 49
-5.5999999
 53
0.0
 43
0.0
 44
0.0
 45
1.89999998
 46
2.9000001
 79
     2
 49
0.0
 49
-2.9000001
 53
0.0
 43
0.0
 44
0.0
 45
3.20000005
 46
2.79999995
 79
     2
 49
0.0
 49
-4.19999981
 53
0.0
 43
0.0
 44
0.0
 45
3.9000001
 46
2.4000001
 79
     2
 49
0.0
 49
-4.9000001
 53
0.0
 43
0.0
 44
0.0
 45
2.4000001
 46
2.0999999
 79
     2
 49
0.0
 49
-3.4000001
 53
0.0
 43
0.0
 44
0.0
 45
4.9000001
 46
2.0999999
 79
     2
 49
0.0
 49
-5.9000001
 53
0.0
 43
0.0
 44
0.0
 45
3.5999999
 46
1.5
 79
     2
 49
0.0
 49
-4.5999999
 53
0.0
 43
0.0
 44
0.0
 45
1.60000002
 46
1.39999998
 79
     2
 49
0.0
 49
-2.5999999
 47
0.775229
 98
        1
 10
0.0
 20
0.0
  0
LWPOLYLINE
  5
4A0
100
AcDbEntity
  8
Sc.1_1
 62
     7
  6
DASHDOT
370
     5
100
AcDbPolyline
 90
        4
 70
     1
 43
0.0
 10
1846.28363772
 20
-1064.11666848
 10
1878.18670983
 20
-1064.11666848
 10
1878.18670983
 20
-1048.11966148
 10
1846.28363772
 20
-1048.11966148
  0
LWPOLYLINE
  5
4A1
100
AcDbEntity
  8
LEGEND
 62
     5
  6
CONTINUOUS
370
    -3
100
AcDbPolyline
 90
        4
 70
     1
 43
0.0
 10
1877.86893419
 20
-1064.75031721
 10
1935.68428843
 20
-1064.75031721
 10
1935.68428843
 20
-1047.48795572
 10
1877.86893419
 20
-1047.48795572
  0
LWPOLYLINE
  5
4A2
100
AcDbEntity
  8
LEGEND
 62
     5
  6
CONTINUOUS
370
    -3
100
AcDbPolyline
 90
        4
 70
     1
 43
0.0
 10
1935.68428843
 20
-1064.75031721
 10
2009.07643998
 20
-1064.75031721
 10
2009.07643998
 20
-1047.48795572
 10
1935.68428843
 20
-1047.48795572
  0
LWPOLYLINE
  5
4A3
100
AcDbEntity
  8
LEGEND
 62
     5
  6
CONTINUOUS
370
    -3
100
AcDbPolyline
 90
        4
 70
     1
 43
0.0
 10
2009.07643998
 20
-1064.75031721
 10
2043.60043911
 20
-1064.75031721
 10
2043.60043911
 20
-1056.11913647
 10
2009.07643998
 20
-1056.11913647
  0
LWPOLYLINE
  5
4A4
100
AcDbEntity
  8
LEGEND
 62
     5
  6
CONTINUOUS
370
    -3
100
AcDbPolyline
 90
        4
 70
     1
 43
0.0
 10
2009.07643998
 20
-1056.11913647
 10
2023.98468865
 20
-1056.11913647
 10
2023.98468865
 20
-1047.48795572
 10
2009.07643998
 20
-1047.48795572
  0
LWPOLYLINE
  5
4A5
100
AcDbEntity
  8
LEGEND
 62
     5
  6
CONTINUOUS
370
    -3
100
AcDbPolyline
 90
        4
 70
     1
 43
0.0
 10
1846.60043911
 20
-1064.75031721
 10
2043.60043911
 20
-1064.75031721
 10
2043.60043911
 20
-793.75031721
 10
1846.60043911
 20
-793.75031721
  0
LWPOLYLINE
  5
4A6
100
AcDbEntity
  8
LEGEND
 62
     5
  6
CONTINUOUS
370
    -3
100
AcDbPolyline
 90
        4
 70
     1
 43
0.0
 10
2023.98468865
 20
-1056.11913647
 10
2043.60043911
 20
-1056.11913647
 10
2043.60043911
 20
-1047.48795572
 10
2023.98468865
 20
-1047.48795572
  0
LWPOLYLINE
  5
4A7
100
AcDbEntity
  8
LEGEND
 62
     5
  6
CONTINUOUS
370
    -3
100
AcDbPolyline
 90
        4
 70
     1
 43
0.0
 10
1846.60043911
 20
-1064.75031721
 10
1877.86893419
 20
-1064.75031721
 10
1877.86893419
 20
-1047.48795572
 10
1846.60043911
 20
-1047.48795572
  0
3DFACE
  5
4A8
100
AcDbEntity
  8
Sc.1_5
 62
     7
  6
CONTINUOUS
370
    20
100
AcDbFace
 70
     0
 10
1906.30028731
 20
-934.54987739
 30
548.63999023
 11
1920.30028752
 21
-934.54987722
 31
548.63999023
 12
1920.3002876
 22
-941.54987733
 32
548.63999023
 13
1906.30028739
 23
-941.54987749
 33
548.63999023
  0
INSERT
  5
4A9
100
AcDbEntity
  8
Sc.1_5
 62
     0
370
    20
100
AcDbBlockReference
  2
*X2011
 10
0.0
 20
0.0
 30
0.0
  0
3DFACE
  5
4AA
100
AcDbEntity
  8
Sc.1_5
 62
     9
  6
CONTINUOUS
370
    20
100
AcDbFace
 70
     0
 10
1877.800387
 20
-914.92029828
 30
548.63999023
 11
1880.80038704
 21
-914.92029828
 31
548.63999023
 12
1880.80038704
 22
-924.99194828
 32
548.63999023
 13
1877.800387
 23
-924.99194828
 33
548.63999023
  0
3DFACE
  5
4AB
100
AcDbEntity
  8
Sc.1_5
 62
     7
  6
CONTINUOUS
370
    20
100
AcDbFace
 70
     0
 10
1905.80025942
 20
-934.04987739
 30
548.63999023
 11
1896.80025928
 21
-934.04987739
 31
548.63999023
 12
1896.80025928
 22
-906.04987697
 32
548.63999023
 13
1905.80025942
 23
-906.04987697
 33
548.63999023
  0
INSERT
  5
4AC
100
AcDbEntity
  8
Sc.1_5
 62
     0
370
    20
100
AcDbBlockReference
  2
*X2037
 10
0.0
 20
0.0
 30
0.0
  0
3DFACE
  5
4AD
100
AcDbEntity
  8
Sc.1_5
 62
     7
  6
CONTINUOUS
370
    20
100
AcDbFace
 70
     0
 10
1877.8002865
 20
-896.44987739
 30
914.4
 11
1877.800387
 21
-819.77446941
 31
914.4
 12
1905.80028731
 22
-819.77446941
 32
914.4
 13
1905.80028731
 23
-896.44987739
 33
914.4
  0
INSERT
  5
4AE
100
AcDbEntity
  8
Sc.1_5
 62
     0
370
    20
100
AcDbBlockReference
  2
*X2040
 10
0.0
 20
0.0
 30
0.0
  0
LINE
  5
4AF
100
AcDbEntity
  8
Sc.1_5
 62
     7
  6
CONTINUOUS
 48
0.5
370
    -3
100
AcDbLine
 10
1951.09650556
 20
-845.12780413
 30
500.0
 11
1909.17193983
 21
-845.12780413
 31
500.0
  0
INSERT
  5
4B0
100
AcDbEntity
  8
Sc.1_5
 62
     7
  6
CONTINUOUS
370
    -3
100
AcDbBlockReference
  2
CDWK_EXTR_2
 10
1909.17193983
 20
-845.12780413
 30
500.0
 41
1.0
 42
1.0
 43
1.0
  0
3DFACE
  5
4B1
100
AcDbEntity
  8
Sc.1_5
 62
     7
  6
CONTINUOUS
370
    20
100
AcDbFace
 70
     0
 10
1905.80028731
 20
-953.34987752
 30
914.4
 11
1905.80028731
 21
-1009.77446941
 31
914.4
 12
1877.800387
 22
-1009.77446941
 32
914.4
 13
1877.80028689
 23
-953.34987875
 33
914.4
  0
INSERT
  5
4B2
100
AcDbEntity
  8
Sc.1_5
 62
     0
370
    20
100
AcDbBlockReference
  2
*X2041
 10
0.0
 20
0.0
 30
0.0
  0
LWPOLYLINE
  5
4B3
100
AcDbEntity
  8
Sc.1_5
 62
     9
  6
CONTINUOUS
370
    20
100
AcDbPolyline
 90
        6
 70
     1
 43
0.0
 38
548.63999023
 39
-548.63999023
 10
1920.33103283
 20
-919.42630253
 10
1921.33103283
 20
-919.16127549
 10
1921.69710854
 20
-919.22883873
 10
1921.33103283
 20
-919.43541891
 10
1920.33103283
 20
-919.63119239
 10
1919.96910847
 20
-919.6342528
  0
LWPOLYLINE
  5
4B4
100
AcDbEntity
  8
Sc.1_5
 62
     9
  6
CONTINUOUS
370
    20
100
AcDbPolyline
 90
        6
 70
     1
 43
0.0
 38
548.63999023
 39
-548.63999023
 10
1921.52396259
 20
-918.28286681
 10
1921.20402497
 20
-918.22589738
 10
1920.44128909
 20
-918.40023701
 10
1920.14225443
 20
-918.55322357
 10
1920.41676254
 20
-918.55322357
 10
1921.24945447
 20
-918.4179587
  0
LINE
  5
4B5
100
AcDbEntity
  8
Sc.1_5
 62
     9
  6
CONTINUOUS
370
    20
100
AcDbLine
 10
1919.96910847
 20
-919.6342528
 30
548.63999023
 11
1921.69710854
 21
-919.22883873
 31
548.63999023
  0
LINE
  5
4B6
100
AcDbEntity
  8
Sc.1_5
 62
     9
  6
CONTINUOUS
370
    20
100
AcDbLine
 10
1920.14225443
 20
-918.55322357
 30
548.63999023
 11
1921.52396259
 21
-918.28286681
 31
548.63999023
  0
3DFACE
  5
4B7
100
AcDbEntity
  8
Sc.1_5
 62
     9
  6
CONTINUOUS
370
    20
100
AcDbFace
 70
     0
 10
1879.80038703
 20
-915.32029828
 30
548.63999023
 11
1879.80038703
 21
-924.59194828
 31
548.63999023
 12
1880.80038704
 22
-924.59194828
 32
548.63999023
 13
1880.80038704
 23
-915.32029828
 33
548.63999023
  0
3DFACE
  5
4B8
100
AcDbEntity
  8
Sc.1_5
 62
     9
  6
CONTINUOUS
370
    20
100
AcDbFace
 70
     0
 10
1877.800387
 20
-917.9915104
 30
548.63999023
 11
1877.800387
 21
-921.99151046
 31
548.63999023
 12
1879.80038703
 22
-921.99151046
 32
548.63999023
 13
1879.80038703
 23
-917.9915104
 33
548.63999023
  0
3DFACE
  5
4B9
100
AcDbEntity
  8
Sc.1_5
 62
     9
  6
CONTINUOUS
370
    20
100
AcDbFace
 70
     0
 10
1909.88780971
 20
-918.84987716
 30
548.63999023
 11
1910.88780971
 21
-918.84987716
 31
548.63999023
 12
1910.88780971
 22
-921.2498772
 32
548.63999023
 13
1909.88780971
 23
-921.2498772
 33
548.63999023
  0
LINE
  5
4BA
100
AcDbEntity
  8
Sc.1_5
 62
     9
  6
CONTINUOUS
 48
0.25
370
    20
100
AcDbLine
 10
1877.800387
 20
-921.04136313
 30
548.63999023
 11
1879.80038703
 21
-921.04136313
 31
548.63999023
  0
LINE
  5
4BB
100
AcDbEntity
  8
Sc.1_5
 62
     9
  6
CONTINUOUS
 48
0.25
370
    20
100
AcDbLine
 10
1877.800387
 20
-918.97467767
 30
548.63999023
 11
1879.80038703
 21
-918.97467767
 31
548.63999023
  0
LINE
  5
4BC
100
AcDbEntity
  8
Sc.1_5
 62
     9
  6
CONTINUOUS
 48
0.25
370
    20
100
AcDbLine
 10
1910.8878097
 20
-921.2498772
 30
548.63999023
 11
1910.33372603
 21
-918.84987716
 31
548.63999023
  0
3DFACE
  5
4BD
100
AcDbEntity
  8
Sc.1_5
 62
     9
  6
CONTINUOUS
370
    20
100
AcDbFace
 70
     0
 10
1909.88780971
 20
-917.9915104
 30
548.63999023
 11
1909.88780971
 21
-921.99151046
 31
548.63999023
 12
1907.88780968
 22
-921.99151046
 32
548.63999023
 13
1907.88780968
 23
-917.9915104
 33
548.63999023
  0
LINE
  5
4BE
100
AcDbEntity
  8
Sc.1_5
 62
     9
  6
CONTINUOUS
 48
0.25
370
    20
100
AcDbLine
 10
1909.88780971
 20
-921.04136313
 30
548.63999023
 11
1907.88780968
 21
-921.04136313
 31
548.63999023
  0
LINE
  5
4BF
100
AcDbEntity
  8
Sc.1_5
 62
     9
  6
CONTINUOUS
 48
0.25
370
    20
100
AcDbLine
 10
1909.88780971
 20
-918.97467767
 30
548.63999023
 11
1907.88780968
 21
-918.97467767
 31
548.63999023
  0
LINE
  5
4C0
100
AcDbEntity
  8
Sc.1_5
 62
     9
  6
CONTINUOUS
 48
0.25
370
    20
100
AcDbLine
 10
1910.41160969
 20
-921.2498772
 30
548.63999023
 11
1909.88780971
 21
-918.98105024
 31
548.63999023
  0
3DFACE
  5
4C1
100
AcDbEntity
  8
Sc.1_5
 62
     9
  6
CONTINUOUS
370
    20
100
AcDbFace
 70
     0
 10
1880.80038704
 20
-921.2498772
 30
548.63999023
 11
1907.88780968
 21
-921.2498772
 31
548.63999023
 12
1907.88780968
 22
-918.84987716
 32
548.63999023
 13
1880.80038704
 23
-918.84987716
 33
548.63999023
  0
TEXT
  5
4C2
100
AcDbEntity
  8
Sc.1_5
 62
     7
370
    35
100
AcDbText
 10
1952.25271943
 20
-894.99120767
 30
0.0
 40
2.5
  1
Woodspan PLT floor panel
  7
TAHOMA
 50
0.0
 41
0.8
 51
0.0
100
AcDbText
  0
TEXT
  5
4C3
100
AcDbEntity
  8
Sc.1_5
 62
     7
370
    18
100
AcDbText
 10
1952.25271943
 20
-898.49120767
 30
0.0
 40
2.5
  1
fixings as per engineer's details
  7
TAHOMA
 50
0.0
 41
0.8
 51
0.0
100
AcDbText
  0
TEXT
  5
4C4
100
AcDbEntity
  8
Sc.1_5
 62
     7
370
    18
100
AcDbText
 10
1952.25271943
 20
-954.32993108
 30
0.0
 40
2.5
  1
Ceiling, depending on aesthetic and
  7
TAHOMA
 50
0.0
 41
0.8
 51
0.0
100
AcDbText
  0
TEXT
  5
4C5
100
AcDbEntity
  8
Sc.1_5
 62
     7
370
    18
100
AcDbText
 10
1952.25271943
 20
-969.19132178
 30
0.0
 40
2.5
  1
Steel angle fixed to ribbon or studs,
  7
TAHOMA
 50
0.0
 41
0.8
 51
0.0
100
AcDbText
  0
TEXT
  5
4C6
100
AcDbEntity
  8
Sc.1_5
 62
     7
370
    18
100
AcDbText
 10
1952.25271943
 20
-957.82993108
 30
0.0
 40
2.5
  1
acoustic requirements
  7
TAHOMA
 50
0.0
 41
0.8
 51
0.0
100
AcDbText
  0
TEXT
  5
4C7
100
AcDbEntity
  8
Sc.1_5
 62
     7
370
    18
100
AcDbText
 10
1952.25271943
 20
-972.69132178
 30
0.0
 40
2.5
  1
size and fixings by engineer
  7
TAHOMA
 50
0.0
 41
0.8
 51
0.0
100
AcDbText
  0
TEXT
  5
4C8
100
AcDbEntity
  8
Sc.1_5
 62
     7
370
    18
100
AcDbText
 10
1952.25271943
 20
-845.64291031
 30
0.0
 40
2.5
  1
Stud frame wall to NZS3604:2011
  7
TAHOMA
 50
0.0
 41
0.8
 51
0.0
100
AcDbText
  0
TEXT
  5
4C9
100
AcDbEntity
  8
Sc.1_5
 62
     7
370
    18
100
AcDbText
 10
1952.25271943
 20
-849.14291031
 30
0.0
 40
2.5
  1
Balloon framing, studs continuous
  7
TAHOMA
 50
0.0
 41
0.8
 51
0.0
100
AcDbText
  0
TEXT
  5
4CA
100
AcDbEntity
  8
LEGEND
 62
     7
370
    -3
100
AcDbText
 10
2024.98468865
 20
-1050.08795572
 30
0.0
 40
1.60000002
  1
Date
  7
TAHOMA
 50
0.0
 41
1.0
 51
0.0
100
AcDbText
  0
TEXT
  5
4CB
100
AcDbEntity
  8
LEGEND
 62
     7
370
    -3
100
AcDbText
 10
2010.07643998
 20
-1058.71913647
 30
0.0
 40
1.60000002
  1
Detail
  7
TAHOMA
 50
0.0
 41
1.0
 51
0.0
100
AcDbText
  0
TEXT
  5
4CC
100
AcDbEntity
  8
LEGEND
 62
     7
370
    18
100
AcDbText
 10
2013.50405522
 20
-1054.52910833
 30
0.0
 40
2.79999995
  1
1.0
  7
TAHOMA
 50
0.0
 41
1.0
 51
0.0
100
AcDbText
  0
TEXT
  5
4CD
100
AcDbEntity
  8
LEGEND
 62
     7
370
    -3
100
AcDbText
 10
2010.07643998
 20
-1050.08795572
 30
0.0
 40
1.60000002
  1
Version
  7
TAHOMA
 50
0.0
 41
1.0
 51
0.0
100
AcDbText
  0
TEXT
  5
4CE
100
AcDbEntity
  8
LEGEND
 62
     7
370
    -3
100
AcDbText
 10
1879.13564867
 20
-1050.08795572
 30
0.0
 40
1.60000002
  1
Phone:
  7
TAHOMA
 50
0.0
 41
1.0
 51
0.0
100
AcDbText
  0
TEXT
  5
4CF
100
AcDbEntity
  8
LEGEND
 62
     7
370
    -3
100
AcDbText
 10
1879.13564867
 20
-1054.20874289
 30
0.0
 40
1.60000002
  1
Email:
  7
TAHOMA
 50
0.0
 41
1.0
 51
0.0
100
AcDbText
  0
TEXT
  5
4D0
100
AcDbEntity
  8
LEGEND
 62
     7
370
    -3
100
AcDbText
 10
1879.13564867
 20
-1058.32953005
 30
0.0
 40
1.60000002
  1
Web:
  7
TAHOMA
 50
0.0
 41
1.0
 51
0.0
100
AcDbText
  0
TEXT
  5
4D1
100
AcDbEntity
  8
LEGEND
 62
     7
370
    18
100
AcDbText
 10
1889.03762964
 20
-1050.88795572
 30
0.0
 40
2.4000001
  1
06 755 9000
  7
TAHOMA
 50
0.0
 41
1.0
 51
0.0
100
AcDbText
  0
TEXT
  5
4D2
100
AcDbEntity
  8
LEGEND
 62
     7
370
    18
100
AcDbText
 10
1889.03762964
 20
-1055.00874289
 30
0.0
 40
2.4000001
  1
info@woodspan.co.nz
  7
TAHOMA
 50
0.0
 41
1.0
 51
0.0
100
AcDbText
  0
TEXT
  5
4D3
100
AcDbEntity
  8
LEGEND
 62
     7
370
    18
100
AcDbText
 10
1889.03762964
 20
-1059.12953005
 30
0.0
 40
2.4000001
  1
www.woodspan.co.nz
  7
TAHOMA
 50
0.0
 41
1.0
 51
0.0
100
AcDbText
  0
TEXT
  5
4D4
100
AcDbEntity
  8
LEGEND
 62
     7
370
    18
100
AcDbText
 10
1879.08801439
 20
-1063.25031721
 30
0.0
 40
2.4000001
  1
Connett Road, Bell Block, New Plymouth
  7
TAHOMA
 50
0.0
 41
1.0
 51
0.0
100
AcDbText
  0
TEXT
  5
4D5
100
AcDbEntity
  8
LEGEND
 62
     7
370
    18
100
AcDbText
 10
2026.07033813
 20
-1054.32910833
 30
0.0
 40
2.4000001
  1
11.07.2019
  7
TAHOMA
 50
0.0
 41
1.0
 51
0.0
100
AcDbText
  0
TEXT
  5
4D6
100
AcDbEntity
  8
LEGEND
 62
     7
370
    18
100
AcDbText
 10
2018.10371635
 20
-1062.26246302
 30
0.0
 40
4.0
  1

  7
TAHOMA
 50
0.0
 41
0.95
 51
0.0
100
AcDbText
  0
TEXT
  5
4D7
100
AcDbEntity
  8
LEGEND
 62
     7
370
    18
100
AcDbText
 10
2018.86941958
 20
-1062.58554495
 30
0.0
 40
4.0
  1
PLT 2.2
  7
TAHOMA
 50
0.0
 41
0.95
 51
0.0
100
AcDbText
  0
TEXT
  5
4D8
100
AcDbEntity
  8
LEGEND
 62
     7
370
    18
100
AcDbText
 10
1938.07951321
 20
-1054.66228266
 30
0.0
 40
4.0
  1
PLT mid floor
  7
TAHOMA
 50
0.0
 41
0.95
 51
0.0
100
AcDbText
  0
TEXT
  5
4D9
100
AcDbEntity
  8
LEGEND
 62
     7
370
    18
100
AcDbText
 10
1938.07951321
 20
-1061.42145705
 30
0.0
 40
4.0
  1
Balloon Framing - Option 2
  7
TAHOMA
 50
0.0
 41
0.95
 51
0.0
100
AcDbText
  0
TEXT
  5
4DA
100
AcDbEntity
  8
LEGEND
 62
     7
370
    18
100
AcDbText
 10
1930.71087364
 20
-1045.12756884
 30
0.0
 40
2.4000001
  1
Indicative details only
  7
TAHOMA
 50
0.0
 41
1.0
 51
0.0
100
AcDbText
  0
ENDSEC
  0
SECTION
  2
OBJECTS
  0
DICTIONARY
  5
1
100
AcDbDictionary
  3
ACAD_GROUP
350
2
  3
ACAD_MLINESTYLE
350
3
  0
DICTIONARY
  5
2
102
{CDWK_REACTORS
330
1
102
}
100
AcDbDictionary
  0
DICTIONARY
  5
3
102
{CDWK_REACTORS
330
1
102
}
100
AcDbDictionary
  3
STANDARD
350
4
  0
MLINESTYLE
  5
4
102
{CDWK_REACTORS
330
3
102
}
100
AcDbMlineStyle
  2
STANDARD
 70
     0
  3

 62
     0
 51
90.0
 52
90.0
 71
     2
 49
0.5
 62
   256
  6
BYLAYER
 49
-0.5
 62
   256
  6
BYLAYER
  0
ENDSEC
  0
EOF
