  0
SECTION
  2
HEADER
  9
$ACADVER
  1
AC1014
  9
$DWGCODEPAGE
  3
ANSI_1252
  9
$INSBASE
 10
0.0
 20
0.0
 30
0.0
  9
$EXTMIN
 10
2089.18393949
 20
-1064.75031721
  9
$EXTMAX
 10
2286.50074088
 20
-793.75031721
  9
$LIMMIN
 10
2089.18393949
 20
-1064.75031721
  9
$LIMMAX
 10
2286.50074088
 20
-793.75031721
  9
$ORTHOMODE
 70
     0
  9
$REGENMODE
 70
     1
  9
$FILLMODE
 70
     1
  9
$QTEXTMODE
 70
     0
  9
$MIRRTEXT
 70
     1
  9
$DRAGMODE
 70
     2
  9
$LTSCALE
 40
1.0
  9
$OSMODE
 70
     0
  9
$ATTMODE
 70
     1
  9
$TEXTSIZE
 40
3.5
  9
$TRACEWID
 40
1.0
  9
$TEXTSTYLE
  7
STANDARD
  9
$CLAYER
  8
0
  9
$CELTYPE
  6
BYLAYER
  9
$CECOLOR
 62
   256
  9
$DIMSCALE
 40
1.0
  9
$DIMASZ
 40
2.0
  9
$DIMEXO
 40
5.0
  9
$DIMDLI
 40
10.0
  9
$DIMRND
 40
0.0
  9
$DIMDLE
 40
2.0
  9
$DIMEXE
 40
2.0
  9
$DIMTP
 40
0.0
  9
$DIMTM
 40
0.0
  9
$DIMTXT
 40
2.1
  9
$DIMCEN
 40
1.5
  9
$DIMTSZ
 40
0.0
  9
$DIMTOL
 70
     0
  9
$DIMLIM
 70
     0
  9
$DIMTIH
 70
     1
  9
$DIMTOH
 70
     0
  9
$DIMSE1
 70
     0
  9
$DIMSE2
 70
     0
  9
$DIMTAD
 70
     1
  9
$DIMZIN
 70
     8
  9
$DIMBLK
  1

  9
$DIMASO
 70
     1
  9
$DIMSHO
 70
     1
  9
$DIMPOST
  1

  9
$DIMAPOST
  1

  9
$DIMALT
 70
     0
  9
$DIMALTD
 70
     2
  9
$DIMALTF
 40
25.4
  9
$DIMLFAC
 40
1.0
  9
$DIMTOFL
 70
     0
  9
$DIMTVP
 40
0.0
  9
$DIMTIX
 70
     0
  9
$DIMSOXD
 70
     0
  9
$DIMSAH
 70
     0
  9
$DIMBLK1
  1

  9
$DIMBLK2
  1

  9
$DIMSTYLE
  2
*UNNAMED
  9
$DIMCLRD
 70
     5
  9
$DIMCLRE
 70
     5
  9
$DIMCLRT
 70
     5
  9
$DIMTFAC
 40
1.0
  9
$DIMGAP
 40
0.09
  9
$DIMUNIT
 70
     2
  9
$LUNITS
 70
     2
  9
$LUPREC
 70
     6
  9
$AXISMODE
 70
     0
  9
$AXISUNIT
 10
0.0
 20
0.0
  9
$SKETCHINC
 40
0.1
  9
$FILLETRAD
 40
0.0
  9
$AUNITS
 70
     0
  9
$AUPREC
 70
     0
  9
$MENU
  1
ACAD
  9
$ELEVATION
 40
0.0
  9
$PELEVATION
 40
0.0
  9
$THICKNESS
 40
0.0
  9
$LIMCHECK
 70
     0
  9
$BLIPMODE
 70
     1
  9
$CHAMFERA
 40
0.0
  9
$CHAMFERB
 40
0.0
  9
$SKPOLY
 70
     1
  9
$TDCREATE
 40
2458675.0000000000
  9
$TDUPDATE
 40
2458675.0000000000
  9
$TDINDWG
 40
0.0
  9
$TDUSRTIMER
 40
0.0
  9
$USRTIMER
 70
     1
  9
$ANGBASE
 50
0.0
  9
$ANGDIR
 70
     0
  9
$PDMODE
 70
     0
  9
$PDSIZE
 40
0.0
  9
$PLINEWID
 40
0.0
  9
$COORDS
 70
     2
  9
$SPLFRAME
 70
     0
  9
$SPLINETYPE
 70
     6
  9
$SPLINESEGS
 70
     8
  9
$ATTDIA
 70
     1
  9
$ATTREQ
 70
     1
  9
$HANDLING
 70
     1
  9
$HANDSEED
  5
     47C
  9
$SURFTAB1
 70
     6
  9
$SURFTAB2
 70
     6
  9
$SURFTYPE
 70
     6
  9
$SURFU
 70
     6
  9
$SURFV
 70
     6
  9
$UCSNAME
  2

  9
$UCSORG
 10
0.0
 20
0.0
 30
0.0
  9
$UCSXDIR
 10
1.0
 20
0.0
 30
0.0
  9
$UCSYDIR
 10
0.0
 20
1.0
 30
0.0
  9
$PUCSNAME
  2

  9
$PUCSORG
 10
0.0
 20
0.0
 30
0.0
  9
$PUCSXDIR
 10
1.0
 20
0.0
 30
0.0
  9
$PUCSYDIR
 10
0.0
 20
1.0
 30
0.0
  9
$USERI1
 70
     0
  9
$USERI2
 70
     0
  9
$USERI3
 70
     0
  9
$USERI4
 70
     0
  9
$USERI5
 70
     0
  9
$USERR1
 40
0.0
  9
$USERR2
 40
0.0
  9
$USERR3
 40
0.0
  9
$USERR4
 40
0.0
  9
$USERR5
 40
0.0
  9
$WORLDVIEW
 70
     1
  9
$SHADEDGE
 70
     3
  9
$SHADEDIF
 70
    70
  9
$TILEMODE
 70
     1
  9
$MAXACTVP
 70
    16
  9
$PINSBASE
 10
0.0
 20
0.0
 30
0.0
  9
$PLIMCHECK
 70
     0
  9
$PEXTMIN
 10
1.0000000000000E+20
 20
1.0000000000000E+20
 30
1.0000000000000E+20
  9
$PEXTMAX
 10
-1.0000000000000E+20
 20
-1.0000000000000E+20
 30
-1.0000000000000E+20
  9
$PLIMMIN
 10
0.0
 20
0.0
  9
$UNITMODE
 70
     0
  9
$VISRETAIN
 70
     0
  9
$MEASUREMENT
 70
     1
  0
ENDSEC
  0
SECTION
  2
TABLES
  0
TABLE
  2
VPORT
  5
1B2
100
AcDbSymbolTable
 70
     1
  0
ENDTAB
  0
TABLE
  2
STYLE
  5
1B3
100
AcDbSymbolTable
 70
     3
  0
STYLE
  5
1B4
100
AcDbSymbolTableRecord
100
AcDbTextStyleTableRecord
  2
STANDARD
 70
     0
 40
0.0
 41
1.0
 50
0.0
 71
     0
 42
3.5
  3
MONOTXT
  4

  0
STYLE
  5
1B5
100
AcDbSymbolTableRecord
100
AcDbTextStyleTableRecord
  2
SYMAP
 70
     0
 40
0.0
 41
1.0
 50
0.0
 71
     0
 42
3.5
  3
SYMAP
  4

  0
STYLE
  5
1B6
100
AcDbSymbolTableRecord
100
AcDbTextStyleTableRecord
  2
CADWORK1
 70
     0
 40
0.0
 41
1.0
 50
0.0
 71
     0
 42
3.5
  3
MONOTXT
  4

  0
STYLE
  5
1B7
100
AcDbSymbolTableRecord
100
AcDbTextStyleTableRecord
  2
MONOTXT
 70
     0
 40
0.0
 41
1.0
 50
0.0
 71
     0
 42
3.5
  3
MONOTXT
  4

  0
STYLE
  5
1B8
100
AcDbSymbolTableRecord
100
AcDbTextStyleTableRecord
  2
TAHOMA
 70
     0
 40
0.0
 41
1.0
 50
0.0
 71
     0
 42
3.5
  3

  4

1001
ACAD
1000
Tahoma
1071
        0
  0
ENDTAB
  0
TABLE
  2
LTYPE
  5
1B9
100
AcDbSymbolTable
 70
    15
  0
LTYPE
  5
1BA
100
AcDbSymbolTableRecord
100
AcDbLinetypeTableRecord
  2
BYBLOCK
 70
    64
  3

 72
    65
 73
     0
 40
0.0
  0
LTYPE
  5
1BB
100
AcDbSymbolTableRecord
100
AcDbLinetypeTableRecord
  2
BYLAYER
 70
    64
  3

 72
    65
 73
     0
 40
0.0
  0
LTYPE
  5
1BC
100
AcDbSymbolTableRecord
100
AcDbLinetypeTableRecord
  2
CONTINUOUS
 70
    64
  3
Solid line
 72
    65
 73
     0
 40
0.0
  0
LTYPE
  5
1BD
100
AcDbSymbolTableRecord
100
AcDbLinetypeTableRecord
  2
DOT2
 70
    64
  3
...............................................
 72
    65
 73
     2
 40
1.25
 49
0.0
 74
     0
 49
-1.25
 74
     0
  0
LTYPE
  5
1BE
100
AcDbSymbolTableRecord
100
AcDbLinetypeTableRecord
  2
CADWORK_13
 70
    64
  3
13 =======================================
 72
    65
 73
     2
 40
4.0
 49
2.0
 74
     0
 49
-2.0
 74
     0
  0
LTYPE
  5
1BF
100
AcDbSymbolTableRecord
100
AcDbLinetypeTableRecord
  2
DASHED
 70
    64
  3
__ __ __ __ __ __ __ __ __ __ __ __ __ __ __ __
 72
    65
 73
     2
 40
7.5
 49
5.0
 74
     0
 49
-2.5
 74
     0
  0
LTYPE
  5
1C0
100
AcDbSymbolTableRecord
100
AcDbLinetypeTableRecord
  2
DASHDOT
 70
    64
  3
 __ . __ . __ . __ . __ . __ . __ . __ . __ . __
 72
    65
 73
     4
 40
10.0
 49
5.0
 74
     0
 49
-2.5
 74
     0
 49
0.0
 74
     0
 49
-2.5
 74
     0
  0
LTYPE
  5
1C1
100
AcDbSymbolTableRecord
100
AcDbLinetypeTableRecord
  2
CADWORK_16
 70
    64
  3
--´\,----´\,----´\,----´\,----´\,----´\,----´\,--
 72
    65
 73
     5
 40
17.0
 49
2.0
 74
     0
 49
0.0
 74
     2
 75
     0
340
1B4
 46
6.0
 50
170.0
 44
3.01999998
 45
5.57999992
  9
|
 49
-2.0999999
 74
     2
 75
     0
340
1B4
 46
12.0
 50
10.0
 44
-2.9000001
 45
-6.5999999
  9
|
 49
-2.0999999
 74
     2
 75
     0
340
1B4
 46
6.0
 50
170.0
 44
1.96000004
 45
-0.36000001
  9
|
 49
10.80000019
 74
     0
  0
LTYPE
  5
1C2
100
AcDbSymbolTableRecord
100
AcDbLinetypeTableRecord
  2
CADWORK_15
 70
    64
  3
15 =======================================
 72
    65
 73
     0
 40
0.0
  0
LTYPE
  5
1C3
100
AcDbSymbolTableRecord
100
AcDbLinetypeTableRecord
  2
DAL
 70
    64
  3
Solid line (for MAPS)
 72
    65
 73
     0
 40
0.0
  0
LTYPE
  5
1C4
100
AcDbSymbolTableRecord
100
AcDbLinetypeTableRecord
  2
MUR
 70
    64
  3
Solid line (for MAPS)
 72
    65
 73
     0
 40
0.0
  0
LTYPE
  5
1C5
100
AcDbSymbolTableRecord
100
AcDbLinetypeTableRecord
  2
SOM
 70
    64
  3
Solid line (for MAPS)
 72
    65
 73
     0
 40
0.0
  0
LTYPE
  5
1C6
100
AcDbSymbolTableRecord
100
AcDbLinetypeTableRecord
  2
COL
 70
    64
  3
Solid line (for MAPS)
 72
    65
 73
     0
 40
0.0
  0
LTYPE
  5
1C7
100
AcDbSymbolTableRecord
100
AcDbLinetypeTableRecord
  2
LGN
 70
    64
  3
Solid line (for MAPS)
 72
    65
 73
     0
 40
0.0
  0
LTYPE
  5
1C8
100
AcDbSymbolTableRecord
100
AcDbLinetypeTableRecord
  2
PNT
 70
    64
  3
Solid line (for MAPS)
 72
    65
 73
     0
 40
0.0
  0
ENDTAB
  0
TABLE
  2
LAYER
  5
1C9
100
AcDbSymbolTable
 70
    16
  0
LAYER
  5
1CA
100
AcDbSymbolTableRecord
100
AcDbLayerTableRecord
  2
0
 70
     0
 62
     1
  6
CONTINUOUS
370
    -3
  0
LAYER
  5
1CB
100
AcDbSymbolTableRecord
100
AcDbLayerTableRecord
  2
Standard
 70
     0
 62
     7
  6
CONTINUOUS
370
    -3
  0
LAYER
  5
1CC
100
AcDbSymbolTableRecord
100
AcDbLayerTableRecord
  2
Sc.1_1
 70
     0
 62
     7
  6
CONTINUOUS
370
    -3
  0
LAYER
  5
1CD
100
AcDbSymbolTableRecord
100
AcDbLayerTableRecord
  2
Sc.1_2
 70
     0
 62
     7
  6
CONTINUOUS
370
    -3
  0
LAYER
  5
1CE
100
AcDbSymbolTableRecord
100
AcDbLayerTableRecord
  2
Sc.1_5
 70
     0
 62
     7
  6
CONTINUOUS
370
    -3
  0
LAYER
  5
1CF
100
AcDbSymbolTableRecord
100
AcDbLayerTableRecord
  2
Sc.1_10
 70
     0
 62
     7
  6
CONTINUOUS
370
    -3
  0
LAYER
  5
1D0
100
AcDbSymbolTableRecord
100
AcDbLayerTableRecord
  2
Sc.1_20
 70
     0
 62
     7
  6
CONTINUOUS
370
    -3
  0
LAYER
  5
1D1
100
AcDbSymbolTableRecord
100
AcDbLayerTableRecord
  2
Sc.1_25
 70
     0
 62
     7
  6
CONTINUOUS
370
    -3
  0
LAYER
  5
1D2
100
AcDbSymbolTableRecord
100
AcDbLayerTableRecord
  2
Sc.1_33
 70
     0
 62
     7
  6
CONTINUOUS
370
    -3
  0
LAYER
  5
1D3
100
AcDbSymbolTableRecord
100
AcDbLayerTableRecord
  2
Sc.1_50
 70
     0
 62
     7
  6
CONTINUOUS
370
    -3
  0
LAYER
  5
1D4
100
AcDbSymbolTableRecord
100
AcDbLayerTableRecord
  2
Sc.1_75
 70
     0
 62
     7
  6
CONTINUOUS
370
    -3
  0
LAYER
  5
1D5
100
AcDbSymbolTableRecord
100
AcDbLayerTableRecord
  2
Sc.1_100
 70
     0
 62
     7
  6
CONTINUOUS
370
    -3
  0
LAYER
  5
1D6
100
AcDbSymbolTableRecord
100
AcDbLayerTableRecord
  2
Sc.1_200
 70
     0
 62
     7
  6
CONTINUOUS
370
    -3
  0
LAYER
  5
1D7
100
AcDbSymbolTableRecord
100
AcDbLayerTableRecord
  2
Sc.1_500
 70
     0
 62
     7
  6
CONTINUOUS
370
    -3
  0
LAYER
  5
1D8
100
AcDbSymbolTableRecord
100
AcDbLayerTableRecord
  2
Sc.1_1000
 70
     0
 62
     7
  6
CONTINUOUS
370
    -3
  0
LAYER
  5
1D9
100
AcDbSymbolTableRecord
100
AcDbLayerTableRecord
  2
Laser frames
 70
     0
 62
     7
  6
CONTINUOUS
370
    18
  0
LAYER
  5
1DA
100
AcDbSymbolTableRecord
100
AcDbLayerTableRecord
  2
LEGEND
 70
     0
 62
     7
  6
CONTINUOUS
370
    -3
  0
ENDTAB
  0
TABLE
  2
VIEW
  5
1DB
100
AcDbSymbolTable
 70
     0
  0
ENDTAB
  0
TABLE
  2
UCS
  5
1DC
100
AcDbSymbolTable
 70
     0
  0
ENDTAB
  0
TABLE
  2
APPID
  5
1DD
100
AcDbSymbolTable
 70
     1
  0
APPID
  5
1DE
100
AcDbSymbolTableRecord
100
AcDbRegAppTableRecord
  2
ACAD
 70
     0
  0
ENDTAB
  0
TABLE
  2
DIMSTYLE
  5
1DF
100
AcDbSymbolTable
 70
     0
  0
ENDTAB
  0
TABLE
  2
BLOCK_RECORD
  5
1E0
100
AcDbSymbolTable
 70
     0
  0
BLOCK_RECORD
  5
1E1
100
AcDbSymbolTableRecord
100
AcDbBlockTableRecord
  2
*MODEL_SPACE
  0
BLOCK_RECORD
  5
1E2
100
AcDbSymbolTableRecord
100
AcDbBlockTableRecord
  2
*PAPER_SPACE
  0
BLOCK_RECORD
  5
1E3
100
AcDbSymbolTableRecord
100
AcDbBlockTableRecord
  2
CDWK_EXTR_0
  0
BLOCK_RECORD
  5
1E4
100
AcDbSymbolTableRecord
100
AcDbBlockTableRecord
  2
CDWK_EXTR_1D
  0
BLOCK_RECORD
  5
1E5
100
AcDbSymbolTableRecord
100
AcDbBlockTableRecord
  2
CDWK_EXTR_1G
  0
BLOCK_RECORD
  5
1E6
100
AcDbSymbolTableRecord
100
AcDbBlockTableRecord
  2
CDWK_EXTR_2
  0
BLOCK_RECORD
  5
1E7
100
AcDbSymbolTableRecord
100
AcDbBlockTableRecord
  2
CDWK_EXTR_3
  0
BLOCK_RECORD
  5
1E8
100
AcDbSymbolTableRecord
100
AcDbBlockTableRecord
  2
CDWK_EXTR_4
  0
BLOCK_RECORD
  5
1E9
100
AcDbSymbolTableRecord
100
AcDbBlockTableRecord
  2
CDWK_PTTYP0
  0
BLOCK_RECORD
  5
1EA
100
AcDbSymbolTableRecord
100
AcDbBlockTableRecord
  2
*X2005
  0
BLOCK_RECORD
  5
1EB
100
AcDbSymbolTableRecord
100
AcDbBlockTableRecord
  2
*X2059
  0
BLOCK_RECORD
  5
1EC
100
AcDbSymbolTableRecord
100
AcDbBlockTableRecord
  2
*X2060
  0
BLOCK_RECORD
  5
1ED
100
AcDbSymbolTableRecord
100
AcDbBlockTableRecord
  2
*X2061
  0
BLOCK_RECORD
  5
1EE
100
AcDbSymbolTableRecord
100
AcDbBlockTableRecord
  2
*X2062
  0
BLOCK_RECORD
  5
1EF
100
AcDbSymbolTableRecord
100
AcDbBlockTableRecord
  2
*X2063
  0
BLOCK_RECORD
  5
1F0
100
AcDbSymbolTableRecord
100
AcDbBlockTableRecord
  2
*X2064
  0
ENDTAB
  0
ENDSEC
  0
SECTION
  2
BLOCKS
  0
BLOCK
  5
1F1
100
AcDbEntity
  8
0
100
AcDbBlockBegin
  2
*MODEL_SPACE
 70
     0
 10
0.0
 20
0.0
 30
0.0
  3
*MODEL_SPACE
  1

  0
ENDBLK
  5
1F2
100
AcDbEntity
100
AcDbBlockEnd
  0
BLOCK
  5
1F3
100
AcDbEntity
  8
0
100
AcDbBlockBegin
  2
*PAPER_SPACE
 70
     0
 10
0.0
 20
0.0
 30
0.0
  3
*PAPER_SPACE
  1

  0
ENDBLK
  5
1F4
100
AcDbEntity
100
AcDbBlockEnd
  0
BLOCK
  5
1F5
100
AcDbEntity
  8
0
100
AcDbBlockBegin
  2
CDWK_EXTR_0
 70
     0
 10
0.0
 20
0.0
 30
0.0
  3
CDWK_EXTR_0
  1

  4
Cadwork line-extremity
  0
LINE
  5
1F6
100
AcDbEntity
  8
0
 62
     0
370
    -2
100
AcDbLine
 10
0.0
 20
0.0
 30
0.0
 11
2.0
 21
0.5
 31
0.0
  0
LINE
  5
1F7
100
AcDbEntity
  8
0
 62
     0
370
    -2
100
AcDbLine
 10
0.0
 20
0.0
 30
0.0
 11
2.0
 21
-0.5
 31
0.0
  0
LINE
  5
1F8
100
AcDbEntity
  8
0
 62
     0
370
    -2
100
AcDbLine
 10
2.0
 20
0.5
 30
0.0
 11
2.0
 21
-0.5
 31
0.0
  0
ENDBLK
  5
1F9
100
AcDbEntity
100
AcDbBlockEnd
  0
BLOCK
  5
1FA
100
AcDbEntity
  8
0
100
AcDbBlockBegin
  2
CDWK_EXTR_1D
 70
     0
 10
0.0
 20
0.0
 30
0.0
  3
CDWK_EXTR_1D
  1

  4
Cadwork line-extremity
  0
LINE
  5
1FB
100
AcDbEntity
  8
0
 62
     0
370
    -2
100
AcDbLine
 10
0.0
 20
0.0
 30
0.0
 11
0.0
 21
1.0
 31
0.0
  0
LINE
  5
1FC
100
AcDbEntity
  8
0
 62
     0
370
    -2
100
AcDbLine
 10
0.0
 20
1.0
 30
0.0
 11
0.5
 21
1.5
 31
0.0
  0
LINE
  5
1FD
100
AcDbEntity
  8
0
 62
     0
370
    -2
100
AcDbLine
 10
0.5
 20
1.5
 30
0.0
 11
1.5
 21
1.5
 31
0.0
  0
ENDBLK
  5
1FE
100
AcDbEntity
100
AcDbBlockEnd
  0
BLOCK
  5
1FF
100
AcDbEntity
  8
0
100
AcDbBlockBegin
  2
CDWK_EXTR_1G
 70
     0
 10
0.0
 20
0.0
 30
0.0
  3
CDWK_EXTR_1G
  1

  4
Cadwork line-extremity
  0
LINE
  5
200
100
AcDbEntity
  8
0
 62
     0
370
    -2
100
AcDbLine
 10
0.0
 20
0.0
 30
0.0
 11
0.0
 21
-1.0
 31
0.0
  0
LINE
  5
201
100
AcDbEntity
  8
0
 62
     0
370
    -2
100
AcDbLine
 10
0.0
 20
-1.0
 30
0.0
 11
0.5
 21
-1.5
 31
0.0
  0
LINE
  5
202
100
AcDbEntity
  8
0
 62
     0
370
    -2
100
AcDbLine
 10
0.5
 20
-1.5
 30
0.0
 11
1.5
 21
-1.5
 31
0.0
  0
ENDBLK
  5
203
100
AcDbEntity
100
AcDbBlockEnd
  0
BLOCK
  5
204
100
AcDbEntity
  8
0
100
AcDbBlockBegin
  2
CDWK_EXTR_2
 70
     0
 10
0.0
 20
0.0
 30
0.0
  3
CDWK_EXTR_2
  1

  4
Cadwork line-extremity
  0
SOLID
  5
205
100
AcDbEntity
  8
0
 62
     0
100
AcDbTrace
 10
0.0
 20
0.0
 11
2.0
 21
0.5
 12
2.0
 22
-0.5
 13
2.0
 23
-0.5
  0
ENDBLK
  5
206
100
AcDbEntity
100
AcDbBlockEnd
  0
BLOCK
  5
207
100
AcDbEntity
  8
0
100
AcDbBlockBegin
  2
CDWK_EXTR_3
 70
     0
 10
0.0
 20
0.0
 30
0.0
  3
CDWK_EXTR_3
  1

  4
Cadwork line-extremity
  0
SOLID
  5
208
100
AcDbEntity
  8
0
 62
     0
100
AcDbTrace
 10
0.0
 20
0.0
 11
2.0
 21
0.5
 12
2.0
 22
-0.5
 13
2.0
 23
-0.5
  0
LINE
  5
209
100
AcDbEntity
  8
0
 62
     0
370
    -2
100
AcDbLine
 10
0.0
 20
1.0
 30
0.0
 11
0.0
 21
-1.0
 31
0.0
  0
ENDBLK
  5
20A
100
AcDbEntity
100
AcDbBlockEnd
  0
BLOCK
  5
20B
100
AcDbEntity
  8
0
100
AcDbBlockBegin
  2
CDWK_EXTR_4
 70
     0
 10
0.0
 20
0.0
 30
0.0
  3
CDWK_EXTR_4
  1

  4
Cadwork line-extremity
  0
HATCH
  5
20C
100
AcDbEntity
  8
0
 62
     0
370
    -2
100
AcDbHatch
 10
0.0
 20
0.0
 30
0.0
210
0.0
220
0.0
230
1.0
  2
SOLID
 70
     1
 71
     0
 91
        1
 92
        1
 93
        1
 72
     2
 10
0.0
 20
0.0
 40
0.5
 50
0.0
 51
360.0
 73
     1
 97
        0
 75
     0
 76
     1
 98
        1
 10
0.0
 20
0.0
  0
ENDBLK
  5
20D
100
AcDbEntity
100
AcDbBlockEnd
  0
BLOCK
  5
20E
100
AcDbEntity
  8
0
100
AcDbBlockBegin
  2
CDWK_PTTYP0
 70
     0
 10
0.0
 20
0.0
 30
0.0
  3
CDWK_PTTYP0
  1

  4
Cadwork point
  0
POINT
  5
20F
100
AcDbEntity
  8
0
 62
     0
100
AcDbPoint
 10
0.0
 20
0.0
 30
0.0
  0
ENDBLK
  5
210
100
AcDbEntity
100
AcDbBlockEnd
  0
BLOCK
  5
211
100
AcDbEntity
  8
Sc.1_5
100
AcDbBlockBegin
  2
*X2005
 70
     1
 10
0.0
 20
0.0
 30
0.0
  3
*X2005
  1

  4
Cadwork hatch
  0
LINE
  5
212
100
AcDbEntity
  8
Sc.1_5
 62
     9
  6
CONTINUOUS
370
    -2
100
AcDbLine
 10
2116.23212929
 20
-921.89214416
 30
0.0
 11
2120.23218333
 21
-929.89212052
 31
0.0
  0
LINE
  5
213
100
AcDbEntity
  8
Sc.1_5
 62
     9
  6
CONTINUOUS
370
    -2
100
AcDbLine
 10
2120.23218333
 20
-921.89214416
 30
0.0
 11
2116.23212929
 21
-929.89212052
 31
0.0
  0
ENDBLK
  5
214
100
AcDbEntity
100
AcDbBlockEnd
  0
BLOCK
  5
215
100
AcDbEntity
  8
Sc.1_5
100
AcDbBlockBegin
  2
*X2059
 70
     1
 10
0.0
 20
0.0
 30
0.0
  3
*X2059
  1

  4
Cadwork hatch
  0
LINE
  5
216
100
AcDbEntity
  8
Sc.1_5
 62
     9
  6
CONTINUOUS
370
    -2
100
AcDbLine
 10
2123.23212297
 20
-895.9498784
 30
0.0
 11
2123.23212346
 21
-895.32492676
 31
0.0
  0
LINE
  5
217
100
AcDbEntity
  8
Sc.1_5
 62
     9
  6
CONTINUOUS
370
    -2
100
AcDbLine
 10
2123.23212614
 20
-891.90816208
 30
0.0
 11
2123.23212713
 21
-890.6582588
 31
0.0
  0
LINE
  5
218
100
AcDbEntity
  8
Sc.1_5
 62
     9
  6
CONTINUOUS
370
    -2
100
AcDbLine
 10
2123.23212981
 20
-887.24149412
 30
0.0
 11
2123.23213079
 21
-885.99159084
 31
0.0
  0
LINE
  5
219
100
AcDbEntity
  8
Sc.1_5
 62
     9
  6
CONTINUOUS
370
    -2
100
AcDbLine
 10
2123.23213348
 20
-882.57482616
 30
0.0
 11
2123.23213446
 21
-881.32492289
 31
0.0
  0
LINE
  5
21A
100
AcDbEntity
  8
Sc.1_5
 62
     9
  6
CONTINUOUS
370
    -2
100
AcDbLine
 10
2123.23213715
 20
-877.9081582
 30
0.0
 11
2123.23213813
 21
-876.65825493
 31
0.0
  0
LINE
  5
21B
100
AcDbEntity
  8
Sc.1_5
 62
     9
  6
CONTINUOUS
370
    -2
100
AcDbLine
 10
2123.23214081
 20
-873.24149024
 30
0.0
 11
2123.2321418
 21
-871.99158697
 31
0.0
  0
LINE
  5
21C
100
AcDbEntity
  8
Sc.1_5
 62
     9
  6
CONTINUOUS
370
    -2
100
AcDbLine
 10
2123.23214448
 20
-868.57482229
 30
0.0
 11
2123.23214546
 21
-867.32491901
 31
0.0
  0
LINE
  5
21D
100
AcDbEntity
  8
Sc.1_5
 62
     9
  6
CONTINUOUS
370
    -2
100
AcDbLine
 10
2123.23214815
 20
-863.90815433
 30
0.0
 11
2123.23214913
 21
-862.65825105
 31
0.0
  0
LINE
  5
21E
100
AcDbEntity
  8
Sc.1_5
 62
     9
  6
CONTINUOUS
370
    -2
100
AcDbLine
 10
2123.23215181
 20
-859.24148637
 30
0.0
 11
2123.2321528
 21
-857.99158309
 31
0.0
  0
LINE
  5
21F
100
AcDbEntity
  8
Sc.1_5
 62
     9
  6
CONTINUOUS
370
    -2
100
AcDbLine
 10
2123.23215548
 20
-854.57481841
 30
0.0
 11
2123.23215646
 21
-853.32491514
 31
0.0
  0
LINE
  5
220
100
AcDbEntity
  8
Sc.1_5
 62
     9
  6
CONTINUOUS
370
    -2
100
AcDbLine
 10
2123.23215915
 20
-849.90815045
 30
0.0
 11
2123.23216013
 21
-848.65824718
 31
0.0
  0
LINE
  5
221
100
AcDbEntity
  8
Sc.1_5
 62
     9
  6
CONTINUOUS
370
    -2
100
AcDbLine
 10
2123.23216282
 20
-845.2414825
 30
0.0
 11
2123.2321638
 21
-843.99157922
 31
0.0
  0
LINE
  5
222
100
AcDbEntity
  8
Sc.1_5
 62
     9
  6
CONTINUOUS
370
    -2
100
AcDbLine
 10
2123.23216648
 20
-840.57481454
 30
0.0
 11
2123.23216747
 21
-839.32491126
 31
0.0
  0
LINE
  5
223
100
AcDbEntity
  8
Sc.1_5
 62
     9
  6
CONTINUOUS
370
    -2
100
AcDbLine
 10
2123.23217015
 20
-835.90814658
 30
0.0
 11
2123.23217113
 21
-834.6582433
 31
0.0
  0
LINE
  5
224
100
AcDbEntity
  8
Sc.1_5
 62
     9
  6
CONTINUOUS
370
    -2
100
AcDbLine
 10
2123.23217382
 20
-831.24147862
 30
0.0
 11
2123.2321748
 21
-829.99157535
 31
0.0
  0
LINE
  5
225
100
AcDbEntity
  8
Sc.1_5
 62
     9
  6
CONTINUOUS
370
    -2
100
AcDbLine
 10
2123.23217749
 20
-826.57481066
 30
0.0
 11
2123.23217847
 21
-825.32490739
 31
0.0
  0
LINE
  5
226
100
AcDbEntity
  8
Sc.1_5
 62
     9
  6
CONTINUOUS
370
    -2
100
AcDbLine
 10
2123.23218115
 20
-821.90814271
 30
0.0
 11
2123.23218213
 21
-820.65823943
 31
0.0
  0
LINE
  5
227
100
AcDbEntity
  8
Sc.1_5
 62
     9
  6
CONTINUOUS
370
    -2
100
AcDbLine
 10
2147.32275609
 20
-891.28322945
 30
0.0
 11
2146.56545967
 21
-891.28322886
 31
0.0
  0
LINE
  5
228
100
AcDbEntity
  8
Sc.1_5
 62
     9
  6
CONTINUOUS
370
    -2
100
AcDbLine
 10
2147.32276343
 20
-881.94989637
 30
0.0
 11
2146.565467
 21
-881.94989578
 31
0.0
  0
LINE
  5
229
100
AcDbEntity
  8
Sc.1_5
 62
     9
  6
CONTINUOUS
370
    -2
100
AcDbLine
 10
2147.32277076
 20
-872.6165633
 30
0.0
 11
2146.56547434
 21
-872.6165627
 31
0.0
  0
LINE
  5
22A
100
AcDbEntity
  8
Sc.1_5
 62
     9
  6
CONTINUOUS
370
    -2
100
AcDbLine
 10
2147.32277809
 20
-863.28323022
 30
0.0
 11
2146.56548167
 21
-863.28322962
 31
0.0
  0
LINE
  5
22B
100
AcDbEntity
  8
Sc.1_5
 62
     9
  6
CONTINUOUS
370
    -2
100
AcDbLine
 10
2147.32278543
 20
-853.94989714
 30
0.0
 11
2146.56548901
 21
-853.94989654
 31
0.0
  0
LINE
  5
22C
100
AcDbEntity
  8
Sc.1_5
 62
     9
  6
CONTINUOUS
370
    -2
100
AcDbLine
 10
2147.32279276
 20
-844.61656406
 30
0.0
 11
2146.56549634
 21
-844.61656346
 31
0.0
  0
LINE
  5
22D
100
AcDbEntity
  8
Sc.1_5
 62
     9
  6
CONTINUOUS
370
    -2
100
AcDbLine
 10
2147.3228001
 20
-835.28323098
 30
0.0
 11
2146.56550367
 21
-835.28323038
 31
0.0
  0
LINE
  5
22E
100
AcDbEntity
  8
Sc.1_5
 62
     9
  6
CONTINUOUS
370
    -2
100
AcDbLine
 10
2147.32280743
 20
-825.9498979
 30
0.0
 11
2146.56551101
 21
-825.94989731
 31
0.0
  0
LINE
  5
22F
100
AcDbEntity
  8
Sc.1_5
 62
     9
  6
CONTINUOUS
370
    -2
100
AcDbLine
 10
2127.89879718
 20
-886.61654799
 30
0.0
 11
2127.14150075
 21
-886.61654739
 31
0.0
  0
LINE
  5
230
100
AcDbEntity
  8
Sc.1_5
 62
     9
  6
CONTINUOUS
370
    -2
100
AcDbLine
 10
2127.89880451
 20
-877.28321491
 30
0.0
 11
2127.14150809
 21
-877.28321431
 31
0.0
  0
LINE
  5
231
100
AcDbEntity
  8
Sc.1_5
 62
     9
  6
CONTINUOUS
370
    -2
100
AcDbLine
 10
2127.89881185
 20
-867.94988183
 30
0.0
 11
2127.14151542
 21
-867.94988123
 31
0.0
  0
LINE
  5
232
100
AcDbEntity
  8
Sc.1_5
 62
     9
  6
CONTINUOUS
370
    -2
100
AcDbLine
 10
2127.89881918
 20
-858.61654875
 30
0.0
 11
2127.14152276
 21
-858.61654815
 31
0.0
  0
LINE
  5
233
100
AcDbEntity
  8
Sc.1_5
 62
     9
  6
CONTINUOUS
370
    -2
100
AcDbLine
 10
2127.89882651
 20
-849.28321567
 30
0.0
 11
2127.14153009
 21
-849.28321507
 31
0.0
  0
LINE
  5
234
100
AcDbEntity
  8
Sc.1_5
 62
     9
  6
CONTINUOUS
370
    -2
100
AcDbLine
 10
2127.89883385
 20
-839.94988259
 30
0.0
 11
2127.14153743
 21
-839.949882
 31
0.0
  0
LINE
  5
235
100
AcDbEntity
  8
Sc.1_5
 62
     9
  6
CONTINUOUS
370
    -2
100
AcDbLine
 10
2127.89884118
 20
-830.61654951
 30
0.0
 11
2127.14154476
 21
-830.61654892
 31
0.0
  0
LINE
  5
236
100
AcDbEntity
  8
Sc.1_5
 62
     9
  6
CONTINUOUS
370
    -2
100
AcDbLine
 10
2127.89884852
 20
-821.28321643
 30
0.0
 11
2127.1415521
 21
-821.28321584
 31
0.0
  0
LINE
  5
237
100
AcDbEntity
  8
Sc.1_5
 62
     9
  6
CONTINUOUS
370
    -2
100
AcDbLine
 10
2145.56425897
 20
-891.39394409
 30
0.0
 11
2128.89969233
 21
-895.8381408
 31
0.0
  0
LINE
  5
238
100
AcDbEntity
  8
Sc.1_5
 62
     9
  6
CONTINUOUS
370
    -2
100
AcDbLine
 10
2145.56428231
 20
-882.06061291
 30
0.0
 11
2128.89971567
 21
-886.50480963
 31
0.0
  0
LINE
  5
239
100
AcDbEntity
  8
Sc.1_5
 62
     9
  6
CONTINUOUS
370
    -2
100
AcDbLine
 10
2145.56430565
 20
-872.72728173
 30
0.0
 11
2128.89973902
 21
-877.17147845
 31
0.0
  0
LINE
  5
23A
100
AcDbEntity
  8
Sc.1_5
 62
     9
  6
CONTINUOUS
370
    -2
100
AcDbLine
 10
2145.56432899
 20
-863.39395055
 30
0.0
 11
2128.89976236
 21
-867.83814727
 31
0.0
  0
LINE
  5
23B
100
AcDbEntity
  8
Sc.1_5
 62
     9
  6
CONTINUOUS
370
    -2
100
AcDbLine
 10
2145.56435233
 20
-854.06061937
 30
0.0
 11
2128.8997857
 21
-858.50481609
 31
0.0
  0
LINE
  5
23C
100
AcDbEntity
  8
Sc.1_5
 62
     9
  6
CONTINUOUS
370
    -2
100
AcDbLine
 10
2145.56437567
 20
-844.72728819
 30
0.0
 11
2128.89980904
 21
-849.17148491
 31
0.0
  0
LINE
  5
23D
100
AcDbEntity
  8
Sc.1_5
 62
     9
  6
CONTINUOUS
370
    -2
100
AcDbLine
 10
2145.56439901
 20
-835.39395701
 30
0.0
 11
2128.89983238
 21
-839.83815373
 31
0.0
  0
LINE
  5
23E
100
AcDbEntity
  8
Sc.1_5
 62
     9
  6
CONTINUOUS
370
    -2
100
AcDbLine
 10
2145.56442236
 20
-826.06062583
 30
0.0
 11
2128.89985572
 21
-830.50482255
 31
0.0
  0
LINE
  5
23F
100
AcDbEntity
  8
Sc.1_5
 62
     9
  6
CONTINUOUS
370
    -2
100
AcDbLine
 10
2135.57196951
 20
-819.39214222
 30
0.0
 11
2128.89987906
 21
-821.17149137
 31
0.0
  0
LINE
  5
240
100
AcDbEntity
  8
Sc.1_5
 62
     9
  6
CONTINUOUS
370
    -2
100
AcDbLine
 10
2145.56425914
 20
-891.17251473
 30
0.0
 11
2128.89969949
 21
-886.72829182
 31
0.0
  0
LINE
  5
241
100
AcDbEntity
  8
Sc.1_5
 62
     9
  6
CONTINUOUS
370
    -2
100
AcDbLine
 10
2145.56425047
 20
-881.83918355
 30
0.0
 11
2128.89969082
 21
-877.39496064
 31
0.0
  0
LINE
  5
242
100
AcDbEntity
  8
Sc.1_5
 62
     9
  6
CONTINUOUS
370
    -2
100
AcDbLine
 10
2145.5642418
 20
-872.50585237
 30
0.0
 11
2128.89968215
 21
-868.06162946
 31
0.0
  0
LINE
  5
243
100
AcDbEntity
  8
Sc.1_5
 62
     9
  6
CONTINUOUS
370
    -2
100
AcDbLine
 10
2145.56423312
 20
-863.17252119
 30
0.0
 11
2128.89967347
 21
-858.72829828
 31
0.0
  0
LINE
  5
244
100
AcDbEntity
  8
Sc.1_5
 62
     9
  6
CONTINUOUS
370
    -2
100
AcDbLine
 10
2145.56422445
 20
-853.83919001
 30
0.0
 11
2128.8996648
 21
-849.3949671
 31
0.0
  0
LINE
  5
245
100
AcDbEntity
  8
Sc.1_5
 62
     9
  6
CONTINUOUS
370
    -2
100
AcDbLine
 10
2145.56421578
 20
-844.50585883
 30
0.0
 11
2128.89965613
 21
-840.06163592
 31
0.0
  0
LINE
  5
246
100
AcDbEntity
  8
Sc.1_5
 62
     9
  6
CONTINUOUS
370
    -2
100
AcDbLine
 10
2145.56420711
 20
-835.17252765
 30
0.0
 11
2128.89964746
 21
-830.72830474
 31
0.0
  0
LINE
  5
247
100
AcDbEntity
  8
Sc.1_5
 62
     9
  6
CONTINUOUS
370
    -2
100
AcDbLine
 10
2145.56419843
 20
-825.83919647
 30
0.0
 11
2128.89963878
 21
-821.39497356
 31
0.0
  0
LINE
  5
248
100
AcDbEntity
  8
Sc.1_5
 62
     9
  6
CONTINUOUS
370
    -2
100
AcDbLine
 10
2151.23212278
 20
-895.32494148
 30
0.0
 11
2150.89836109
 21
-894.10114489
 31
0.0
  0
LINE
  5
249
100
AcDbEntity
  8
Sc.1_5
 62
     9
  6
CONTINUOUS
370
    -2
100
AcDbLine
 10
2151.23212278
 20
-885.99158089
 30
0.0
 11
2150.89836868
 21
-884.76781211
 31
0.0
  0
LINE
  5
24A
100
AcDbEntity
  8
Sc.1_5
 62
     9
  6
CONTINUOUS
370
    -2
100
AcDbLine
 10
2151.23212278
 20
-876.65822029
 30
0.0
 11
2150.89837626
 21
-875.43447932
 31
0.0
  0
LINE
  5
24B
100
AcDbEntity
  8
Sc.1_5
 62
     9
  6
CONTINUOUS
370
    -2
100
AcDbLine
 10
2151.23212278
 20
-867.32485969
 30
0.0
 11
2150.89838385
 21
-866.10114654
 31
0.0
  0
LINE
  5
24C
100
AcDbEntity
  8
Sc.1_5
 62
     9
  6
CONTINUOUS
370
    -2
100
AcDbLine
 10
2151.23212278
 20
-857.9914991
 30
0.0
 11
2150.89839143
 21
-856.76781375
 31
0.0
  0
LINE
  5
24D
100
AcDbEntity
  8
Sc.1_5
 62
     9
  6
CONTINUOUS
370
    -2
100
AcDbLine
 10
2151.23212278
 20
-848.6581385
 30
0.0
 11
2150.89839901
 21
-847.43448096
 31
0.0
  0
LINE
  5
24E
100
AcDbEntity
  8
Sc.1_5
 62
     9
  6
CONTINUOUS
370
    -2
100
AcDbLine
 10
2151.23212278
 20
-839.3247779
 30
0.0
 11
2150.8984066
 21
-838.10114818
 31
0.0
  0
LINE
  5
24F
100
AcDbEntity
  8
Sc.1_5
 62
     9
  6
CONTINUOUS
370
    -2
100
AcDbLine
 10
2151.23212278
 20
-829.99141731
 30
0.0
 11
2150.89841418
 21
-828.76781539
 31
0.0
  0
LINE
  5
250
100
AcDbEntity
  8
Sc.1_5
 62
     9
  6
CONTINUOUS
370
    -2
100
AcDbLine
 10
2151.23212278
 20
-820.65805671
 30
0.0
 11
2150.89842177
 21
-819.43448261
 31
0.0
  0
LINE
  5
251
100
AcDbEntity
  8
Sc.1_5
 62
     9
  6
CONTINUOUS
370
    -2
100
AcDbLine
 10
2151.23212278
 20
-887.24154062
 30
0.0
 11
2150.89836419
 21
-888.46531891
 31
0.0
  0
LINE
  5
252
100
AcDbEntity
  8
Sc.1_5
 62
     9
  6
CONTINUOUS
370
    -2
100
AcDbLine
 10
2151.23212278
 20
-877.90822925
 30
0.0
 11
2150.89837003
 21
-879.13198613
 31
0.0
  0
LINE
  5
253
100
AcDbEntity
  8
Sc.1_5
 62
     9
  6
CONTINUOUS
370
    -2
100
AcDbLine
 10
2151.23212278
 20
-868.57491789
 30
0.0
 11
2150.89837587
 21
-869.79865334
 31
0.0
  0
LINE
  5
254
100
AcDbEntity
  8
Sc.1_5
 62
     9
  6
CONTINUOUS
370
    -2
100
AcDbLine
 10
2151.23212278
 20
-859.24160652
 30
0.0
 11
2150.89838171
 21
-860.46532055
 31
0.0
  0
LINE
  5
255
100
AcDbEntity
  8
Sc.1_5
 62
     9
  6
CONTINUOUS
370
    -2
100
AcDbLine
 10
2151.23212278
 20
-849.90829515
 30
0.0
 11
2150.89838756
 21
-851.13198777
 31
0.0
  0
LINE
  5
256
100
AcDbEntity
  8
Sc.1_5
 62
     9
  6
CONTINUOUS
370
    -2
100
AcDbLine
 10
2151.23212278
 20
-840.57498378
 30
0.0
 11
2150.8983934
 21
-841.79865498
 31
0.0
  0
LINE
  5
257
100
AcDbEntity
  8
Sc.1_5
 62
     9
  6
CONTINUOUS
370
    -2
100
AcDbLine
 10
2151.23212278
 20
-831.24167242
 30
0.0
 11
2150.89839924
 21
-832.4653222
 31
0.0
  0
LINE
  5
258
100
AcDbEntity
  8
Sc.1_5
 62
     9
  6
CONTINUOUS
370
    -2
100
AcDbLine
 10
2151.23212278
 20
-821.90836105
 30
0.0
 11
2150.89840508
 21
-823.13198941
 31
0.0
  0
LINE
  5
259
100
AcDbEntity
  8
Sc.1_5
 62
     9
  6
CONTINUOUS
370
    -2
100
AcDbLine
 10
2123.56589564
 20
-893.13199449
 30
0.0
 11
2123.23212825
 21
-891.90817699
 31
0.0
  0
LINE
  5
25A
100
AcDbEntity
  8
Sc.1_5
 62
     9
  6
CONTINUOUS
370
    -2
100
AcDbLine
 10
2123.56590322
 20
-883.7986617
 30
0.0
 11
2123.23213583
 21
-882.57484421
 31
0.0
  0
LINE
  5
25B
100
AcDbEntity
  8
Sc.1_5
 62
     9
  6
CONTINUOUS
370
    -2
100
AcDbLine
 10
2123.56591081
 20
-874.46532891
 30
0.0
 11
2123.23214342
 21
-873.24151142
 31
0.0
  0
LINE
  5
25C
100
AcDbEntity
  8
Sc.1_5
 62
     9
  6
CONTINUOUS
370
    -2
100
AcDbLine
 10
2123.56591839
 20
-865.13199613
 30
0.0
 11
2123.232151
 21
-863.90817863
 31
0.0
  0
LINE
  5
25D
100
AcDbEntity
  8
Sc.1_5
 62
     9
  6
CONTINUOUS
370
    -2
100
AcDbLine
 10
2123.56592598
 20
-855.79866334
 30
0.0
 11
2123.23215859
 21
-854.57484585
 31
0.0
  0
LINE
  5
25E
100
AcDbEntity
  8
Sc.1_5
 62
     9
  6
CONTINUOUS
370
    -2
100
AcDbLine
 10
2123.56593356
 20
-846.46533056
 30
0.0
 11
2123.23216617
 21
-845.24151306
 31
0.0
  0
LINE
  5
25F
100
AcDbEntity
  8
Sc.1_5
 62
     9
  6
CONTINUOUS
370
    -2
100
AcDbLine
 10
2123.56594115
 20
-837.13199777
 30
0.0
 11
2123.23217376
 21
-835.90818028
 31
0.0
  0
LINE
  5
260
100
AcDbEntity
  8
Sc.1_5
 62
     9
  6
CONTINUOUS
370
    -2
100
AcDbLine
 10
2123.56594873
 20
-827.79866498
 30
0.0
 11
2123.23218134
 21
-826.57484749
 31
0.0
  0
LINE
  5
261
100
AcDbEntity
  8
Sc.1_5
 62
     9
  6
CONTINUOUS
370
    -2
100
AcDbLine
 10
2123.23217983
 20
-825.32491847
 30
0.0
 11
2123.56594914
 21
-824.1011015
 31
0.0
  0
LINE
  5
262
100
AcDbEntity
  8
Sc.1_5
 62
     9
  6
CONTINUOUS
370
    -2
100
AcDbLine
 10
2123.23217275
 20
-834.65825126
 30
0.0
 11
2123.56594206
 21
-833.43443429
 31
0.0
  0
LINE
  5
263
100
AcDbEntity
  8
Sc.1_5
 62
     9
  6
CONTINUOUS
370
    -2
100
AcDbLine
 10
2123.23216566
 20
-843.99158404
 30
0.0
 11
2123.56593497
 21
-842.76776707
 31
0.0
  0
LINE
  5
264
100
AcDbEntity
  8
Sc.1_5
 62
     9
  6
CONTINUOUS
370
    -2
100
AcDbLine
 10
2123.23215858
 20
-853.32491683
 30
0.0
 11
2123.56592789
 21
-852.10109986
 31
0.0
  0
LINE
  5
265
100
AcDbEntity
  8
Sc.1_5
 62
     9
  6
CONTINUOUS
370
    -2
100
AcDbLine
 10
2123.23215149
 20
-862.65824961
 30
0.0
 11
2123.5659208
 21
-861.43443265
 31
0.0
  0
LINE
  5
266
100
AcDbEntity
  8
Sc.1_5
 62
     9
  6
CONTINUOUS
370
    -2
100
AcDbLine
 10
2123.23214441
 20
-871.9915824
 30
0.0
 11
2123.56591372
 21
-870.76776543
 31
0.0
  0
LINE
  5
267
100
AcDbEntity
  8
Sc.1_5
 62
     9
  6
CONTINUOUS
370
    -2
100
AcDbLine
 10
2123.23213732
 20
-881.32491519
 30
0.0
 11
2123.56590664
 21
-880.10109822
 31
0.0
  0
LINE
  5
268
100
AcDbEntity
  8
Sc.1_5
 62
     9
  6
CONTINUOUS
370
    -2
100
AcDbLine
 10
2123.23213024
 20
-890.65824797
 30
0.0
 11
2123.56589955
 21
-889.434431
 31
0.0
  0
LINE
  5
269
100
AcDbEntity
  8
Sc.1_5
 62
     9
  6
CONTINUOUS
370
    -2
100
AcDbLine
 10
2150.89835526
 20
-894.10112685
 30
0.0
 11
2150.27135881
 21
-893.05613089
 31
0.0
  0
LINE
  5
26A
100
AcDbEntity
  8
Sc.1_5
 62
     9
  6
CONTINUOUS
370
    -2
100
AcDbLine
 10
2150.89836254
 20
-884.76779216
 30
0.0
 11
2150.27136608
 21
-883.7227962
 31
0.0
  0
LINE
  5
26B
100
AcDbEntity
  8
Sc.1_5
 62
     9
  6
CONTINUOUS
370
    -2
100
AcDbLine
 10
2150.89836981
 20
-875.43445747
 30
0.0
 11
2150.27137335
 21
-874.38946151
 31
0.0
  0
LINE
  5
26C
100
AcDbEntity
  8
Sc.1_5
 62
     9
  6
CONTINUOUS
370
    -2
100
AcDbLine
 10
2150.89837708
 20
-866.10112277
 30
0.0
 11
2150.27138062
 21
-865.05612682
 31
0.0
  0
LINE
  5
26D
100
AcDbEntity
  8
Sc.1_5
 62
     9
  6
CONTINUOUS
370
    -2
100
AcDbLine
 10
2150.89838435
 20
-856.76778808
 30
0.0
 11
2150.2713879
 21
-855.72279213
 31
0.0
  0
LINE
  5
26E
100
AcDbEntity
  8
Sc.1_5
 62
     9
  6
CONTINUOUS
370
    -2
100
AcDbLine
 10
2150.89839163
 20
-847.43445339
 30
0.0
 11
2150.27139517
 21
-846.38945743
 31
0.0
  0
LINE
  5
26F
100
AcDbEntity
  8
Sc.1_5
 62
     9
  6
CONTINUOUS
370
    -2
100
AcDbLine
 10
2150.8983989
 20
-838.1011187
 30
0.0
 11
2150.27140244
 21
-837.05612274
 31
0.0
  0
LINE
  5
270
100
AcDbEntity
  8
Sc.1_5
 62
     9
  6
CONTINUOUS
370
    -2
100
AcDbLine
 10
2150.89840617
 20
-828.76778401
 30
0.0
 11
2150.27140971
 21
-827.72278805
 31
0.0
  0
LINE
  5
271
100
AcDbEntity
  8
Sc.1_5
 62
     9
  6
CONTINUOUS
370
    -2
100
AcDbLine
 10
2150.89841344
 20
-819.43444932
 30
0.0
 11
2150.87302923
 21
-819.39214222
 31
0.0
  0
LINE
  5
272
100
AcDbEntity
  8
Sc.1_5
 62
     9
  6
CONTINUOUS
370
    -2
100
AcDbLine
 10
2150.89836037
 20
-888.4722453
 30
0.0
 11
2150.2713622
 21
-889.51724023
 31
0.0
  0
LINE
  5
273
100
AcDbEntity
  8
Sc.1_5
 62
     9
  6
CONTINUOUS
370
    -2
100
AcDbLine
 10
2150.89836839
 20
-879.13891061
 30
0.0
 11
2150.27137022
 21
-880.18390553
 31
0.0
  0
LINE
  5
274
100
AcDbEntity
  8
Sc.1_5
 62
     9
  6
CONTINUOUS
370
    -2
100
AcDbLine
 10
2150.89837641
 20
-869.80557591
 30
0.0
 11
2150.27137824
 21
-870.85057084
 31
0.0
  0
LINE
  5
275
100
AcDbEntity
  8
Sc.1_5
 62
     9
  6
CONTINUOUS
370
    -2
100
AcDbLine
 10
2150.89838442
 20
-860.47224122
 30
0.0
 11
2150.27138625
 21
-861.51723615
 31
0.0
  0
LINE
  5
276
100
AcDbEntity
  8
Sc.1_5
 62
     9
  6
CONTINUOUS
370
    -2
100
AcDbLine
 10
2150.89839244
 20
-851.13890653
 30
0.0
 11
2150.27139427
 21
-852.18390146
 31
0.0
  0
LINE
  5
277
100
AcDbEntity
  8
Sc.1_5
 62
     9
  6
CONTINUOUS
370
    -2
100
AcDbLine
 10
2150.89840046
 20
-841.80557184
 30
0.0
 11
2150.27140229
 21
-842.85056677
 31
0.0
  0
LINE
  5
278
100
AcDbEntity
  8
Sc.1_5
 62
     9
  6
CONTINUOUS
370
    -2
100
AcDbLine
 10
2150.89840848
 20
-832.47223715
 30
0.0
 11
2150.27141031
 21
-833.51723208
 31
0.0
  0
LINE
  5
279
100
AcDbEntity
  8
Sc.1_5
 62
     9
  6
CONTINUOUS
370
    -2
100
AcDbLine
 10
2150.89841649
 20
-823.13890245
 30
0.0
 11
2150.27141833
 21
-824.18389738
 31
0.0
  0
LINE
  5
27A
100
AcDbEntity
  8
Sc.1_5
 62
     9
  6
CONTINUOUS
370
    -2
100
AcDbLine
 10
2124.19288877
 20
-894.17696909
 30
0.0
 11
2123.56589231
 21
-893.13197313
 31
0.0
  0
LINE
  5
27B
100
AcDbEntity
  8
Sc.1_5
 62
     9
  6
CONTINUOUS
370
    -2
100
AcDbLine
 10
2124.19289604
 20
-884.8436344
 30
0.0
 11
2123.56589959
 21
-883.79863844
 31
0.0
  0
LINE
  5
27C
100
AcDbEntity
  8
Sc.1_5
 62
     9
  6
CONTINUOUS
370
    -2
100
AcDbLine
 10
2124.19290332
 20
-875.5102997
 30
0.0
 11
2123.56590686
 21
-874.46530375
 31
0.0
  0
LINE
  5
27D
100
AcDbEntity
  8
Sc.1_5
 62
     9
  6
CONTINUOUS
370
    -2
100
AcDbLine
 10
2124.19291059
 20
-866.17696501
 30
0.0
 11
2123.56591413
 21
-865.13196906
 31
0.0
  0
LINE
  5
27E
100
AcDbEntity
  8
Sc.1_5
 62
     9
  6
CONTINUOUS
370
    -2
100
AcDbLine
 10
2124.19291786
 20
-856.84363032
 30
0.0
 11
2123.5659214
 21
-855.79863436
 31
0.0
  0
LINE
  5
27F
100
AcDbEntity
  8
Sc.1_5
 62
     9
  6
CONTINUOUS
370
    -2
100
AcDbLine
 10
2124.19292513
 20
-847.51029563
 30
0.0
 11
2123.56592868
 21
-846.46529967
 31
0.0
  0
LINE
  5
280
100
AcDbEntity
  8
Sc.1_5
 62
     9
  6
CONTINUOUS
370
    -2
100
AcDbLine
 10
2124.19293241
 20
-838.17696094
 30
0.0
 11
2123.56593595
 21
-837.13196498
 31
0.0
  0
LINE
  5
281
100
AcDbEntity
  8
Sc.1_5
 62
     9
  6
CONTINUOUS
370
    -2
100
AcDbLine
 10
2124.19293968
 20
-828.84362625
 30
0.0
 11
2123.56594322
 21
-827.79863029
 31
0.0
  0
LINE
  5
282
100
AcDbEntity
  8
Sc.1_5
 62
     9
  6
CONTINUOUS
370
    -2
100
AcDbLine
 10
2124.19294695
 20
-819.51029155
 30
0.0
 11
2124.12205748
 21
-819.39214222
 31
0.0
  0
LINE
  5
283
100
AcDbEntity
  8
Sc.1_5
 62
     9
  6
CONTINUOUS
370
    -2
100
AcDbLine
 10
2123.56594457
 20
-824.10110642
 30
0.0
 11
2124.19294267
 21
-823.05611145
 31
0.0
  0
LINE
  5
284
100
AcDbEntity
  8
Sc.1_5
 62
     9
  6
CONTINUOUS
370
    -2
100
AcDbLine
 10
2123.56593717
 20
-833.43444111
 30
0.0
 11
2124.19293527
 21
-832.38944614
 31
0.0
  0
LINE
  5
285
100
AcDbEntity
  8
Sc.1_5
 62
     9
  6
CONTINUOUS
370
    -2
100
AcDbLine
 10
2123.56592977
 20
-842.7677758
 30
0.0
 11
2124.19292787
 21
-841.72278083
 31
0.0
  0
LINE
  5
286
100
AcDbEntity
  8
Sc.1_5
 62
     9
  6
CONTINUOUS
370
    -2
100
AcDbLine
 10
2123.56592238
 20
-852.10111049
 30
0.0
 11
2124.19292048
 21
-851.05611552
 31
0.0
  0
LINE
  5
287
100
AcDbEntity
  8
Sc.1_5
 62
     9
  6
CONTINUOUS
370
    -2
100
AcDbLine
 10
2123.56591498
 20
-861.43444518
 30
0.0
 11
2124.19291308
 21
-860.38945021
 31
0.0
  0
LINE
  5
288
100
AcDbEntity
  8
Sc.1_5
 62
     9
  6
CONTINUOUS
370
    -2
100
AcDbLine
 10
2123.56590758
 20
-870.76777988
 30
0.0
 11
2124.19290568
 21
-869.72278491
 31
0.0
  0
LINE
  5
289
100
AcDbEntity
  8
Sc.1_5
 62
     9
  6
CONTINUOUS
370
    -2
100
AcDbLine
 10
2123.56590019
 20
-880.10111457
 30
0.0
 11
2124.19289829
 21
-879.0561196
 31
0.0
  0
LINE
  5
28A
100
AcDbEntity
  8
Sc.1_5
 62
     9
  6
CONTINUOUS
370
    -2
100
AcDbLine
 10
2123.56589279
 20
-889.43444926
 30
0.0
 11
2124.19289089
 21
-888.38945429
 31
0.0
  0
LINE
  5
28B
100
AcDbEntity
  8
Sc.1_5
 62
     9
  6
CONTINUOUS
370
    -2
100
AcDbLine
 10
2150.27135997
 20
-893.05613461
 30
0.0
 11
2149.53854248
 21
-892.32331598
 31
0.0
  0
LINE
  5
28C
100
AcDbEntity
  8
Sc.1_5
 62
     9
  6
CONTINUOUS
370
    -2
100
AcDbLine
 10
2150.2713673
 20
-883.72279907
 30
0.0
 11
2149.53854982
 21
-882.98998043
 31
0.0
  0
LINE
  5
28D
100
AcDbEntity
  8
Sc.1_5
 62
     9
  6
CONTINUOUS
370
    -2
100
AcDbLine
 10
2150.27137464
 20
-874.38946353
 30
0.0
 11
2149.53855715
 21
-873.65664489
 31
0.0
  0
LINE
  5
28E
100
AcDbEntity
  8
Sc.1_5
 62
     9
  6
CONTINUOUS
370
    -2
100
AcDbLine
 10
2150.27138197
 20
-865.05612799
 30
0.0
 11
2149.53856449
 21
-864.32330935
 31
0.0
  0
LINE
  5
28F
100
AcDbEntity
  8
Sc.1_5
 62
     9
  6
CONTINUOUS
370
    -2
100
AcDbLine
 10
2150.27138931
 20
-855.72279245
 30
0.0
 11
2149.53857182
 21
-854.98997381
 31
0.0
  0
LINE
  5
290
100
AcDbEntity
  8
Sc.1_5
 62
     9
  6
CONTINUOUS
370
    -2
100
AcDbLine
 10
2150.27139664
 20
-846.38945691
 30
0.0
 11
2149.53857916
 21
-845.65663827
 31
0.0
  0
LINE
  5
291
100
AcDbEntity
  8
Sc.1_5
 62
     9
  6
CONTINUOUS
370
    -2
100
AcDbLine
 10
2150.27140398
 20
-837.05612137
 30
0.0
 11
2149.53858649
 21
-836.32330273
 31
0.0
  0
LINE
  5
292
100
AcDbEntity
  8
Sc.1_5
 62
     9
  6
CONTINUOUS
370
    -2
100
AcDbLine
 10
2150.27141131
 20
-827.72278583
 30
0.0
 11
2149.53859382
 21
-826.98996719
 31
0.0
  0
LINE
  5
293
100
AcDbEntity
  8
Sc.1_5
 62
     9
  6
CONTINUOUS
370
    -2
100
AcDbLine
 10
2150.27136276
 20
-889.51032914
 30
0.0
 11
2149.53854412
 21
-890.24314662
 31
0.0
  0
LINE
  5
294
100
AcDbEntity
  8
Sc.1_5
 62
     9
  6
CONTINUOUS
370
    -2
100
AcDbLine
 10
2150.27137009
 20
-880.1769936
 30
0.0
 11
2149.53855145
 21
-880.90981108
 31
0.0
  0
LINE
  5
295
100
AcDbEntity
  8
Sc.1_5
 62
     9
  6
CONTINUOUS
370
    -2
100
AcDbLine
 10
2150.27137742
 20
-870.84365806
 30
0.0
 11
2149.53855879
 21
-871.57647554
 31
0.0
  0
LINE
  5
296
100
AcDbEntity
  8
Sc.1_5
 62
     9
  6
CONTINUOUS
370
    -2
100
AcDbLine
 10
2150.27138476
 20
-861.51032252
 30
0.0
 11
2149.53856612
 21
-862.24314
 31
0.0
  0
LINE
  5
297
100
AcDbEntity
  8
Sc.1_5
 62
     9
  6
CONTINUOUS
370
    -2
100
AcDbLine
 10
2150.27139209
 20
-852.17698698
 30
0.0
 11
2149.53857346
 21
-852.90980446
 31
0.0
  0
LINE
  5
298
100
AcDbEntity
  8
Sc.1_5
 62
     9
  6
CONTINUOUS
370
    -2
100
AcDbLine
 10
2150.27139943
 20
-842.84365144
 30
0.0
 11
2149.53858079
 21
-843.57646892
 31
0.0
  0
LINE
  5
299
100
AcDbEntity
  8
Sc.1_5
 62
     9
  6
CONTINUOUS
370
    -2
100
AcDbLine
 10
2150.27140676
 20
-833.5103159
 30
0.0
 11
2149.53858812
 21
-834.24313338
 31
0.0
  0
LINE
  5
29A
100
AcDbEntity
  8
Sc.1_5
 62
     9
  6
CONTINUOUS
370
    -2
100
AcDbLine
 10
2150.2714141
 20
-824.17698036
 30
0.0
 11
2149.53859546
 21
-824.90979784
 31
0.0
  0
LINE
  5
29B
100
AcDbEntity
  8
Sc.1_5
 62
     9
  6
CONTINUOUS
370
    -2
100
AcDbLine
 10
2124.92570576
 20
-894.90978767
 30
0.0
 11
2124.19288827
 21
-894.17696903
 31
0.0
  0
LINE
  5
29C
100
AcDbEntity
  8
Sc.1_5
 62
     9
  6
CONTINUOUS
370
    -2
100
AcDbLine
 10
2124.92571309
 20
-885.57645213
 30
0.0
 11
2124.1928956
 21
-884.84363349
 31
0.0
  0
LINE
  5
29D
100
AcDbEntity
  8
Sc.1_5
 62
     9
  6
CONTINUOUS
370
    -2
100
AcDbLine
 10
2124.92572042
 20
-876.24311659
 30
0.0
 11
2124.19290294
 21
-875.51029795
 31
0.0
  0
LINE
  5
29E
100
AcDbEntity
  8
Sc.1_5
 62
     9
  6
CONTINUOUS
370
    -2
100
AcDbLine
 10
2124.92572776
 20
-866.90978105
 30
0.0
 11
2124.19291027
 21
-866.17696241
 31
0.0
  0
LINE
  5
29F
100
AcDbEntity
  8
Sc.1_5
 62
     9
  6
CONTINUOUS
370
    -2
100
AcDbLine
 10
2124.92573509
 20
-857.57644551
 30
0.0
 11
2124.19291761
 21
-856.84362687
 31
0.0
  0
LINE
  5
2A0
100
AcDbEntity
  8
Sc.1_5
 62
     9
  6
CONTINUOUS
370
    -2
100
AcDbLine
 10
2124.92574243
 20
-848.24310997
 30
0.0
 11
2124.19292494
 21
-847.51029133
 31
0.0
  0
LINE
  5
2A1
100
AcDbEntity
  8
Sc.1_5
 62
     9
  6
CONTINUOUS
370
    -2
100
AcDbLine
 10
2124.92574976
 20
-838.90977443
 30
0.0
 11
2124.19293228
 21
-838.17695579
 31
0.0
  0
LINE
  5
2A2
100
AcDbEntity
  8
Sc.1_5
 62
     9
  6
CONTINUOUS
370
    -2
100
AcDbLine
 10
2124.9257571
 20
-829.57643889
 30
0.0
 11
2124.19293961
 21
-828.84362025
 31
0.0
  0
LINE
  5
2A3
100
AcDbEntity
  8
Sc.1_5
 62
     9
  6
CONTINUOUS
370
    -2
100
AcDbLine
 10
2124.92576443
 20
-820.24310335
 30
0.0
 11
2124.19294695
 21
-819.51028471
 31
0.0
  0
LINE
  5
2A4
100
AcDbEntity
  8
Sc.1_5
 62
     9
  6
CONTINUOUS
370
    -2
100
AcDbLine
 10
2124.192947
 20
-823.05610515
 30
0.0
 11
2124.92576564
 21
-822.32328767
 31
0.0
  0
LINE
  5
2A5
100
AcDbEntity
  8
Sc.1_5
 62
     9
  6
CONTINUOUS
370
    -2
100
AcDbLine
 10
2124.19293967
 20
-832.38944069
 30
0.0
 11
2124.9257583
 21
-831.65662321
 31
0.0
  0
LINE
  5
2A6
100
AcDbEntity
  8
Sc.1_5
 62
     9
  6
CONTINUOUS
370
    -2
100
AcDbLine
 10
2124.19293233
 20
-841.72277623
 30
0.0
 11
2124.92575097
 21
-840.98995875
 31
0.0
  0
LINE
  5
2A7
100
AcDbEntity
  8
Sc.1_5
 62
     9
  6
CONTINUOUS
370
    -2
100
AcDbLine
 10
2124.192925
 20
-851.05611177
 30
0.0
 11
2124.92574363
 21
-850.32329429
 31
0.0
  0
LINE
  5
2A8
100
AcDbEntity
  8
Sc.1_5
 62
     9
  6
CONTINUOUS
370
    -2
100
AcDbLine
 10
2124.19291766
 20
-860.38944731
 30
0.0
 11
2124.9257363
 21
-859.65662983
 31
0.0
  0
LINE
  5
2A9
100
AcDbEntity
  8
Sc.1_5
 62
     9
  6
CONTINUOUS
370
    -2
100
AcDbLine
 10
2124.19291033
 20
-869.72278285
 30
0.0
 11
2124.92572896
 21
-868.98996537
 31
0.0
  0
LINE
  5
2AA
100
AcDbEntity
  8
Sc.1_5
 62
     9
  6
CONTINUOUS
370
    -2
100
AcDbLine
 10
2124.19290299
 20
-879.05611839
 30
0.0
 11
2124.92572163
 21
-878.32330091
 31
0.0
  0
LINE
  5
2AB
100
AcDbEntity
  8
Sc.1_5
 62
     9
  6
CONTINUOUS
370
    -2
100
AcDbLine
 10
2124.19289566
 20
-888.38945393
 30
0.0
 11
2124.9257143
 21
-887.65663645
 31
0.0
  0
LINE
  5
2AC
100
AcDbEntity
  8
Sc.1_5
 62
     9
  6
CONTINUOUS
370
    -2
100
AcDbLine
 10
2149.53854067
 20
-892.32331738
 30
0.0
 11
2148.6340681
 21
-891.72033464
 31
0.0
  0
LINE
  5
2AD
100
AcDbEntity
  8
Sc.1_5
 62
     9
  6
CONTINUOUS
370
    -2
100
AcDbLine
 10
2149.53854694
 20
-882.98998294
 30
0.0
 11
2148.63407437
 21
-882.3870002
 31
0.0
  0
LINE
  5
2AE
100
AcDbEntity
  8
Sc.1_5
 62
     9
  6
CONTINUOUS
370
    -2
100
AcDbLine
 10
2149.53855322
 20
-873.6566485
 30
0.0
 11
2148.63408065
 21
-873.05366576
 31
0.0
  0
LINE
  5
2AF
100
AcDbEntity
  8
Sc.1_5
 62
     9
  6
CONTINUOUS
370
    -2
100
AcDbLine
 10
2149.5385595
 20
-864.32331406
 30
0.0
 11
2148.63408693
 21
-863.72033132
 31
0.0
  0
LINE
  5
2B0
100
AcDbEntity
  8
Sc.1_5
 62
     9
  6
CONTINUOUS
370
    -2
100
AcDbLine
 10
2149.53856578
 20
-854.98997962
 30
0.0
 11
2148.63409321
 21
-854.38699688
 31
0.0
  0
LINE
  5
2B1
100
AcDbEntity
  8
Sc.1_5
 62
     9
  6
CONTINUOUS
370
    -2
100
AcDbLine
 10
2149.53857206
 20
-845.65664517
 30
0.0
 11
2148.63409949
 21
-845.05366244
 31
0.0
  0
LINE
  5
2B2
100
AcDbEntity
  8
Sc.1_5
 62
     9
  6
CONTINUOUS
370
    -2
100
AcDbLine
 10
2149.53857833
 20
-836.32331073
 30
0.0
 11
2148.63410576
 21
-835.720328
 31
0.0
  0
LINE
  5
2B3
100
AcDbEntity
  8
Sc.1_5
 62
     9
  6
CONTINUOUS
370
    -2
100
AcDbLine
 10
2149.53858461
 20
-826.98997629
 30
0.0
 11
2148.63411204
 21
-826.38699356
 31
0.0
  0
LINE
  5
2B4
100
AcDbEntity
  8
Sc.1_5
 62
     9
  6
CONTINUOUS
370
    -2
100
AcDbLine
 10
2149.53854398
 20
-890.24314819
 30
0.0
 11
2148.63407042
 21
-890.84612944
 31
0.0
  0
LINE
  5
2B5
100
AcDbEntity
  8
Sc.1_5
 62
     9
  6
CONTINUOUS
370
    -2
100
AcDbLine
 10
2149.53855299
 20
-880.90981375
 30
0.0
 11
2148.63407943
 21
-881.512795
 31
0.0
  0
LINE
  5
2B6
100
AcDbEntity
  8
Sc.1_5
 62
     9
  6
CONTINUOUS
370
    -2
100
AcDbLine
 10
2149.538562
 20
-871.57647931
 30
0.0
 11
2148.63408845
 21
-872.17946056
 31
0.0
  0
LINE
  5
2B7
100
AcDbEntity
  8
Sc.1_5
 62
     9
  6
CONTINUOUS
370
    -2
100
AcDbLine
 10
2149.53857102
 20
-862.24314487
 30
0.0
 11
2148.63409746
 21
-862.84612612
 31
0.0
  0
LINE
  5
2B8
100
AcDbEntity
  8
Sc.1_5
 62
     9
  6
CONTINUOUS
370
    -2
100
AcDbLine
 10
2149.53858003
 20
-852.90981043
 30
0.0
 11
2148.63410647
 21
-853.51279168
 31
0.0
  0
LINE
  5
2B9
100
AcDbEntity
  8
Sc.1_5
 62
     9
  6
CONTINUOUS
370
    -2
100
AcDbLine
 10
2149.53858904
 20
-843.57647599
 30
0.0
 11
2148.63411548
 21
-844.17945724
 31
0.0
  0
LINE
  5
2BA
100
AcDbEntity
  8
Sc.1_5
 62
     9
  6
CONTINUOUS
370
    -2
100
AcDbLine
 10
2149.53859805
 20
-834.24314155
 30
0.0
 11
2148.6341245
 21
-834.8461228
 31
0.0
  0
LINE
  5
2BB
100
AcDbEntity
  8
Sc.1_5
 62
     9
  6
CONTINUOUS
370
    -2
100
AcDbLine
 10
2149.53860707
 20
-824.90980711
 30
0.0
 11
2148.63413351
 21
-825.51278836
 31
0.0
  0
LINE
  5
2BC
100
AcDbEntity
  8
Sc.1_5
 62
     9
  6
CONTINUOUS
370
    -2
100
AcDbLine
 10
2125.83017616
 20
-895.51277341
 30
0.0
 11
2124.92570359
 21
-894.90979068
 31
0.0
  0
LINE
  5
2BD
100
AcDbEntity
  8
Sc.1_5
 62
     9
  6
CONTINUOUS
370
    -2
100
AcDbLine
 10
2125.83018244
 20
-886.17943897
 30
0.0
 11
2124.92570987
 21
-885.57645624
 31
0.0
  0
LINE
  5
2BE
100
AcDbEntity
  8
Sc.1_5
 62
     9
  6
CONTINUOUS
370
    -2
100
AcDbLine
 10
2125.83018871
 20
-876.84610453
 30
0.0
 11
2124.92571614
 21
-876.2431218
 31
0.0
  0
LINE
  5
2BF
100
AcDbEntity
  8
Sc.1_5
 62
     9
  6
CONTINUOUS
370
    -2
100
AcDbLine
 10
2125.83019499
 20
-867.51277009
 30
0.0
 11
2124.92572242
 21
-866.90978736
 31
0.0
  0
LINE
  5
2C0
100
AcDbEntity
  8
Sc.1_5
 62
     9
  6
CONTINUOUS
370
    -2
100
AcDbLine
 10
2125.83020127
 20
-858.17943565
 30
0.0
 11
2124.9257287
 21
-857.57645292
 31
0.0
  0
LINE
  5
2C1
100
AcDbEntity
  8
Sc.1_5
 62
     9
  6
CONTINUOUS
370
    -2
100
AcDbLine
 10
2125.83020755
 20
-848.84610121
 30
0.0
 11
2124.92573498
 21
-848.24311848
 31
0.0
  0
LINE
  5
2C2
100
AcDbEntity
  8
Sc.1_5
 62
     9
  6
CONTINUOUS
370
    -2
100
AcDbLine
 10
2125.83021383
 20
-839.51276677
 30
0.0
 11
2124.92574126
 21
-838.90978404
 31
0.0
  0
LINE
  5
2C3
100
AcDbEntity
  8
Sc.1_5
 62
     9
  6
CONTINUOUS
370
    -2
100
AcDbLine
 10
2125.8302201
 20
-830.17943233
 30
0.0
 11
2124.92574753
 21
-829.5764496
 31
0.0
  0
LINE
  5
2C4
100
AcDbEntity
  8
Sc.1_5
 62
     9
  6
CONTINUOUS
370
    -2
100
AcDbLine
 10
2125.83022638
 20
-820.84609789
 30
0.0
 11
2124.92575381
 21
-820.24311516
 31
0.0
  0
LINE
  5
2C5
100
AcDbEntity
  8
Sc.1_5
 62
     9
  6
CONTINUOUS
370
    -2
100
AcDbLine
 10
2124.92576637
 20
-822.32329264
 30
0.0
 11
2125.83023988
 21
-821.72031133
 31
0.0
  0
LINE
  5
2C6
100
AcDbEntity
  8
Sc.1_5
 62
     9
  6
CONTINUOUS
370
    -2
100
AcDbLine
 10
2124.92575798
 20
-831.65662708
 30
0.0
 11
2125.83023149
 21
-831.05364577
 31
0.0
  0
LINE
  5
2C7
100
AcDbEntity
  8
Sc.1_5
 62
     9
  6
CONTINUOUS
370
    -2
100
AcDbLine
 10
2124.92574959
 20
-840.98996152
 30
0.0
 11
2125.8302231
 21
-840.38698021
 31
0.0
  0
LINE
  5
2C8
100
AcDbEntity
  8
Sc.1_5
 62
     9
  6
CONTINUOUS
370
    -2
100
AcDbLine
 10
2124.92574119
 20
-850.32329596
 30
0.0
 11
2125.83021471
 21
-849.72031465
 31
0.0
  0
LINE
  5
2C9
100
AcDbEntity
  8
Sc.1_5
 62
     9
  6
CONTINUOUS
370
    -2
100
AcDbLine
 10
2124.9257328
 20
-859.6566304
 30
0.0
 11
2125.83020632
 21
-859.05364909
 31
0.0
  0
LINE
  5
2CA
100
AcDbEntity
  8
Sc.1_5
 62
     9
  6
CONTINUOUS
370
    -2
100
AcDbLine
 10
2124.92572441
 20
-868.98996484
 30
0.0
 11
2125.83019793
 21
-868.38698353
 31
0.0
  0
LINE
  5
2CB
100
AcDbEntity
  8
Sc.1_5
 62
     9
  6
CONTINUOUS
370
    -2
100
AcDbLine
 10
2124.92571602
 20
-878.32329928
 30
0.0
 11
2125.83018954
 21
-877.72031797
 31
0.0
  0
LINE
  5
2CC
100
AcDbEntity
  8
Sc.1_5
 62
     9
  6
CONTINUOUS
370
    -2
100
AcDbLine
 10
2124.92570763
 20
-887.65663372
 30
0.0
 11
2125.83018115
 21
-887.05365241
 31
0.0
  0
LINE
  5
2CD
100
AcDbEntity
  8
Sc.1_5
 62
     9
  6
CONTINUOUS
370
    -2
100
AcDbLine
 10
2148.63407171
 20
-891.72033638
 30
0.0
 11
2147.32275639
 21
-891.28323005
 31
0.0
  0
LINE
  5
2CE
100
AcDbEntity
  8
Sc.1_5
 62
     9
  6
CONTINUOUS
370
    -2
100
AcDbLine
 10
2148.63407858
 20
-882.38700128
 30
0.0
 11
2147.32276325
 21
-881.94989495
 31
0.0
  0
LINE
  5
2CF
100
AcDbEntity
  8
Sc.1_5
 62
     9
  6
CONTINUOUS
370
    -2
100
AcDbLine
 10
2148.63408544
 20
-873.05366617
 30
0.0
 11
2147.32277012
 21
-872.61655985
 31
0.0
  0
LINE
  5
2D0
100
AcDbEntity
  8
Sc.1_5
 62
     9
  6
CONTINUOUS
370
    -2
100
AcDbLine
 10
2148.63409231
 20
-863.72033107
 30
0.0
 11
2147.32277699
 21
-863.28322474
 31
0.0
  0
LINE
  5
2D1
100
AcDbEntity
  8
Sc.1_5
 62
     9
  6
CONTINUOUS
370
    -2
100
AcDbLine
 10
2148.63409918
 20
-854.38699597
 30
0.0
 11
2147.32278385
 21
-853.94988964
 31
0.0
  0
LINE
  5
2D2
100
AcDbEntity
  8
Sc.1_5
 62
     9
  6
CONTINUOUS
370
    -2
100
AcDbLine
 10
2148.63410604
 20
-845.05366087
 30
0.0
 11
2147.32279072
 21
-844.61655454
 31
0.0
  0
LINE
  5
2D3
100
AcDbEntity
  8
Sc.1_5
 62
     9
  6
CONTINUOUS
370
    -2
100
AcDbLine
 10
2148.63411291
 20
-835.72032576
 30
0.0
 11
2147.32279759
 21
-835.28321944
 31
0.0
  0
LINE
  5
2D4
100
AcDbEntity
  8
Sc.1_5
 62
     9
  6
CONTINUOUS
370
    -2
100
AcDbLine
 10
2148.63411978
 20
-826.38699066
 30
0.0
 11
2147.32280445
 21
-825.94988433
 31
0.0
  0
LINE
  5
2D5
100
AcDbEntity
  8
Sc.1_5
 62
     9
  6
CONTINUOUS
370
    -2
100
AcDbLine
 10
2148.63407287
 20
-890.84612524
 30
0.0
 11
2147.32275686
 21
-891.2832295
 31
0.0
  0
LINE
  5
2D6
100
AcDbEntity
  8
Sc.1_5
 62
     9
  6
CONTINUOUS
370
    -2
100
AcDbLine
 10
2148.63408067
 20
-881.51279013
 30
0.0
 11
2147.32276466
 21
-881.9498944
 31
0.0
  0
LINE
  5
2D7
100
AcDbEntity
  8
Sc.1_5
 62
     9
  6
CONTINUOUS
370
    -2
100
AcDbLine
 10
2148.63408847
 20
-872.17945503
 30
0.0
 11
2147.32277246
 21
-872.6165593
 31
0.0
  0
LINE
  5
2D8
100
AcDbEntity
  8
Sc.1_5
 62
     9
  6
CONTINUOUS
370
    -2
100
AcDbLine
 10
2148.63409627
 20
-862.84611993
 30
0.0
 11
2147.32278026
 21
-863.2832242
 31
0.0
  0
LINE
  5
2D9
100
AcDbEntity
  8
Sc.1_5
 62
     9
  6
CONTINUOUS
370
    -2
100
AcDbLine
 10
2148.63410407
 20
-853.51278483
 30
0.0
 11
2147.32278807
 21
-853.94988909
 31
0.0
  0
LINE
  5
2DA
100
AcDbEntity
  8
Sc.1_5
 62
     9
  6
CONTINUOUS
370
    -2
100
AcDbLine
 10
2148.63411188
 20
-844.17944972
 30
0.0
 11
2147.32279587
 21
-844.61655399
 31
0.0
  0
LINE
  5
2DB
100
AcDbEntity
  8
Sc.1_5
 62
     9
  6
CONTINUOUS
370
    -2
100
AcDbLine
 10
2148.63411968
 20
-834.84611462
 30
0.0
 11
2147.32280367
 21
-835.28321889
 31
0.0
  0
LINE
  5
2DC
100
AcDbEntity
  8
Sc.1_5
 62
     9
  6
CONTINUOUS
370
    -2
100
AcDbLine
 10
2148.63412748
 20
-825.51277952
 30
0.0
 11
2147.32281147
 21
-825.94988378
 31
0.0
  0
LINE
  5
2DD
100
AcDbEntity
  8
Sc.1_5
 62
     9
  6
CONTINUOUS
370
    -2
100
AcDbLine
 10
2127.14148232
 20
-895.9498784
 30
0.0
 11
2125.83017841
 21
-895.51277588
 31
0.0
  0
LINE
  5
2DE
100
AcDbEntity
  8
Sc.1_5
 62
     9
  6
CONTINUOUS
370
    -2
100
AcDbLine
 10
2127.1415006
 20
-886.6165471
 30
0.0
 11
2125.83018528
 21
-886.17944077
 31
0.0
  0
LINE
  5
2DF
100
AcDbEntity
  8
Sc.1_5
 62
     9
  6
CONTINUOUS
370
    -2
100
AcDbLine
 10
2127.14150747
 20
-877.283212
 30
0.0
 11
2125.83019214
 21
-876.84610567
 31
0.0
  0
LINE
  5
2E0
100
AcDbEntity
  8
Sc.1_5
 62
     9
  6
CONTINUOUS
370
    -2
100
AcDbLine
 10
2127.14151433
 20
-867.9498769
 30
0.0
 11
2125.83019901
 21
-867.51277057
 31
0.0
  0
LINE
  5
2E1
100
AcDbEntity
  8
Sc.1_5
 62
     9
  6
CONTINUOUS
370
    -2
100
AcDbLine
 10
2127.1415212
 20
-858.61654179
 30
0.0
 11
2125.83020588
 21
-858.17943546
 31
0.0
  0
LINE
  5
2E2
100
AcDbEntity
  8
Sc.1_5
 62
     9
  6
CONTINUOUS
370
    -2
100
AcDbLine
 10
2127.14152807
 20
-849.28320669
 30
0.0
 11
2125.83021274
 21
-848.84610036
 31
0.0
  0
LINE
  5
2E3
100
AcDbEntity
  8
Sc.1_5
 62
     9
  6
CONTINUOUS
370
    -2
100
AcDbLine
 10
2127.14153493
 20
-839.94987159
 30
0.0
 11
2125.83021961
 21
-839.51276526
 31
0.0
  0
LINE
  5
2E4
100
AcDbEntity
  8
Sc.1_5
 62
     9
  6
CONTINUOUS
370
    -2
100
AcDbLine
 10
2127.1415418
 20
-830.61653648
 30
0.0
 11
2125.83022648
 21
-830.17943016
 31
0.0
  0
LINE
  5
2E5
100
AcDbEntity
  8
Sc.1_5
 62
     9
  6
CONTINUOUS
370
    -2
100
AcDbLine
 10
2127.14154866
 20
-821.28320138
 30
0.0
 11
2125.83023334
 21
-820.84609505
 31
0.0
  0
LINE
  5
2E6
100
AcDbEntity
  8
Sc.1_5
 62
     9
  6
CONTINUOUS
370
    -2
100
AcDbLine
 10
2125.83024086
 20
-821.7203064
 30
0.0
 11
2127.14155687
 21
-821.28320214
 31
0.0
  0
LINE
  5
2E7
100
AcDbEntity
  8
Sc.1_5
 62
     9
  6
CONTINUOUS
370
    -2
100
AcDbLine
 10
2125.83023306
 20
-831.05364151
 30
0.0
 11
2127.14154907
 21
-830.61653724
 31
0.0
  0
LINE
  5
2E8
100
AcDbEntity
  8
Sc.1_5
 62
     9
  6
CONTINUOUS
370
    -2
100
AcDbLine
 10
2125.83022525
 20
-840.38697661
 30
0.0
 11
2127.14154126
 21
-839.94987234
 31
0.0
  0
LINE
  5
2E9
100
AcDbEntity
  8
Sc.1_5
 62
     9
  6
CONTINUOUS
370
    -2
100
AcDbLine
 10
2125.83021745
 20
-849.72031171
 30
0.0
 11
2127.14153346
 21
-849.28320744
 31
0.0
  0
LINE
  5
2EA
100
AcDbEntity
  8
Sc.1_5
 62
     9
  6
CONTINUOUS
370
    -2
100
AcDbLine
 10
2125.83020965
 20
-859.05364681
 30
0.0
 11
2127.14152566
 21
-858.61654255
 31
0.0
  0
LINE
  5
2EB
100
AcDbEntity
  8
Sc.1_5
 62
     9
  6
CONTINUOUS
370
    -2
100
AcDbLine
 10
2125.83020185
 20
-868.38698192
 30
0.0
 11
2127.14151786
 21
-867.94987765
 31
0.0
  0
LINE
  5
2EC
100
AcDbEntity
  8
Sc.1_5
 62
     9
  6
CONTINUOUS
370
    -2
100
AcDbLine
 10
2125.83019404
 20
-877.72031702
 30
0.0
 11
2127.14151005
 21
-877.28321275
 31
0.0
  0
LINE
  5
2ED
100
AcDbEntity
  8
Sc.1_5
 62
     9
  6
CONTINUOUS
370
    -2
100
AcDbLine
 10
2125.83018624
 20
-887.05365212
 30
0.0
 11
2127.14150225
 21
-886.61654785
 31
0.0
  0
LINE
  5
2EE
100
AcDbEntity
  8
Sc.1_5
 62
     9
  6
CONTINUOUS
370
    -2
100
AcDbLine
 10
2146.56544664
 20
-891.28323008
 30
0.0
 11
2145.56439383
 21
-891.17200114
 31
0.0
  0
LINE
  5
2EF
100
AcDbEntity
  8
Sc.1_5
 62
     9
  6
CONTINUOUS
370
    -2
100
AcDbLine
 10
2146.56544257
 20
-881.94989663
 30
0.0
 11
2145.56438976
 21
-881.83866769
 31
0.0
  0
LINE
  5
2F0
100
AcDbEntity
  8
Sc.1_5
 62
     9
  6
CONTINUOUS
370
    -2
100
AcDbLine
 10
2146.5654385
 20
-872.61656318
 30
0.0
 11
2145.56438568
 21
-872.50533425
 31
0.0
  0
LINE
  5
2F1
100
AcDbEntity
  8
Sc.1_5
 62
     9
  6
CONTINUOUS
370
    -2
100
AcDbLine
 10
2146.56543443
 20
-863.28322974
 30
0.0
 11
2145.56438161
 21
-863.1720008
 31
0.0
  0
LINE
  5
2F2
100
AcDbEntity
  8
Sc.1_5
 62
     9
  6
CONTINUOUS
370
    -2
100
AcDbLine
 10
2146.56543036
 20
-853.94989629
 30
0.0
 11
2145.56437754
 21
-853.83866735
 31
0.0
  0
LINE
  5
2F3
100
AcDbEntity
  8
Sc.1_5
 62
     9
  6
CONTINUOUS
370
    -2
100
AcDbLine
 10
2146.56542628
 20
-844.61656285
 30
0.0
 11
2145.56437347
 21
-844.50533391
 31
0.0
  0
LINE
  5
2F4
100
AcDbEntity
  8
Sc.1_5
 62
     9
  6
CONTINUOUS
370
    -2
100
AcDbLine
 10
2146.56542221
 20
-835.2832294
 30
0.0
 11
2145.5643694
 21
-835.17200046
 31
0.0
  0
LINE
  5
2F5
100
AcDbEntity
  8
Sc.1_5
 62
     9
  6
CONTINUOUS
370
    -2
100
AcDbLine
 10
2146.56541814
 20
-825.94989596
 30
0.0
 11
2145.56436533
 21
-825.83866702
 31
0.0
  0
LINE
  5
2F6
100
AcDbEntity
  8
Sc.1_5
 62
     9
  6
CONTINUOUS
370
    -2
100
AcDbLine
 10
2146.56545805
 20
-891.28322995
 30
0.0
 11
2145.56440506
 21
-891.39445731
 31
0.0
  0
LINE
  5
2F7
100
AcDbEntity
  8
Sc.1_5
 62
     9
  6
CONTINUOUS
370
    -2
100
AcDbLine
 10
2146.56547679
 20
-881.9498965
 30
0.0
 11
2145.5644238
 21
-882.06112387
 31
0.0
  0
LINE
  5
2F8
100
AcDbEntity
  8
Sc.1_5
 62
     9
  6
CONTINUOUS
370
    -2
100
AcDbLine
 10
2146.56549553
 20
-872.61656306
 30
0.0
 11
2145.56444254
 21
-872.72779042
 31
0.0
  0
LINE
  5
2F9
100
AcDbEntity
  8
Sc.1_5
 62
     9
  6
CONTINUOUS
370
    -2
100
AcDbLine
 10
2146.56551427
 20
-863.28322961
 30
0.0
 11
2145.56446128
 21
-863.39445698
 31
0.0
  0
LINE
  5
2FA
100
AcDbEntity
  8
Sc.1_5
 62
     9
  6
CONTINUOUS
370
    -2
100
AcDbLine
 10
2146.56553301
 20
-853.94989616
 30
0.0
 11
2145.56448002
 21
-854.06112353
 31
0.0
  0
LINE
  5
2FB
100
AcDbEntity
  8
Sc.1_5
 62
     9
  6
CONTINUOUS
370
    -2
100
AcDbLine
 10
2146.56555175
 20
-844.61656272
 30
0.0
 11
2145.56449876
 21
-844.72779009
 31
0.0
  0
LINE
  5
2FC
100
AcDbEntity
  8
Sc.1_5
 62
     9
  6
CONTINUOUS
370
    -2
100
AcDbLine
 10
2146.56557049
 20
-835.28322927
 30
0.0
 11
2145.5645175
 21
-835.39445664
 31
0.0
  0
LINE
  5
2FD
100
AcDbEntity
  8
Sc.1_5
 62
     9
  6
CONTINUOUS
370
    -2
100
AcDbLine
 10
2146.56558923
 20
-825.94989583
 30
0.0
 11
2145.56453624
 21
-826.06112319
 31
0.0
  0
LINE
  5
2FE
100
AcDbEntity
  8
Sc.1_5
 62
     9
  6
CONTINUOUS
370
    -2
100
AcDbLine
 10
2127.8987331
 20
-821.28320863
 30
0.0
 11
2128.89978594
 21
-821.3944373
 31
0.0
  0
LINE
  5
2FF
100
AcDbEntity
  8
Sc.1_5
 62
     9
  6
CONTINUOUS
370
    -2
100
AcDbLine
 10
2127.89873965
 20
-830.61654207
 30
0.0
 11
2128.8997925
 21
-830.72777075
 31
0.0
  0
LINE
  5
300
100
AcDbEntity
  8
Sc.1_5
 62
     9
  6
CONTINUOUS
370
    -2
100
AcDbLine
 10
2127.89874621
 20
-839.94987552
 30
0.0
 11
2128.89979905
 21
-840.06110419
 31
0.0
  0
LINE
  5
301
100
AcDbEntity
  8
Sc.1_5
 62
     9
  6
CONTINUOUS
370
    -2
100
AcDbLine
 10
2127.89875277
 20
-849.28320896
 30
0.0
 11
2128.89980561
 21
-849.39443764
 31
0.0
  0
LINE
  5
302
100
AcDbEntity
  8
Sc.1_5
 62
     9
  6
CONTINUOUS
370
    -2
100
AcDbLine
 10
2127.89875932
 20
-858.61654241
 30
0.0
 11
2128.89981217
 21
-858.72777108
 31
0.0
  0
LINE
  5
303
100
AcDbEntity
  8
Sc.1_5
 62
     9
  6
CONTINUOUS
370
    -2
100
AcDbLine
 10
2127.89876588
 20
-867.94987585
 30
0.0
 11
2128.89981873
 21
-868.06110453
 31
0.0
  0
LINE
  5
304
100
AcDbEntity
  8
Sc.1_5
 62
     9
  6
CONTINUOUS
370
    -2
100
AcDbLine
 10
2127.89877244
 20
-877.2832093
 30
0.0
 11
2128.89982528
 21
-877.39443797
 31
0.0
  0
LINE
  5
305
100
AcDbEntity
  8
Sc.1_5
 62
     9
  6
CONTINUOUS
370
    -2
100
AcDbLine
 10
2127.898779
 20
-886.61654275
 30
0.0
 11
2128.89983184
 21
-886.72777142
 31
0.0
  0
LINE
  5
306
100
AcDbEntity
  8
Sc.1_5
 62
     9
  6
CONTINUOUS
370
    -2
100
AcDbLine
 10
2127.89893548
 20
-821.28321292
 30
0.0
 11
2128.89998847
 21
-821.17198555
 31
0.0
  0
LINE
  5
307
100
AcDbEntity
  8
Sc.1_5
 62
     9
  6
CONTINUOUS
370
    -2
100
AcDbLine
 10
2127.89891674
 20
-830.61654636
 30
0.0
 11
2128.89996973
 21
-830.505319
 31
0.0
  0
LINE
  5
308
100
AcDbEntity
  8
Sc.1_5
 62
     9
  6
CONTINUOUS
370
    -2
100
AcDbLine
 10
2127.898898
 20
-839.94987981
 30
0.0
 11
2128.89995098
 21
-839.83865244
 31
0.0
  0
LINE
  5
309
100
AcDbEntity
  8
Sc.1_5
 62
     9
  6
CONTINUOUS
370
    -2
100
AcDbLine
 10
2127.89887925
 20
-849.28321325
 30
0.0
 11
2128.89993224
 21
-849.17198589
 31
0.0
  0
LINE
  5
30A
100
AcDbEntity
  8
Sc.1_5
 62
     9
  6
CONTINUOUS
370
    -2
100
AcDbLine
 10
2127.89886051
 20
-858.6165467
 30
0.0
 11
2128.8999135
 21
-858.50531933
 31
0.0
  0
LINE
  5
30B
100
AcDbEntity
  8
Sc.1_5
 62
     9
  6
CONTINUOUS
370
    -2
100
AcDbLine
 10
2127.89884177
 20
-867.94988015
 30
0.0
 11
2128.89989476
 21
-867.83865278
 31
0.0
  0
LINE
  5
30C
100
AcDbEntity
  8
Sc.1_5
 62
     9
  6
CONTINUOUS
370
    -2
100
AcDbLine
 10
2127.89882303
 20
-877.28321359
 30
0.0
 11
2128.89987602
 21
-877.17198623
 31
0.0
  0
LINE
  5
30D
100
AcDbEntity
  8
Sc.1_5
 62
     9
  6
CONTINUOUS
370
    -2
100
AcDbLine
 10
2127.89880429
 20
-886.61654704
 30
0.0
 11
2128.89985728
 21
-886.50531967
 31
0.0
  0
LINE
  5
30E
100
AcDbEntity
  8
Sc.1_5
 62
     9
  6
CONTINUOUS
370
    -2
100
AcDbLine
 10
2127.89880431
 20
-895.9498784
 30
0.0
 11
2128.89983854
 21
-895.83865312
 31
0.0
  0
ENDBLK
  5
30F
100
AcDbEntity
100
AcDbBlockEnd
  0
BLOCK
  5
310
100
AcDbEntity
  8
Sc.1_5
100
AcDbBlockBegin
  2
*X2060
 70
     1
 10
0.0
 20
0.0
 30
0.0
  3
*X2060
  1

  4
Cadwork hatch
  0
LINE
  5
311
100
AcDbEntity
  8
Sc.1_5
 62
     9
  6
CONTINUOUS
370
    -2
100
AcDbLine
 10
2123.23212345
 20
-954.01716323
 30
0.0
 11
2123.23212345
 21
-953.0497386
 31
0.0
  0
LINE
  5
312
100
AcDbEntity
  8
Sc.1_5
 62
     9
  6
CONTINUOUS
370
    -2
100
AcDbLine
 10
2147.32271698
 20
-1004.7254815
 30
0.0
 11
2146.56542172
 21
-1004.7254815
 31
0.0
  0
LINE
  5
313
100
AcDbEntity
  8
Sc.1_5
 62
     9
  6
CONTINUOUS
370
    -2
100
AcDbLine
 10
2147.32271698
 20
-995.39216272
 30
0.0
 11
2146.56542172
 21
-995.39216272
 31
0.0
  0
LINE
  5
314
100
AcDbEntity
  8
Sc.1_5
 62
     9
  6
CONTINUOUS
370
    -2
100
AcDbLine
 10
2147.32271698
 20
-986.05884395
 30
0.0
 11
2146.56542172
 21
-986.05884395
 31
0.0
  0
LINE
  5
315
100
AcDbEntity
  8
Sc.1_5
 62
     9
  6
CONTINUOUS
370
    -2
100
AcDbLine
 10
2147.32271698
 20
-976.72552518
 30
0.0
 11
2146.56542172
 21
-976.72552518
 31
0.0
  0
LINE
  5
316
100
AcDbEntity
  8
Sc.1_5
 62
     9
  6
CONTINUOUS
370
    -2
100
AcDbLine
 10
2147.32271698
 20
-967.3922064
 30
0.0
 11
2146.56542172
 21
-967.3922064
 31
0.0
  0
LINE
  5
317
100
AcDbEntity
  8
Sc.1_5
 62
     9
  6
CONTINUOUS
370
    -2
100
AcDbLine
 10
2147.32271698
 20
-958.05888763
 30
0.0
 11
2146.56542172
 21
-958.05888763
 31
0.0
  0
LINE
  5
318
100
AcDbEntity
  8
Sc.1_5
 62
     9
  6
CONTINUOUS
370
    -2
100
AcDbLine
 10
2127.89878417
 20
-1009.39214122
 30
0.0
 11
2127.14148891
 21
-1009.39214122
 31
0.0
  0
LINE
  5
319
100
AcDbEntity
  8
Sc.1_5
 62
     9
  6
CONTINUOUS
370
    -2
100
AcDbLine
 10
2127.89878417
 20
-1000.05882245
 30
0.0
 11
2127.14148891
 21
-1000.05882245
 31
0.0
  0
LINE
  5
31A
100
AcDbEntity
  8
Sc.1_5
 62
     9
  6
CONTINUOUS
370
    -2
100
AcDbLine
 10
2127.89878417
 20
-990.72550367
 30
0.0
 11
2127.14148891
 21
-990.72550367
 31
0.0
  0
LINE
  5
31B
100
AcDbEntity
  8
Sc.1_5
 62
     9
  6
CONTINUOUS
370
    -2
100
AcDbLine
 10
2127.89878417
 20
-981.3921849
 30
0.0
 11
2127.14148891
 21
-981.3921849
 31
0.0
  0
LINE
  5
31C
100
AcDbEntity
  8
Sc.1_5
 62
     9
  6
CONTINUOUS
370
    -2
100
AcDbLine
 10
2127.89878417
 20
-972.05886612
 30
0.0
 11
2127.14148891
 21
-972.05886612
 31
0.0
  0
LINE
  5
31D
100
AcDbEntity
  8
Sc.1_5
 62
     9
  6
CONTINUOUS
370
    -2
100
AcDbLine
 10
2127.89878417
 20
-962.72554735
 30
0.0
 11
2127.14148891
 21
-962.72554735
 31
0.0
  0
LINE
  5
31E
100
AcDbEntity
  8
Sc.1_5
 62
     9
  6
CONTINUOUS
370
    -2
100
AcDbLine
 10
2127.89878417
 20
-953.39222858
 30
0.0
 11
2127.14148891
 21
-953.39222858
 31
0.0
  0
LINE
  5
31F
100
AcDbEntity
  8
Sc.1_5
 62
     9
  6
CONTINUOUS
370
    -2
100
AcDbLine
 10
2145.5643729
 20
-1004.83671118
 30
0.0
 11
2128.8998353
 21
-1009.28091419
 31
0.0
  0
LINE
  5
320
100
AcDbEntity
  8
Sc.1_5
 62
     9
  6
CONTINUOUS
370
    -2
100
AcDbLine
 10
2145.56438891
 20
-995.50339431
 30
0.0
 11
2128.89985131
 21
-999.94759731
 31
0.0
  0
LINE
  5
321
100
AcDbEntity
  8
Sc.1_5
 62
     9
  6
CONTINUOUS
370
    -2
100
AcDbLine
 10
2145.56440492
 20
-986.17007744
 30
0.0
 11
2128.89986732
 21
-990.61428044
 31
0.0
  0
LINE
  5
322
100
AcDbEntity
  8
Sc.1_5
 62
     9
  6
CONTINUOUS
370
    -2
100
AcDbLine
 10
2145.56442092
 20
-976.83676056
 30
0.0
 11
2128.89988332
 21
-981.28096356
 31
0.0
  0
LINE
  5
323
100
AcDbEntity
  8
Sc.1_5
 62
     9
  6
CONTINUOUS
370
    -2
100
AcDbLine
 10
2145.56443693
 20
-967.50344369
 30
0.0
 11
2128.89989933
 21
-971.94764669
 31
0.0
  0
LINE
  5
324
100
AcDbEntity
  8
Sc.1_5
 62
     9
  6
CONTINUOUS
370
    -2
100
AcDbLine
 10
2145.56445294
 20
-958.17012681
 30
0.0
 11
2128.89991534
 21
-962.61432982
 31
0.0
  0
LINE
  5
325
100
AcDbEntity
  8
Sc.1_5
 62
     9
  6
CONTINUOUS
370
    -2
100
AcDbLine
 10
2129.76714751
 20
-953.04973832
 30
0.0
 11
2128.89993134
 21
-953.28101294
 31
0.0
  0
LINE
  5
326
100
AcDbEntity
  8
Sc.1_5
 62
     9
  6
CONTINUOUS
370
    -2
100
AcDbLine
 10
2145.5643729
 20
-1004.61425448
 30
0.0
 11
2128.8998353
 21
-1000.17005148
 31
0.0
  0
LINE
  5
327
100
AcDbEntity
  8
Sc.1_5
 62
     9
  6
CONTINUOUS
370
    -2
100
AcDbLine
 10
2145.56435689
 20
-995.28093761
 30
0.0
 11
2128.89981929
 21
-990.83673461
 31
0.0
  0
LINE
  5
328
100
AcDbEntity
  8
Sc.1_5
 62
     9
  6
CONTINUOUS
370
    -2
100
AcDbLine
 10
2145.56434089
 20
-985.94762073
 30
0.0
 11
2128.89980329
 21
-981.50341773
 31
0.0
  0
LINE
  5
329
100
AcDbEntity
  8
Sc.1_5
 62
     9
  6
CONTINUOUS
370
    -2
100
AcDbLine
 10
2145.56432488
 20
-976.61430386
 30
0.0
 11
2128.89978728
 21
-972.17010086
 31
0.0
  0
LINE
  5
32A
100
AcDbEntity
  8
Sc.1_5
 62
     9
  6
CONTINUOUS
370
    -2
100
AcDbLine
 10
2145.56430887
 20
-967.28098699
 30
0.0
 11
2128.89977127
 21
-962.83678398
 31
0.0
  0
LINE
  5
32B
100
AcDbEntity
  8
Sc.1_5
 62
     9
  6
CONTINUOUS
370
    -2
100
AcDbLine
 10
2145.56429287
 20
-957.94767011
 30
0.0
 11
2128.89975527
 21
-953.50346711
 31
0.0
  0
LINE
  5
32C
100
AcDbEntity
  8
Sc.1_5
 62
     9
  6
CONTINUOUS
370
    -2
100
AcDbLine
 10
2151.23208244
 20
-1008.76719154
 30
0.0
 11
2150.8983146
 21
-1007.54337619
 31
0.0
  0
LINE
  5
32D
100
AcDbEntity
  8
Sc.1_5
 62
     9
  6
CONTINUOUS
370
    -2
100
AcDbLine
 10
2151.23208244
 20
-999.43387214
 30
0.0
 11
2150.89831485
 21
-998.2100577
 31
0.0
  0
LINE
  5
32E
100
AcDbEntity
  8
Sc.1_5
 62
     9
  6
CONTINUOUS
370
    -2
100
AcDbLine
 10
2151.23208244
 20
-990.10055274
 30
0.0
 11
2150.8983151
 21
-988.87673922
 31
0.0
  0
LINE
  5
32F
100
AcDbEntity
  8
Sc.1_5
 62
     9
  6
CONTINUOUS
370
    -2
100
AcDbLine
 10
2151.23208244
 20
-980.76723335
 30
0.0
 11
2150.89831535
 21
-979.54342074
 31
0.0
  0
LINE
  5
330
100
AcDbEntity
  8
Sc.1_5
 62
     9
  6
CONTINUOUS
370
    -2
100
AcDbLine
 10
2151.23208244
 20
-971.43391395
 30
0.0
 11
2150.8983156
 21
-970.21010226
 31
0.0
  0
LINE
  5
331
100
AcDbEntity
  8
Sc.1_5
 62
     9
  6
CONTINUOUS
370
    -2
100
AcDbLine
 10
2151.23208244
 20
-962.10059455
 30
0.0
 11
2150.89831585
 21
-960.87678378
 31
0.0
  0
LINE
  5
332
100
AcDbEntity
  8
Sc.1_5
 62
     9
  6
CONTINUOUS
370
    -2
100
AcDbLine
 10
2151.23208095
 20
-1000.68377442
 30
0.0
 11
2150.89831327
 21
-1001.90758982
 31
0.0
  0
LINE
  5
333
100
AcDbEntity
  8
Sc.1_5
 62
     9
  6
CONTINUOUS
370
    -2
100
AcDbLine
 10
2151.23207945
 20
-991.35045594
 30
0.0
 11
2150.89831178
 21
-992.57427134
 31
0.0
  0
LINE
  5
334
100
AcDbEntity
  8
Sc.1_5
 62
     9
  6
CONTINUOUS
370
    -2
100
AcDbLine
 10
2151.23207796
 20
-982.01713746
 30
0.0
 11
2150.89831028
 21
-983.24095286
 31
0.0
  0
LINE
  5
335
100
AcDbEntity
  8
Sc.1_5
 62
     9
  6
CONTINUOUS
370
    -2
100
AcDbLine
 10
2151.23207647
 20
-972.68381898
 30
0.0
 11
2150.89830879
 21
-973.90763438
 31
0.0
  0
LINE
  5
336
100
AcDbEntity
  8
Sc.1_5
 62
     9
  6
CONTINUOUS
370
    -2
100
AcDbLine
 10
2151.23207497
 20
-963.3505005
 30
0.0
 11
2150.8983073
 21
-964.5743159
 31
0.0
  0
LINE
  5
337
100
AcDbEntity
  8
Sc.1_5
 62
     9
  6
CONTINUOUS
370
    -2
100
AcDbLine
 10
2151.23207348
 20
-954.01718201
 30
0.0
 11
2150.89830581
 21
-955.24099741
 31
0.0
  0
LINE
  5
338
100
AcDbEntity
  8
Sc.1_5
 62
     9
  6
CONTINUOUS
370
    -2
100
AcDbLine
 10
2123.56589028
 20
-1006.57424874
 30
0.0
 11
2123.23217784
 21
-1005.35063653
 31
0.0
  0
LINE
  5
339
100
AcDbEntity
  8
Sc.1_5
 62
     9
  6
CONTINUOUS
370
    -2
100
AcDbLine
 10
2123.56589053
 20
-997.24093026
 30
0.0
 11
2123.23216794
 21
-996.01728083
 31
0.0
  0
LINE
  5
33A
100
AcDbEntity
  8
Sc.1_5
 62
     9
  6
CONTINUOUS
370
    -2
100
AcDbLine
 10
2123.56589078
 20
-987.90761178
 30
0.0
 11
2123.23215804
 21
-986.68392513
 31
0.0
  0
LINE
  5
33B
100
AcDbEntity
  8
Sc.1_5
 62
     9
  6
CONTINUOUS
370
    -2
100
AcDbLine
 10
2123.56589103
 20
-978.5742933
 30
0.0
 11
2123.23214814
 21
-977.35056943
 31
0.0
  0
LINE
  5
33C
100
AcDbEntity
  8
Sc.1_5
 62
     9
  6
CONTINUOUS
370
    -2
100
AcDbLine
 10
2123.56589128
 20
-969.24097482
 30
0.0
 11
2123.23213824
 21
-968.01721373
 31
0.0
  0
LINE
  5
33D
100
AcDbEntity
  8
Sc.1_5
 62
     9
  6
CONTINUOUS
370
    -2
100
AcDbLine
 10
2123.56589153
 20
-959.90765634
 30
0.0
 11
2123.23212834
 21
-958.68385803
 31
0.0
  0
LINE
  5
33E
100
AcDbEntity
  8
Sc.1_5
 62
     9
  6
CONTINUOUS
370
    -2
100
AcDbLine
 10
2123.23212701
 20
-957.43392347
 30
0.0
 11
2123.56589003
 21
-956.21012577
 31
0.0
  0
LINE
  5
33F
100
AcDbEntity
  8
Sc.1_5
 62
     9
  6
CONTINUOUS
370
    -2
100
AcDbLine
 10
2123.23213691
 20
-966.76720656
 30
0.0
 11
2123.56589028
 21
-965.54344425
 31
0.0
  0
LINE
  5
340
100
AcDbEntity
  8
Sc.1_5
 62
     9
  6
CONTINUOUS
370
    -2
100
AcDbLine
 10
2123.23214681
 20
-976.10048966
 30
0.0
 11
2123.56589053
 21
-974.87676273
 31
0.0
  0
LINE
  5
341
100
AcDbEntity
  8
Sc.1_5
 62
     9
  6
CONTINUOUS
370
    -2
100
AcDbLine
 10
2123.23215671
 20
-985.43377275
 30
0.0
 11
2123.56589079
 21
-984.21008121
 31
0.0
  0
LINE
  5
342
100
AcDbEntity
  8
Sc.1_5
 62
     9
  6
CONTINUOUS
370
    -2
100
AcDbLine
 10
2123.23216662
 20
-994.76705585
 30
0.0
 11
2123.56589104
 21
-993.54339969
 31
0.0
  0
LINE
  5
343
100
AcDbEntity
  8
Sc.1_5
 62
     9
  6
CONTINUOUS
370
    -2
100
AcDbLine
 10
2123.23217652
 20
-1004.10033894
 30
0.0
 11
2123.56589129
 21
-1002.87671818
 31
0.0
  0
LINE
  5
344
100
AcDbEntity
  8
Sc.1_5
 62
     9
  6
CONTINUOUS
370
    -2
100
AcDbLine
 10
2150.89831452
 20
-1007.54337765
 30
0.0
 11
2150.27131821
 21
-1006.49838379
 31
0.0
  0
LINE
  5
345
100
AcDbEntity
  8
Sc.1_5
 62
     9
  6
CONTINUOUS
370
    -2
100
AcDbLine
 10
2150.89831446
 20
-998.21005726
 30
0.0
 11
2150.27131814
 21
-997.1650634
 31
0.0
  0
LINE
  5
346
100
AcDbEntity
  8
Sc.1_5
 62
     9
  6
CONTINUOUS
370
    -2
100
AcDbLine
 10
2150.8983144
 20
-988.87673687
 30
0.0
 11
2150.27131808
 21
-987.83174301
 31
0.0
  0
LINE
  5
347
100
AcDbEntity
  8
Sc.1_5
 62
     9
  6
CONTINUOUS
370
    -2
100
AcDbLine
 10
2150.89831434
 20
-979.54341649
 30
0.0
 11
2150.27131802
 21
-978.49842263
 31
0.0
  0
LINE
  5
348
100
AcDbEntity
  8
Sc.1_5
 62
     9
  6
CONTINUOUS
370
    -2
100
AcDbLine
 10
2150.89831428
 20
-970.2100961
 30
0.0
 11
2150.27131796
 21
-969.16510224
 31
0.0
  0
LINE
  5
349
100
AcDbEntity
  8
Sc.1_5
 62
     9
  6
CONTINUOUS
370
    -2
100
AcDbLine
 10
2150.89831421
 20
-960.87677571
 30
0.0
 11
2150.2713179
 21
-959.83178185
 31
0.0
  0
LINE
  5
34A
100
AcDbEntity
  8
Sc.1_5
 62
     9
  6
CONTINUOUS
370
    -2
100
AcDbLine
 10
2150.89831521
 20
-1001.91449109
 30
0.0
 11
2150.27131882
 21
-1002.95948491
 31
0.0
  0
LINE
  5
34B
100
AcDbEntity
  8
Sc.1_5
 62
     9
  6
CONTINUOUS
370
    -2
100
AcDbLine
 10
2150.89831589
 20
-992.58117071
 30
0.0
 11
2150.2713195
 21
-993.62616453
 31
0.0
  0
LINE
  5
34C
100
AcDbEntity
  8
Sc.1_5
 62
     9
  6
CONTINUOUS
370
    -2
100
AcDbLine
 10
2150.89831657
 20
-983.24785032
 30
0.0
 11
2150.27132019
 21
-984.29284414
 31
0.0
  0
LINE
  5
34D
100
AcDbEntity
  8
Sc.1_5
 62
     9
  6
CONTINUOUS
370
    -2
100
AcDbLine
 10
2150.89831726
 20
-973.91452993
 30
0.0
 11
2150.27132087
 21
-974.95952375
 31
0.0
  0
LINE
  5
34E
100
AcDbEntity
  8
Sc.1_5
 62
     9
  6
CONTINUOUS
370
    -2
100
AcDbLine
 10
2150.89831794
 20
-964.58120955
 30
0.0
 11
2150.27132155
 21
-965.62620337
 31
0.0
  0
LINE
  5
34F
100
AcDbEntity
  8
Sc.1_5
 62
     9
  6
CONTINUOUS
370
    -2
100
AcDbLine
 10
2150.89831862
 20
-955.24788916
 30
0.0
 11
2150.27132224
 21
-956.29288298
 31
0.0
  0
LINE
  5
350
100
AcDbEntity
  8
Sc.1_5
 62
     9
  6
CONTINUOUS
370
    -2
100
AcDbLine
 10
2124.19288902
 20
-1007.61924075
 30
0.0
 11
2123.5658927
 21
-1006.57424689
 31
0.0
  0
LINE
  5
351
100
AcDbEntity
  8
Sc.1_5
 62
     9
  6
CONTINUOUS
370
    -2
100
AcDbLine
 10
2124.19288896
 20
-998.28592037
 30
0.0
 11
2123.56589264
 21
-997.24092651
 31
0.0
  0
LINE
  5
352
100
AcDbEntity
  8
Sc.1_5
 62
     9
  6
CONTINUOUS
370
    -2
100
AcDbLine
 10
2124.1928889
 20
-988.95259998
 30
0.0
 11
2123.56589258
 21
-987.90760612
 31
0.0
  0
LINE
  5
353
100
AcDbEntity
  8
Sc.1_5
 62
     9
  6
CONTINUOUS
370
    -2
100
AcDbLine
 10
2124.19288884
 20
-979.61927959
 30
0.0
 11
2123.56589252
 21
-978.57428573
 31
0.0
  0
LINE
  5
354
100
AcDbEntity
  8
Sc.1_5
 62
     9
  6
CONTINUOUS
370
    -2
100
AcDbLine
 10
2124.19288877
 20
-970.28595921
 30
0.0
 11
2123.56589246
 21
-969.24096535
 31
0.0
  0
LINE
  5
355
100
AcDbEntity
  8
Sc.1_5
 62
     9
  6
CONTINUOUS
370
    -2
100
AcDbLine
 10
2124.19288871
 20
-960.95263882
 30
0.0
 11
2123.56589239
 21
-959.90764496
 31
0.0
  0
LINE
  5
356
100
AcDbEntity
  8
Sc.1_5
 62
     9
  6
CONTINUOUS
370
    -2
100
AcDbLine
 10
2123.56589059
 20
-956.21011499
 30
0.0
 11
2124.1928869
 21
-955.16512113
 31
0.0
  0
LINE
  5
357
100
AcDbEntity
  8
Sc.1_5
 62
     9
  6
CONTINUOUS
370
    -2
100
AcDbLine
 10
2123.56589052
 20
-965.54343538
 30
0.0
 11
2124.19288684
 21
-964.49844152
 31
0.0
  0
LINE
  5
358
100
AcDbEntity
  8
Sc.1_5
 62
     9
  6
CONTINUOUS
370
    -2
100
AcDbLine
 10
2123.56589046
 20
-974.87675577
 30
0.0
 11
2124.19288678
 21
-973.8317619
 31
0.0
  0
LINE
  5
359
100
AcDbEntity
  8
Sc.1_5
 62
     9
  6
CONTINUOUS
370
    -2
100
AcDbLine
 10
2123.5658904
 20
-984.21007615
 30
0.0
 11
2124.19288672
 21
-983.16508229
 31
0.0
  0
LINE
  5
35A
100
AcDbEntity
  8
Sc.1_5
 62
     9
  6
CONTINUOUS
370
    -2
100
AcDbLine
 10
2123.56589034
 20
-993.54339654
 30
0.0
 11
2124.19288666
 21
-992.49840268
 31
0.0
  0
LINE
  5
35B
100
AcDbEntity
  8
Sc.1_5
 62
     9
  6
CONTINUOUS
370
    -2
100
AcDbLine
 10
2123.56589028
 20
-1002.87671693
 30
0.0
 11
2124.19288659
 21
-1001.83172306
 31
0.0
  0
LINE
  5
35C
100
AcDbEntity
  8
Sc.1_5
 62
     9
  6
CONTINUOUS
370
    -2
100
AcDbLine
 10
2150.27131703
 20
-1006.49838563
 30
0.0
 11
2149.53850009
 21
-1005.7655687
 31
0.0
  0
LINE
  5
35D
100
AcDbEntity
  8
Sc.1_5
 62
     9
  6
CONTINUOUS
370
    -2
100
AcDbLine
 10
2150.27131703
 20
-997.1650644
 30
0.0
 11
2149.53850009
 21
-996.43224746
 31
0.0
  0
LINE
  5
35E
100
AcDbEntity
  8
Sc.1_5
 62
     9
  6
CONTINUOUS
370
    -2
100
AcDbLine
 10
2150.27131703
 20
-987.83174316
 30
0.0
 11
2149.53850009
 21
-987.09892623
 31
0.0
  0
LINE
  5
35F
100
AcDbEntity
  8
Sc.1_5
 62
     9
  6
CONTINUOUS
370
    -2
100
AcDbLine
 10
2150.27131703
 20
-978.49842193
 30
0.0
 11
2149.53850009
 21
-977.76560499
 31
0.0
  0
LINE
  5
360
100
AcDbEntity
  8
Sc.1_5
 62
     9
  6
CONTINUOUS
370
    -2
100
AcDbLine
 10
2150.27131703
 20
-969.16510069
 30
0.0
 11
2149.53850009
 21
-968.43228376
 31
0.0
  0
LINE
  5
361
100
AcDbEntity
  8
Sc.1_5
 62
     9
  6
CONTINUOUS
370
    -2
100
AcDbLine
 10
2150.27131703
 20
-959.83177946
 30
0.0
 11
2149.53850009
 21
-959.09896252
 31
0.0
  0
LINE
  5
362
100
AcDbEntity
  8
Sc.1_5
 62
     9
  6
CONTINUOUS
370
    -2
100
AcDbLine
 10
2150.27131703
 20
-1002.95257757
 30
0.0
 11
2149.53850009
 21
-1003.68539451
 31
0.0
  0
LINE
  5
363
100
AcDbEntity
  8
Sc.1_5
 62
     9
  6
CONTINUOUS
370
    -2
100
AcDbLine
 10
2150.27131703
 20
-993.61925634
 30
0.0
 11
2149.53850009
 21
-994.35207327
 31
0.0
  0
LINE
  5
364
100
AcDbEntity
  8
Sc.1_5
 62
     9
  6
CONTINUOUS
370
    -2
100
AcDbLine
 10
2150.27131703
 20
-984.2859351
 30
0.0
 11
2149.53850009
 21
-985.01875204
 31
0.0
  0
LINE
  5
365
100
AcDbEntity
  8
Sc.1_5
 62
     9
  6
CONTINUOUS
370
    -2
100
AcDbLine
 10
2150.27131703
 20
-974.95261387
 30
0.0
 11
2149.53850009
 21
-975.6854308
 31
0.0
  0
LINE
  5
366
100
AcDbEntity
  8
Sc.1_5
 62
     9
  6
CONTINUOUS
370
    -2
100
AcDbLine
 10
2150.27131703
 20
-965.61929263
 30
0.0
 11
2149.53850009
 21
-966.35210957
 31
0.0
  0
LINE
  5
367
100
AcDbEntity
  8
Sc.1_5
 62
     9
  6
CONTINUOUS
370
    -2
100
AcDbLine
 10
2150.27131703
 20
-956.2859714
 30
0.0
 11
2149.53850009
 21
-957.01878833
 31
0.0
  0
LINE
  5
368
100
AcDbEntity
  8
Sc.1_5
 62
     9
  6
CONTINUOUS
370
    -2
100
AcDbLine
 10
2124.92570312
 20
-1008.35205577
 30
0.0
 11
2124.19288618
 21
-1007.61923883
 31
0.0
  0
LINE
  5
369
100
AcDbEntity
  8
Sc.1_5
 62
     9
  6
CONTINUOUS
370
    -2
100
AcDbLine
 10
2124.92570312
 20
-999.01873453
 30
0.0
 11
2124.19288618
 21
-998.2859176
 31
0.0
  0
LINE
  5
36A
100
AcDbEntity
  8
Sc.1_5
 62
     9
  6
CONTINUOUS
370
    -2
100
AcDbLine
 10
2124.92570312
 20
-989.6854133
 30
0.0
 11
2124.19288618
 21
-988.95259636
 31
0.0
  0
LINE
  5
36B
100
AcDbEntity
  8
Sc.1_5
 62
     9
  6
CONTINUOUS
370
    -2
100
AcDbLine
 10
2124.92570312
 20
-980.35209206
 30
0.0
 11
2124.19288618
 21
-979.61927513
 31
0.0
  0
LINE
  5
36C
100
AcDbEntity
  8
Sc.1_5
 62
     9
  6
CONTINUOUS
370
    -2
100
AcDbLine
 10
2124.92570312
 20
-971.01877083
 30
0.0
 11
2124.19288618
 21
-970.28595389
 31
0.0
  0
LINE
  5
36D
100
AcDbEntity
  8
Sc.1_5
 62
     9
  6
CONTINUOUS
370
    -2
100
AcDbLine
 10
2124.92570312
 20
-961.68544959
 30
0.0
 11
2124.19288618
 21
-960.95263266
 31
0.0
  0
LINE
  5
36E
100
AcDbEntity
  8
Sc.1_5
 62
     9
  6
CONTINUOUS
370
    -2
100
AcDbLine
 10
2124.19288902
 20
-955.1651184
 30
0.0
 11
2124.92570596
 21
-954.43230147
 31
0.0
  0
LINE
  5
36F
100
AcDbEntity
  8
Sc.1_5
 62
     9
  6
CONTINUOUS
370
    -2
100
AcDbLine
 10
2124.19288902
 20
-964.49843964
 30
0.0
 11
2124.92570596
 21
-963.7656227
 31
0.0
  0
LINE
  5
370
100
AcDbEntity
  8
Sc.1_5
 62
     9
  6
CONTINUOUS
370
    -2
100
AcDbLine
 10
2124.19288902
 20
-973.83176087
 30
0.0
 11
2124.92570596
 21
-973.09894394
 31
0.0
  0
LINE
  5
371
100
AcDbEntity
  8
Sc.1_5
 62
     9
  6
CONTINUOUS
370
    -2
100
AcDbLine
 10
2124.19288902
 20
-983.16508211
 30
0.0
 11
2124.92570596
 21
-982.43226517
 31
0.0
  0
LINE
  5
372
100
AcDbEntity
  8
Sc.1_5
 62
     9
  6
CONTINUOUS
370
    -2
100
AcDbLine
 10
2124.19288902
 20
-992.49840334
 30
0.0
 11
2124.92570596
 21
-991.76558641
 31
0.0
  0
LINE
  5
373
100
AcDbEntity
  8
Sc.1_5
 62
     9
  6
CONTINUOUS
370
    -2
100
AcDbLine
 10
2124.19288902
 20
-1001.83172458
 30
0.0
 11
2124.92570596
 21
-1001.09890764
 31
0.0
  0
LINE
  5
374
100
AcDbEntity
  8
Sc.1_5
 62
     9
  6
CONTINUOUS
370
    -2
100
AcDbLine
 10
2149.5385021
 20
-1005.76556787
 30
0.0
 11
2148.63403044
 21
-1005.16258677
 31
0.0
  0
LINE
  5
375
100
AcDbEntity
  8
Sc.1_5
 62
     9
  6
CONTINUOUS
370
    -2
100
AcDbLine
 10
2149.53850104
 20
-996.43224773
 30
0.0
 11
2148.63402938
 21
-995.82926663
 31
0.0
  0
LINE
  5
376
100
AcDbEntity
  8
Sc.1_5
 62
     9
  6
CONTINUOUS
370
    -2
100
AcDbLine
 10
2149.53849999
 20
-987.0989276
 30
0.0
 11
2148.63402833
 21
-986.4959465
 31
0.0
  0
LINE
  5
377
100
AcDbEntity
  8
Sc.1_5
 62
     9
  6
CONTINUOUS
370
    -2
100
AcDbLine
 10
2149.53849893
 20
-977.76560746
 30
0.0
 11
2148.63402727
 21
-977.16262636
 31
0.0
  0
LINE
  5
378
100
AcDbEntity
  8
Sc.1_5
 62
     9
  6
CONTINUOUS
370
    -2
100
AcDbLine
 10
2149.53849787
 20
-968.43228733
 30
0.0
 11
2148.63402621
 21
-967.82930623
 31
0.0
  0
LINE
  5
379
100
AcDbEntity
  8
Sc.1_5
 62
     9
  6
CONTINUOUS
370
    -2
100
AcDbLine
 10
2149.53849682
 20
-959.09896719
 30
0.0
 11
2148.63402516
 21
-958.49598609
 31
0.0
  0
LINE
  5
37A
100
AcDbEntity
  8
Sc.1_5
 62
     9
  6
CONTINUOUS
370
    -2
100
AcDbLine
 10
2149.53850378
 20
-1003.68539644
 30
0.0
 11
2148.63403208
 21
-1004.28837748
 31
0.0
  0
LINE
  5
37B
100
AcDbEntity
  8
Sc.1_5
 62
     9
  6
CONTINUOUS
370
    -2
100
AcDbLine
 10
2149.53850545
 20
-994.35207631
 30
0.0
 11
2148.63403376
 21
-994.95505734
 31
0.0
  0
LINE
  5
37C
100
AcDbEntity
  8
Sc.1_5
 62
     9
  6
CONTINUOUS
370
    -2
100
AcDbLine
 10
2149.53850713
 20
-985.01875617
 30
0.0
 11
2148.63403543
 21
-985.62173721
 31
0.0
  0
LINE
  5
37D
100
AcDbEntity
  8
Sc.1_5
 62
     9
  6
CONTINUOUS
370
    -2
100
AcDbLine
 10
2149.53850881
 20
-975.68543604
 30
0.0
 11
2148.63403711
 21
-976.28841707
 31
0.0
  0
LINE
  5
37E
100
AcDbEntity
  8
Sc.1_5
 62
     9
  6
CONTINUOUS
370
    -2
100
AcDbLine
 10
2149.53851049
 20
-966.3521159
 30
0.0
 11
2148.63403879
 21
-966.95509694
 31
0.0
  0
LINE
  5
37F
100
AcDbEntity
  8
Sc.1_5
 62
     9
  6
CONTINUOUS
370
    -2
100
AcDbLine
 10
2149.53851217
 20
-957.01879577
 30
0.0
 11
2148.63404047
 21
-957.6217768
 31
0.0
  0
LINE
  5
380
100
AcDbEntity
  8
Sc.1_5
 62
     9
  6
CONTINUOUS
370
    -2
100
AcDbLine
 10
2125.83017644
 20
-1008.95503765
 30
0.0
 11
2124.92570478
 21
-1008.35205655
 31
0.0
  0
LINE
  5
381
100
AcDbEntity
  8
Sc.1_5
 62
     9
  6
CONTINUOUS
370
    -2
100
AcDbLine
 10
2125.83017538
 20
-999.62171751
 30
0.0
 11
2124.92570372
 21
-999.01873641
 31
0.0
  0
LINE
  5
382
100
AcDbEntity
  8
Sc.1_5
 62
     9
  6
CONTINUOUS
370
    -2
100
AcDbLine
 10
2125.83017432
 20
-990.28839738
 30
0.0
 11
2124.92570266
 21
-989.68541628
 31
0.0
  0
LINE
  5
383
100
AcDbEntity
  8
Sc.1_5
 62
     9
  6
CONTINUOUS
370
    -2
100
AcDbLine
 10
2125.83017327
 20
-980.95507724
 30
0.0
 11
2124.92570161
 21
-980.35209614
 31
0.0
  0
LINE
  5
384
100
AcDbEntity
  8
Sc.1_5
 62
     9
  6
CONTINUOUS
370
    -2
100
AcDbLine
 10
2125.83017221
 20
-971.62175711
 30
0.0
 11
2124.92570055
 21
-971.01877601
 31
0.0
  0
LINE
  5
385
100
AcDbEntity
  8
Sc.1_5
 62
     9
  6
CONTINUOUS
370
    -2
100
AcDbLine
 10
2125.83017115
 20
-962.28843697
 30
0.0
 11
2124.9256995
 21
-961.68545587
 31
0.0
  0
LINE
  5
386
100
AcDbEntity
  8
Sc.1_5
 62
     9
  6
CONTINUOUS
370
    -2
100
AcDbLine
 10
2124.9257084
 20
-954.43230647
 30
0.0
 11
2125.83018006
 21
-953.82932537
 31
0.0
  0
LINE
  5
387
100
AcDbEntity
  8
Sc.1_5
 62
     9
  6
CONTINUOUS
370
    -2
100
AcDbLine
 10
2124.92570735
 20
-963.7656266
 30
0.0
 11
2125.830179
 21
-963.1626455
 31
0.0
  0
LINE
  5
388
100
AcDbEntity
  8
Sc.1_5
 62
     9
  6
CONTINUOUS
370
    -2
100
AcDbLine
 10
2124.92570629
 20
-973.09894674
 30
0.0
 11
2125.83017795
 21
-972.49596564
 31
0.0
  0
LINE
  5
389
100
AcDbEntity
  8
Sc.1_5
 62
     9
  6
CONTINUOUS
370
    -2
100
AcDbLine
 10
2124.92570523
 20
-982.43226687
 30
0.0
 11
2125.83017689
 21
-981.82928577
 31
0.0
  0
LINE
  5
38A
100
AcDbEntity
  8
Sc.1_5
 62
     9
  6
CONTINUOUS
370
    -2
100
AcDbLine
 10
2124.92570418
 20
-991.76558701
 30
0.0
 11
2125.83017583
 21
-991.16260591
 31
0.0
  0
LINE
  5
38B
100
AcDbEntity
  8
Sc.1_5
 62
     9
  6
CONTINUOUS
370
    -2
100
AcDbLine
 10
2124.92570312
 20
-1001.09890714
 30
0.0
 11
2125.83017478
 21
-1000.49592604
 31
0.0
  0
LINE
  5
38C
100
AcDbEntity
  8
Sc.1_5
 62
     9
  6
CONTINUOUS
370
    -2
100
AcDbLine
 10
2148.63403062
 20
-1005.16258599
 30
0.0
 11
2147.32271696
 21
-1004.72548136
 31
0.0
  0
LINE
  5
38D
100
AcDbEntity
  8
Sc.1_5
 62
     9
  6
CONTINUOUS
370
    -2
100
AcDbLine
 10
2148.63403015
 20
-995.82926519
 30
0.0
 11
2147.3227165
 21
-995.39216056
 31
0.0
  0
LINE
  5
38E
100
AcDbEntity
  8
Sc.1_5
 62
     9
  6
CONTINUOUS
370
    -2
100
AcDbLine
 10
2148.63402968
 20
-986.49594439
 30
0.0
 11
2147.32271603
 21
-986.05883977
 31
0.0
  0
LINE
  5
38F
100
AcDbEntity
  8
Sc.1_5
 62
     9
  6
CONTINUOUS
370
    -2
100
AcDbLine
 10
2148.63402922
 20
-977.1626236
 30
0.0
 11
2147.32271556
 21
-976.72551897
 31
0.0
  0
LINE
  5
390
100
AcDbEntity
  8
Sc.1_5
 62
     9
  6
CONTINUOUS
370
    -2
100
AcDbLine
 10
2148.63402875
 20
-967.8293028
 30
0.0
 11
2147.32271509
 21
-967.39219817
 31
0.0
  0
LINE
  5
391
100
AcDbEntity
  8
Sc.1_5
 62
     9
  6
CONTINUOUS
370
    -2
100
AcDbLine
 10
2148.63402828
 20
-958.495982
 30
0.0
 11
2147.32271462
 21
-958.05887737
 31
0.0
  0
LINE
  5
392
100
AcDbEntity
  8
Sc.1_5
 62
     9
  6
CONTINUOUS
370
    -2
100
AcDbLine
 10
2148.63403109
 20
-1004.28837765
 30
0.0
 11
2147.32271743
 21
-1004.72548228
 31
0.0
  0
LINE
  5
393
100
AcDbEntity
  8
Sc.1_5
 62
     9
  6
CONTINUOUS
370
    -2
100
AcDbLine
 10
2148.63403155
 20
-994.95505686
 30
0.0
 11
2147.3227179
 21
-995.39216148
 31
0.0
  0
LINE
  5
394
100
AcDbEntity
  8
Sc.1_5
 62
     9
  6
CONTINUOUS
370
    -2
100
AcDbLine
 10
2148.63403202
 20
-985.62173606
 30
0.0
 11
2147.32271837
 21
-986.05884069
 31
0.0
  0
LINE
  5
395
100
AcDbEntity
  8
Sc.1_5
 62
     9
  6
CONTINUOUS
370
    -2
100
AcDbLine
 10
2148.63403249
 20
-976.28841526
 30
0.0
 11
2147.32271883
 21
-976.72551989
 31
0.0
  0
LINE
  5
396
100
AcDbEntity
  8
Sc.1_5
 62
     9
  6
CONTINUOUS
370
    -2
100
AcDbLine
 10
2148.63403296
 20
-966.95509446
 30
0.0
 11
2147.3227193
 21
-967.39219909
 31
0.0
  0
LINE
  5
397
100
AcDbEntity
  8
Sc.1_5
 62
     9
  6
CONTINUOUS
370
    -2
100
AcDbLine
 10
2148.63403343
 20
-957.62177367
 30
0.0
 11
2147.32271977
 21
-958.05887829
 31
0.0
  0
LINE
  5
398
100
AcDbEntity
  8
Sc.1_5
 62
     9
  6
CONTINUOUS
370
    -2
100
AcDbLine
 10
2127.14148891
 20
-1009.39214222
 30
0.0
 11
2125.83017525
 21
-1008.95503759
 31
0.0
  0
LINE
  5
399
100
AcDbEntity
  8
Sc.1_5
 62
     9
  6
CONTINUOUS
370
    -2
100
AcDbLine
 10
2127.14148844
 20
-1000.05882142
 30
0.0
 11
2125.83017478
 21
-999.6217168
 31
0.0
  0
LINE
  5
39A
100
AcDbEntity
  8
Sc.1_5
 62
     9
  6
CONTINUOUS
370
    -2
100
AcDbLine
 10
2127.14148797
 20
-990.72550063
 30
0.0
 11
2125.83017431
 21
-990.288396
 31
0.0
  0
LINE
  5
39B
100
AcDbEntity
  8
Sc.1_5
 62
     9
  6
CONTINUOUS
370
    -2
100
AcDbLine
 10
2127.1414875
 20
-981.39217983
 30
0.0
 11
2125.83017385
 21
-980.9550752
 31
0.0
  0
LINE
  5
39C
100
AcDbEntity
  8
Sc.1_5
 62
     9
  6
CONTINUOUS
370
    -2
100
AcDbLine
 10
2127.14148704
 20
-972.05885903
 30
0.0
 11
2125.83017338
 21
-971.6217544
 31
0.0
  0
LINE
  5
39D
100
AcDbEntity
  8
Sc.1_5
 62
     9
  6
CONTINUOUS
370
    -2
100
AcDbLine
 10
2127.14148657
 20
-962.72553823
 30
0.0
 11
2125.83017291
 21
-962.28843361
 31
0.0
  0
LINE
  5
39E
100
AcDbEntity
  8
Sc.1_5
 62
     9
  6
CONTINUOUS
370
    -2
100
AcDbLine
 10
2127.1414861
 20
-953.39221744
 30
0.0
 11
2126.1140494
 21
-953.04973848
 31
0.0
  0
LINE
  5
39F
100
AcDbEntity
  8
Sc.1_5
 62
     9
  6
CONTINUOUS
370
    -2
100
AcDbLine
 10
2125.83017877
 20
-953.82932428
 30
0.0
 11
2127.14149243
 21
-953.39221966
 31
0.0
  0
LINE
  5
3A0
100
AcDbEntity
  8
Sc.1_5
 62
     9
  6
CONTINUOUS
370
    -2
100
AcDbLine
 10
2125.83017831
 20
-963.16264508
 30
0.0
 11
2127.14149196
 21
-962.72554045
 31
0.0
  0
LINE
  5
3A1
100
AcDbEntity
  8
Sc.1_5
 62
     9
  6
CONTINUOUS
370
    -2
100
AcDbLine
 10
2125.83017784
 20
-972.49596588
 30
0.0
 11
2127.1414915
 21
-972.05886125
 31
0.0
  0
LINE
  5
3A2
100
AcDbEntity
  8
Sc.1_5
 62
     9
  6
CONTINUOUS
370
    -2
100
AcDbLine
 10
2125.83017737
 20
-981.82928668
 30
0.0
 11
2127.14149103
 21
-981.39218205
 31
0.0
  0
LINE
  5
3A3
100
AcDbEntity
  8
Sc.1_5
 62
     9
  6
CONTINUOUS
370
    -2
100
AcDbLine
 10
2125.8301769
 20
-991.16260747
 30
0.0
 11
2127.14149056
 21
-990.72550285
 31
0.0
  0
LINE
  5
3A4
100
AcDbEntity
  8
Sc.1_5
 62
     9
  6
CONTINUOUS
370
    -2
100
AcDbLine
 10
2125.83017644
 20
-1000.49592827
 30
0.0
 11
2127.14149009
 21
-1000.05882364
 31
0.0
  0
LINE
  5
3A5
100
AcDbEntity
  8
Sc.1_5
 62
     9
  6
CONTINUOUS
370
    -2
100
AcDbLine
 10
2146.56541298
 20
-1004.72548113
 30
0.0
 11
2145.56436161
 21
-1004.61425315
 31
0.0
  0
LINE
  5
3A6
100
AcDbEntity
  8
Sc.1_5
 62
     9
  6
CONTINUOUS
370
    -2
100
AcDbLine
 10
2146.56540158
 20
-995.39216199
 30
0.0
 11
2145.56435021
 21
-995.28093401
 31
0.0
  0
LINE
  5
3A7
100
AcDbEntity
  8
Sc.1_5
 62
     9
  6
CONTINUOUS
370
    -2
100
AcDbLine
 10
2146.56539017
 20
-986.05884285
 30
0.0
 11
2145.5643388
 21
-985.94761487
 31
0.0
  0
LINE
  5
3A8
100
AcDbEntity
  8
Sc.1_5
 62
     9
  6
CONTINUOUS
370
    -2
100
AcDbLine
 10
2146.56537876
 20
-976.72552371
 30
0.0
 11
2145.5643274
 21
-976.61429573
 31
0.0
  0
LINE
  5
3A9
100
AcDbEntity
  8
Sc.1_5
 62
     9
  6
CONTINUOUS
370
    -2
100
AcDbLine
 10
2146.56536736
 20
-967.39220457
 30
0.0
 11
2145.56431599
 21
-967.28097659
 31
0.0
  0
LINE
  5
3AA
100
AcDbEntity
  8
Sc.1_5
 62
     9
  6
CONTINUOUS
370
    -2
100
AcDbLine
 10
2146.56535595
 20
-958.05888543
 30
0.0
 11
2145.56430458
 21
-957.94765745
 31
0.0
  0
LINE
  5
3AB
100
AcDbEntity
  8
Sc.1_5
 62
     9
  6
CONTINUOUS
370
    -2
100
AcDbLine
 10
2146.56542439
 20
-1004.72548417
 30
0.0
 11
2145.56437302
 21
-1004.83671215
 31
0.0
  0
LINE
  5
3AC
100
AcDbEntity
  8
Sc.1_5
 62
     9
  6
CONTINUOUS
370
    -2
100
AcDbLine
 10
2146.56543579
 20
-995.39216503
 30
0.0
 11
2145.56438443
 21
-995.50339301
 31
0.0
  0
LINE
  5
3AD
100
AcDbEntity
  8
Sc.1_5
 62
     9
  6
CONTINUOUS
370
    -2
100
AcDbLine
 10
2146.5654472
 20
-986.05884589
 30
0.0
 11
2145.56439583
 21
-986.17007387
 31
0.0
  0
LINE
  5
3AE
100
AcDbEntity
  8
Sc.1_5
 62
     9
  6
CONTINUOUS
370
    -2
100
AcDbLine
 10
2146.56545861
 20
-976.72552675
 30
0.0
 11
2145.56440724
 21
-976.83675473
 31
0.0
  0
LINE
  5
3AF
100
AcDbEntity
  8
Sc.1_5
 62
     9
  6
CONTINUOUS
370
    -2
100
AcDbLine
 10
2146.56547001
 20
-967.39220761
 30
0.0
 11
2145.56441864
 21
-967.50343559
 31
0.0
  0
LINE
  5
3B0
100
AcDbEntity
  8
Sc.1_5
 62
     9
  6
CONTINUOUS
370
    -2
100
AcDbLine
 10
2146.56548142
 20
-958.05888847
 30
0.0
 11
2145.56443005
 21
-958.17011645
 31
0.0
  0
LINE
  5
3B1
100
AcDbEntity
  8
Sc.1_5
 62
     9
  6
CONTINUOUS
370
    -2
100
AcDbLine
 10
2127.89870082
 20
-953.39222738
 30
0.0
 11
2128.89975222
 21
-953.50345509
 31
0.0
  0
LINE
  5
3B2
100
AcDbEntity
  8
Sc.1_5
 62
     9
  6
CONTINUOUS
370
    -2
100
AcDbLine
 10
2127.89871471
 20
-962.72554652
 30
0.0
 11
2128.89976611
 21
-962.83677423
 31
0.0
  0
LINE
  5
3B3
100
AcDbEntity
  8
Sc.1_5
 62
     9
  6
CONTINUOUS
370
    -2
100
AcDbLine
 10
2127.8987286
 20
-972.05886566
 30
0.0
 11
2128.89978
 21
-972.17009338
 31
0.0
  0
LINE
  5
3B4
100
AcDbEntity
  8
Sc.1_5
 62
     9
  6
CONTINUOUS
370
    -2
100
AcDbLine
 10
2127.89874249
 20
-981.3921848
 30
0.0
 11
2128.89979389
 21
-981.50341252
 31
0.0
  0
LINE
  5
3B5
100
AcDbEntity
  8
Sc.1_5
 62
     9
  6
CONTINUOUS
370
    -2
100
AcDbLine
 10
2127.89875639
 20
-990.72550394
 30
0.0
 11
2128.89980778
 21
-990.83673166
 31
0.0
  0
LINE
  5
3B6
100
AcDbEntity
  8
Sc.1_5
 62
     9
  6
CONTINUOUS
370
    -2
100
AcDbLine
 10
2127.89877028
 20
-1000.05882308
 30
0.0
 11
2128.89982168
 21
-1000.1700508
 31
0.0
  0
LINE
  5
3B7
100
AcDbEntity
  8
Sc.1_5
 62
     9
  6
CONTINUOUS
370
    -2
100
AcDbLine
 10
2127.8988526
 20
-953.39222738
 30
0.0
 11
2128.89990397
 21
-953.2809994
 31
0.0
  0
LINE
  5
3B8
100
AcDbEntity
  8
Sc.1_5
 62
     9
  6
CONTINUOUS
370
    -2
100
AcDbLine
 10
2127.8988412
 20
-962.72554652
 30
0.0
 11
2128.89989257
 21
-962.61431854
 31
0.0
  0
LINE
  5
3B9
100
AcDbEntity
  8
Sc.1_5
 62
     9
  6
CONTINUOUS
370
    -2
100
AcDbLine
 10
2127.89882979
 20
-972.05886566
 30
0.0
 11
2128.89988116
 21
-971.94763768
 31
0.0
  0
LINE
  5
3BA
100
AcDbEntity
  8
Sc.1_5
 62
     9
  6
CONTINUOUS
370
    -2
100
AcDbLine
 10
2127.89881839
 20
-981.3921848
 30
0.0
 11
2128.89986975
 21
-981.28095682
 31
0.0
  0
LINE
  5
3BB
100
AcDbEntity
  8
Sc.1_5
 62
     9
  6
CONTINUOUS
370
    -2
100
AcDbLine
 10
2127.89880698
 20
-990.72550394
 30
0.0
 11
2128.89985835
 21
-990.61427596
 31
0.0
  0
LINE
  5
3BC
100
AcDbEntity
  8
Sc.1_5
 62
     9
  6
CONTINUOUS
370
    -2
100
AcDbLine
 10
2127.89879558
 20
-1000.05882308
 30
0.0
 11
2128.89984694
 21
-999.9475951
 31
0.0
  0
LINE
  5
3BD
100
AcDbEntity
  8
Sc.1_5
 62
     9
  6
CONTINUOUS
370
    -2
100
AcDbLine
 10
2127.89878417
 20
-1009.39214222
 30
0.0
 11
2128.89983554
 21
-1009.28091424
 31
0.0
  0
ENDBLK
  5
3BE
100
AcDbEntity
100
AcDbBlockEnd
  0
BLOCK
  5
3BF
100
AcDbEntity
  8
Sc.1_5
100
AcDbBlockBegin
  2
*X2061
 70
     1
 10
0.0
 20
0.0
 30
0.0
  3
*X2061
  1

  4
Cadwork hatch
  0
LINE
  5
3C0
100
AcDbEntity
  8
Sc.1_5
 62
     9
  6
CONTINUOUS
370
    -2
100
AcDbLine
 10
2123.23212507
 20
-895.94987925
 30
0.0
 11
2151.23210819
 21
-904.94990205
 31
0.0
  0
LINE
  5
3C1
100
AcDbEntity
  8
Sc.1_5
 62
     9
  6
CONTINUOUS
370
    -2
100
AcDbLine
 10
2123.23212507
 20
-904.94990205
 30
0.0
 11
2151.23210819
 21
-895.94987925
 31
0.0
  0
ENDBLK
  5
3C2
100
AcDbEntity
100
AcDbBlockEnd
  0
BLOCK
  5
3C3
100
AcDbEntity
  8
Sc.1_5
100
AcDbBlockBegin
  2
*X2062
 70
     1
 10
0.0
 20
0.0
 30
0.0
  3
*X2062
  1

  4
Cadwork hatch
  0
LINE
  5
3C4
100
AcDbEntity
  8
Sc.1_5
 62
     9
  6
CONTINUOUS
370
    -2
100
AcDbLine
 10
2123.23212507
 20
-934.5497619
 30
0.0
 11
2151.23210819
 21
-943.54971884
 31
0.0
  0
LINE
  5
3C5
100
AcDbEntity
  8
Sc.1_5
 62
     9
  6
CONTINUOUS
370
    -2
100
AcDbLine
 10
2123.23212507
 20
-943.54971884
 30
0.0
 11
2151.23210819
 21
-934.5497619
 31
0.0
  0
ENDBLK
  5
3C6
100
AcDbEntity
100
AcDbBlockEnd
  0
BLOCK
  5
3C7
100
AcDbEntity
  8
Sc.1_5
100
AcDbBlockBegin
  2
*X2063
 70
     1
 10
0.0
 20
0.0
 30
0.0
  3
*X2063
  1

  4
Cadwork hatch
  0
LINE
  5
3C8
100
AcDbEntity
  8
Sc.1_5
 62
     9
  6
CONTINUOUS
370
    -2
100
AcDbLine
 10
2151.73209848
 20
-934.5497619
 30
0.0
 11
2165.73209004
 21
-941.54975768
 31
0.0
  0
LINE
  5
3C9
100
AcDbEntity
  8
Sc.1_5
 62
     9
  6
CONTINUOUS
370
    -2
100
AcDbLine
 10
2151.73209848
 20
-941.54975768
 30
0.0
 11
2165.73209004
 21
-934.5497619
 31
0.0
  0
ENDBLK
  5
3CA
100
AcDbEntity
100
AcDbBlockEnd
  0
BLOCK
  5
3CB
100
AcDbEntity
  8
Sc.1_5
100
AcDbBlockBegin
  2
*X2064
 70
     1
 10
0.0
 20
0.0
 30
0.0
  3
*X2064
  1

  4
Cadwork hatch
  0
LINE
  5
3CC
100
AcDbEntity
  8
Sc.1_5
 62
     9
  6
CONTINUOUS
370
    -2
100
AcDbLine
 10
2123.23212507
 20
-944.04970913
 30
0.0
 11
2151.23210819
 21
-953.04973193
 31
0.0
  0
LINE
  5
3CD
100
AcDbEntity
  8
Sc.1_5
 62
     9
  6
CONTINUOUS
370
    -2
100
AcDbLine
 10
2123.23212507
 20
-953.04973193
 30
0.0
 11
2151.23210819
 21
-944.04970913
 31
0.0
  0
ENDBLK
  5
3CE
100
AcDbEntity
100
AcDbBlockEnd
  0
ENDSEC
  0
SECTION
  2
ENTITIES
  0
LINE
  5
3CF
100
AcDbEntity
  8
Sc.1_5
 62
     7
  6
CONTINUOUS
100
AcDbLine
 10
2123.23218213
 20
-943.54973738
 30
0.0
 11
2123.23218213
 21
-944.04973738
 31
0.0
  0
LINE
  5
3D0
100
AcDbEntity
  8
Sc.1_5
 62
     7
  6
CONTINUOUS
100
AcDbLine
 10
2134.96075185
 20
-1014.245031
 30
0.0
 11
2135.10786307
 21
-1014.245031
 31
0.0
  0
LINE
  5
3D1
100
AcDbEntity
  8
Sc.1_5
 62
     7
  6
CONTINUOUS
100
AcDbLine
 10
2151.23208244
 20
-944.04973738
 30
0.0
 11
2151.23208244
 21
-943.54973738
 31
0.0
  0
LINE
  5
3D2
100
AcDbEntity
  8
Sc.1_5
 62
     7
  6
CONTINUOUS
100
AcDbLine
 10
2111.88218213
 20
-934.66663176
 30
0.0
 11
2115.68218213
 21
-933.64842483
 31
0.0
  0
LINE
  5
3D3
100
AcDbEntity
  8
Sc.1_5
 62
     7
  6
CONTINUOUS
100
AcDbLine
 10
2115.68218213
 20
-933.64842483
 30
0.0
 11
2115.68218213
 21
-819.39214222
 31
0.0
  0
LINE
  5
3D4
100
AcDbEntity
  8
Sc.1_5
 62
     7
  6
CONTINUOUS
100
AcDbLine
 10
2111.88218213
 20
-819.39214222
 30
0.0
 11
2111.88218213
 21
-934.66663176
 31
0.0
  0
LINE
  5
3D5
100
AcDbEntity
  8
Sc.1_5
 62
     7
  6
CONTINUOUS
100
AcDbLine
 10
2115.68218213
 20
-936.10264068
 30
0.0
 11
2111.88218213
 21
-937.12084761
 31
0.0
  0
LINE
  5
3D6
100
AcDbEntity
  8
Sc.1_5
 62
     7
  6
CONTINUOUS
100
AcDbLine
 10
2111.88218213
 20
-937.12084761
 30
0.0
 11
2111.88218213
 21
-1009.39214222
 31
0.0
  0
LINE
  5
3D7
100
AcDbEntity
  8
Sc.1_5
 62
     7
  6
CONTINUOUS
100
AcDbLine
 10
2115.68218213
 20
-1009.39214222
 30
0.0
 11
2115.68218213
 21
-936.10264068
 31
0.0
  0
LINE
  5
3D8
100
AcDbEntity
  8
Sc.1_5
 62
     7
  6
CONTINUOUS
100
AcDbLine
 10
2113.78218213
 20
-819.39214222
 30
0.0
 11
2113.78218213
 21
-934.15752829
 31
0.0
  0
LINE
  5
3D9
100
AcDbEntity
  8
Sc.1_5
 62
     7
  6
CONTINUOUS
100
AcDbLine
 10
2154.03210918
 20
-886.34925477
 30
0.0
 11
2154.03210918
 21
-900.44987739
 31
0.0
  0
LINE
  5
3DA
100
AcDbEntity
  8
Sc.1_5
 62
     7
  6
CONTINUOUS
100
AcDbLine
 10
2154.03210918
 20
-900.44987739
 30
0.0
 11
2157.03210918
 21
-900.44987739
 31
0.0
  0
LINE
  5
3DB
100
AcDbEntity
  8
Sc.1_5
 62
     7
  6
CONTINUOUS
100
AcDbLine
 10
2157.03210918
 20
-900.44987739
 30
0.0
 11
2157.03210918
 21
-888.44987739
 31
0.0
  0
LINE
  5
3DC
100
AcDbEntity
  8
Sc.1_5
 62
     7
  6
CONTINUOUS
100
AcDbLine
 10
2157.03210918
 20
-888.44987739
 30
0.0
 11
2154.03210918
 21
-886.34925477
 31
0.0
  0
LINE
  5
3DD
100
AcDbEntity
  8
Sc.1_5
 62
     7
  6
CONTINUOUS
100
AcDbLine
 10
2113.78218213
 20
-936.61174415
 30
0.0
 11
2113.78218213
 21
-1009.39214429
 31
0.0
  0
LINE
  5
3DE
100
AcDbEntity
  8
Sc.1_5
 62
     7
  6
CONTINUOUS
100
AcDbLine
 10
2111.38218213
 20
-936.87115872
 30
0.0
 11
2120.60718212
 21
-934.39932742
 31
0.0
  0
LINE
  5
3DF
100
AcDbEntity
  8
Sc.1_5
 62
     7
  6
CONTINUOUS
100
AcDbLine
 10
2120.60718212
 20
-934.39932742
 30
0.0
 11
2120.60718212
 21
-924.31224393
 31
0.0
  0
LINE
  5
3E0
100
AcDbEntity
  8
Sc.1_5
 62
     7
  6
CONTINUOUS
100
AcDbLine
 10
2111.38218213
 20
-936.87115872
 30
0.0
 11
2111.38218213
 21
-942.12084761
 31
0.0
  0
LINE
  5
3E1
100
AcDbEntity
  8
Sc.1_5
 62
     7
  6
CONTINUOUS
100
AcDbLine
 10
2111.38218213
 20
-942.12084761
 30
0.0
 11
2110.98551135
 21
-942.80790155
 31
0.0
  0
LINE
  5
3E2
100
AcDbEntity
  8
Sc.1_5
 62
     7
  6
CONTINUOUS
100
AcDbLine
 10
2110.98551135
 20
-942.80790155
 30
0.0
 11
2111.38218213
 21
-943.20457233
 31
0.0
  0
LINE
  5
3E3
100
AcDbEntity
  8
Sc.1_5
 62
     7
  6
CONTINUOUS
100
AcDbLine
 10
2137.53430753
 20
-1009.39214178
 30
0.0
 11
2135.03430793
 21
-1014.39214208
 31
0.0
  0
LINE
  5
3E4
100
AcDbEntity
  8
Sc.1_5
 62
     7
  6
CONTINUOUS
100
AcDbLine
 10
2135.03430793
 20
-1014.39214208
 30
0.0
 11
2130.03430699
 21
-1004.39214236
 31
0.0
  0
LINE
  5
3E5
100
AcDbEntity
  8
Sc.1_5
 62
     7
  6
CONTINUOUS
100
AcDbLine
 10
2130.03430699
 20
-1004.39214236
 30
0.0
 11
2127.53430739
 21
-1009.39214266
 31
0.0
  0
LINE
  5
3E6
100
AcDbEntity
  8
Sc.1_5
 62
     7
  6
CONTINUOUS
100
AcDbLine
 10
2127.53430739
 20
-1009.39214266
 30
0.0
 11
2108.80651246
 21
-1009.39214429
 31
0.0
  0
LINE
  5
3E7
100
AcDbEntity
  8
Sc.1_5
 62
     7
  6
CONTINUOUS
100
AcDbLine
 10
2156.86513728
 20
-1009.39214009
 30
0.0
 11
2137.53430753
 21
-1009.39214178
 31
0.0
  0
LINE
  5
3E8
100
AcDbEntity
  8
Sc.1_5
 62
     7
  6
CONTINUOUS
100
AcDbLine
 10
2130.48210911
 20
-819.39214222
 30
0.0
 11
2132.98210914
 21
-814.39214215
 31
0.0
  0
LINE
  5
3E9
100
AcDbEntity
  8
Sc.1_5
 62
     7
  6
CONTINUOUS
100
AcDbLine
 10
2132.98210914
 20
-814.39214215
 30
0.0
 11
2137.98210922
 21
-824.3921423
 31
0.0
  0
LINE
  5
3EA
100
AcDbEntity
  8
Sc.1_5
 62
     7
  6
CONTINUOUS
100
AcDbLine
 10
2137.98210922
 20
-824.3921423
 30
0.0
 11
2140.48210926
 21
-819.39214222
 31
0.0
  0
LINE
  5
3EB
100
AcDbEntity
  8
Sc.1_5
 62
     7
  6
CONTINUOUS
100
AcDbLine
 10
2140.48210926
 20
-819.39214222
 30
0.0
 11
2157.10824559
 21
-819.39214222
 31
0.0
  0
LINE
  5
3EC
100
AcDbEntity
  8
Sc.1_5
 62
     7
  6
CONTINUOUS
100
AcDbLine
 10
2108.90896947
 20
-819.39214222
 30
0.0
 11
2130.48210911
 21
-819.39214222
 31
0.0
  0
LINE
  5
3ED
100
AcDbEntity
  8
Sc.1_5
 62
     7
  6
CONTINUOUS
100
AcDbLine
 10
2228.23177499
 20
-917.24982564
 30
0.0
 11
2233.23177509
 21
-919.74982561
 31
0.0
  0
LINE
  5
3EE
100
AcDbEntity
  8
Sc.1_5
 62
     7
  6
CONTINUOUS
100
AcDbLine
 10
2233.23177509
 20
-919.74982561
 30
0.0
 11
2223.231775
 21
-924.74982581
 31
0.0
  0
LINE
  5
3EF
100
AcDbEntity
  8
Sc.1_5
 62
     7
  6
CONTINUOUS
100
AcDbLine
 10
2223.231775
 20
-924.74982581
 30
0.0
 11
2228.23177511
 21
-927.24982579
 31
0.0
  0
LINE
  5
3F0
100
AcDbEntity
  8
Sc.1_5
 62
     7
  6
CONTINUOUS
100
AcDbLine
 10
2228.23177511
 20
-927.24982579
 30
0.0
 11
2228.23177534
 21
-946.95165806
 31
0.0
  0
LINE
  5
3F1
100
AcDbEntity
  8
Sc.1_5
 62
     7
  6
CONTINUOUS
100
AcDbLine
 10
2228.23177476
 20
-897.95299932
 30
0.0
 11
2228.23177499
 21
-917.24982564
 31
0.0
  0
LINE
  5
3F2
100
AcDbEntity
  8
Sc.1_5
 62
     7
  6
CONTINUOUS
100
AcDbLine
 10
2120.93218213
 20
-819.39214222
 30
0.0
 11
2122.73218213
 21
-819.39214222
 31
0.0
  0
LWPOLYLINE
  5
3F3
102
{ACAD_REACTORS
330
3F4
102
}
100
AcDbEntity
  8
Sc.1_5
 62
     7
  6
CONTINUOUS
100
AcDbPolyline
 90
        4
 70
     1
 43
0.0
 10
2122.73218213
 20
-904.94987962
 10
2122.73218213
 20
-819.39214222
 10
2120.93218213
 20
-819.39214222
 10
2120.93218213
 20
-904.94987962
  0
HATCH
  5
3F4
100
AcDbEntity
  8
Sc.1_5
 62
     9
  6
CONTINUOUS
100
AcDbHatch
 10
0.0
 20
0.0
 30
0.0
210
0.0
220
0.0
230
1.0
  2
ANSI31
 70
     0
 71
     1
 91
        1
 92
        7
 72
     0
 73
     1
 93
        4
 10
2122.73218213
 20
-904.94987962
 10
2122.73218213
 20
-819.39214222
 10
2120.93218213
 20
-819.39214222
 10
2120.93218213
 20
-904.94987962
 97
        1
330
3F3
 75
     0
 76
     2
 52
0.0
 41
0.3149626
 77
     0
 78
     1
 53
45.0
 43
0.0
 44
0.0
 45
0.70710678
 46
-0.70710678
 79
     0
 47
0.775229
 98
        1
 10
0.0
 20
0.0
  0
LWPOLYLINE
  5
3F5
102
{ACAD_REACTORS
330
3F6
102
}
100
AcDbEntity
  8
Sc.1_5
 62
     7
  6
CONTINUOUS
100
AcDbPolyline
 90
        4
 70
     1
 43
0.0
 10
2228.23177505
 20
-905.44987739
 10
2124.23211418
 20
-905.44987739
 10
2124.23211418
 20
-934.04977404
 10
2228.23177505
 20
-934.04977404
  0
HATCH
  5
3F6
100
AcDbEntity
  8
Sc.1_5
 62
     9
  6
CONTINUOUS
100
AcDbHatch
 10
0.0
 20
0.0
 30
0.0
210
0.0
220
0.0
230
1.0
  2
Wood
 70
     0
 71
     1
 91
        1
 92
        7
 72
     0
 73
     1
 93
        4
 10
2228.23177505
 20
-905.44987739
 10
2124.23211418
 20
-905.44987739
 10
2124.23211418
 20
-934.04977404
 10
2228.23177505
 20
-934.04977404
 97
        1
330
3F5
 75
     0
 76
     2
 52
0.0
 41
1.0
 77
     0
 78
    66
 53
0.0
 43
0.0
 44
0.0
 45
0.0
 46
41.23109818
 79
     4
 49
8.24619961
 49
-12.36929989
 49
4.1230998
 49
-16.49239922
 53
0.0
 43
28.86170006
 44
1.03079998
 45
0.0
 46
41.23109818
 79
     2
 49
8.24619961
 49
-32.98479843
 53
0.0
 43
24.73859978
 44
3.09229994
 45
0.0
 46
41.23109818
 79
     2
 49
4.1230998
 49
-37.10800171
 53
0.0
 43
2.06159997
 44
4.1230998
 45
0.0
 46
41.23109818
 79
     4
 49
2.06159997
 49
-28.86170006
 49
2.06159997
 49
-8.24619961
 53
0.0
 43
16.49239922
 44
6.18470001
 45
0.0
 46
41.23109818
 79
     4
 49
8.24619961
 49
-12.36929989
 49
2.06159997
 49
-18.55400085
 53
0.0
 43
6.18470001
 44
7.21540022
 45
0.0
 46
41.23109818
 79
     2
 49
6.18470001
 49
-35.04639816
 53
0.0
 43
16.49239922
 44
8.24619961
 45
0.0
 46
41.23109818
 79
     2
 49
12.36929989
 49
-28.86170006
 53
0.0
 43
4.1230998
 44
9.27700043
 45
0.0
 46
41.23109818
 79
     2
 49
8.24619961
 49
-32.98479843
 53
0.0
 43
20.6154995
 44
10.30780029
 45
0.0
 46
41.23109818
 79
     2
 49
20.6154995
 49
-20.6154995
 53
0.0
 43
8.24619961
 44
12.36929989
 45
0.0
 46
41.23109818
 79
     4
 49
4.1230998
 49
-12.36929989
 49
8.24619961
 49
-16.49239922
 53
0.0
 43
37.10800171
 44
13.40009975
 45
0.0
 46
41.23109818
 79
     2
 49
8.24619961
 49
-32.98479843
 53
0.0
 43
28.86170006
 44
14.43089962
 45
0.0
 46
41.23109818
 79
     2
 49
4.1230998
 49
-37.10800171
 53
0.0
 43
20.6154995
 44
15.4616003
 45
0.0
 46
41.23109818
 79
     2
 49
4.1230998
 49
-37.10800171
 53
0.0
 43
0.0
 44
16.49239922
 45
0.0
 46
41.23109818
 79
     2
 49
8.24619961
 49
-32.98479843
 53
0.0
 43
20.6154995
 44
17.52319908
 45
0.0
 46
41.23109818
 79
     2
 49
8.24619961
 49
-32.98479843
 53
0.0
 43
20.6154995
 44
19.58480072
 45
0.0
 46
41.23109818
 79
     4
 49
8.24619961
 49
-8.24619961
 49
8.24619961
 49
-16.49239922
 53
0.0
 43
12.36929989
 44
21.64629936
 45
0.0
 46
41.23109818
 79
     4
 49
4.1230998
 49
-20.6154995
 49
8.24619961
 49
-8.24619961
 53
0.0
 43
20.6154995
 44
22.67709923
 45
0.0
 46
41.23109818
 79
     2
 49
12.36929989
 49
-28.86170006
 53
0.0
 43
20.6154995
 44
24.73859978
 45
0.0
 46
41.23109818
 79
     2
 49
8.24619961
 49
-32.98479843
 53
0.0
 43
4.1230998
 44
25.76939964
 45
0.0
 46
41.23109818
 79
     4
 49
12.36929989
 49
-16.49239922
 49
4.1230998
 49
-8.24619961
 53
0.0
 43
4.1230998
 44
27.83099937
 45
0.0
 46
41.23109818
 79
     2
 49
20.6154995
 49
-20.6154995
 53
0.0
 43
28.86170006
 44
28.86170006
 45
0.0
 46
41.23109818
 79
     2
 49
4.1230998
 49
-37.10800171
 53
0.0
 43
16.49239922
 44
29.89249992
 45
0.0
 46
41.23109818
 79
     2
 49
8.24619961
 49
-32.98479843
 53
0.0
 43
8.24619961
 44
30.92329979
 45
0.0
 46
41.23109818
 79
     4
 49
4.1230998
 49
-16.49239922
 49
4.1230998
 49
-16.49239922
 53
0.0
 43
4.1230998
 44
31.95409966
 45
0.0
 46
41.23109818
 79
     4
 49
4.1230998
 49
-12.36929989
 49
8.24619961
 49
-16.49239922
 53
0.0
 43
12.36929989
 44
32.98479843
 45
0.0
 46
41.23109818
 79
     4
 49
4.1230998
 49
-20.6154995
 49
4.1230998
 49
-12.36929989
 53
0.0
 43
20.6154995
 44
34.0155983
 45
0.0
 46
41.23109818
 79
     2
 49
12.36929989
 49
-28.86170006
 53
0.0
 43
4.1230998
 44
36.07720184
 45
0.0
 46
41.23109818
 79
     2
 49
8.24619961
 49
-32.98479843
 53
0.0
 43
24.73859978
 44
37.10800171
 45
0.0
 46
41.23109818
 79
     2
 49
4.1230998
 49
-37.10800171
 53
0.0
 43
32.98479843
 44
38.13869858
 45
0.0
 46
41.23109818
 79
     2
 49
4.1230998
 49
-37.10800171
 53
14.03619957
 43
28.86170006
 44
3.09229994
 45
-41.23105626
 46
3.1589938600973E-05
 79
     2
 49
4.24679995
 49
-165.75320435
 53
14.03619957
 43
32.98479843
 44
12.36929989
 45
-41.23105626
 46
3.1589938600973E-05
 79
     2
 49
4.24679995
 49
-165.75320435
 53
14.03619957
 43
28.86170006
 44
37.10800171
 45
-41.23105626
 46
3.1589938600973E-05
 79
     2
 49
4.24679995
 49
-165.75320435
 53
14.03619957
 43
16.49239922
 44
21.64629936
 45
-41.23105626
 46
3.1589938600973E-05
 79
     2
 49
4.24679995
 49
-165.75320435
 53
14.03619957
 43
24.73859978
 44
27.83099937
 45
-41.23105626
 46
3.1589938600973E-05
 79
     2
 49
4.24679995
 49
-165.75320435
 53
14.03619957
 43
28.86170006
 44
24.73859978
 45
-41.23105626
 46
3.1589938600973E-05
 79
     2
 49
4.24679995
 49
-165.75320435
 53
14.03619957
 43
8.24619961
 44
31.95409966
 45
-41.23105626
 46
3.1589938600973E-05
 79
     2
 49
4.24679995
 49
-165.75320435
 53
14.03619957
 43
24.73859978
 44
29.89249992
 45
-41.23105626
 46
3.1589938600973E-05
 79
     2
 49
4.24679995
 49
-165.75320435
 53
14.03619957
 43
32.98479843
 44
14.43089962
 45
-41.23105626
 46
3.1589938600973E-05
 79
     2
 49
8.49359989
 49
-161.50639343
 53
14.03619957
 43
28.86170006
 44
17.52319908
 45
-41.23105626
 46
3.1589938600973E-05
 79
     2
 49
8.49359989
 49
-161.50639343
 53
14.03619957
 43
28.86170006
 44
19.58480072
 45
-41.23105626
 46
3.1589938600973E-05
 79
     2
 49
8.49359989
 49
-161.50639343
 53
165.96380615
 43
16.49239922
 44
6.18470001
 45
-41.23105626
 46
-3.5707624025605E-05
 79
     4
 49
4.24679995
 49
-8.49359989
 49
4.24679995
 49
-153.01280212
 53
165.96380615
 43
8.24619961
 44
12.36929989
 45
-41.23105626
 46
-3.5707624025605E-05
 79
     2
 49
4.24679995
 49
-165.75320435
 53
165.96380615
 43
8.24619961
 44
30.92329979
 45
-41.23105626
 46
-3.5707624025605E-05
 79
     2
 49
8.49359989
 49
-161.50639343
 53
194.03619385
 43
28.86170006
 44
1.03079998
 45
41.23105626
 46
-3.5707624036263E-05
 79
     2
 49
4.24679995
 49
-165.75320435
 53
345.9637146
 43
37.10800171
 44
1.03079998
 45
41.23105626
 46
-3.0175342796923E-05
 79
     2
 49
4.24679995
 49
-165.75320435
 53
345.9637146
 43
24.73859978
 44
15.4616003
 45
41.23105626
 46
-3.0175342796923E-05
 79
     2
 49
4.24679995
 49
-165.75320435
 53
345.9637146
 43
32.98479843
 44
22.67709923
 45
41.23105626
 46
-3.0175342796923E-05
 79
     2
 49
4.24679995
 49
-165.75320435
 53
345.9637146
 43
16.49239922
 44
25.76939964
 45
41.23105626
 46
-3.0175342796923E-05
 79
     2
 49
4.24679995
 49
-165.75320435
 53
345.9637146
 43
12.36929989
 44
30.92329979
 45
41.23105626
 46
-3.0175342796923E-05
 79
     2
 49
4.24679995
 49
-165.75320435
 53
345.9637146
 43
16.49239922
 44
32.98479843
 45
41.23105626
 46
-3.0175342796923E-05
 79
     2
 49
4.24679995
 49
-165.75320435
 53
345.9637146
 43
16.49239922
 44
25.76939964
 45
41.23105626
 46
-3.0175342796923E-05
 79
     2
 49
4.24679995
 49
-165.75320435
 53
345.9637146
 43
28.86170006
 44
31.95409966
 45
41.23105626
 46
-3.0175342796923E-05
 79
     2
 49
16.98719978
 49
-153.01280212
 53
345.9637146
 43
4.1230998
 44
4.1230998
 45
41.23105626
 46
-3.0175342796923E-05
 79
     2
 49
16.98719978
 49
-153.01280212
 53
345.9637146
 43
8.24619961
 44
7.21540022
 45
41.23105626
 46
-3.0175342796923E-05
 79
     2
 49
16.98719978
 49
-153.01280212
 53
345.9637146
 43
12.36929989
 44
9.27700043
 45
41.23105626
 46
-3.0175342796923E-05
 79
     4
 49
4.24679995
 49
-8.49359989
 49
8.49359989
 49
-148.76600647
 53
345.9637146
 43
12.36929989
 44
12.36929989
 45
41.23105626
 46
-3.0175342796923E-05
 79
     4
 49
8.49359989
 49
-8.49359989
 49
8.49359989
 49
-144.51919556
 53
345.9637146
 43
8.24619961
 44
16.49239922
 45
41.23105626
 46
-3.0175342796923E-05
 79
     2
 49
16.98719978
 49
-153.01280212
 53
345.9637146
 43
4.1230998
 44
19.58480072
 45
41.23105626
 46
-3.0175342796923E-05
 79
     2
 49
16.98719978
 49
-153.01280212
 53
345.9637146
 43
4.1230998
 44
21.64629936
 45
41.23105626
 46
-3.0175342796923E-05
 79
     2
 49
16.98719978
 49
-153.01280212
 53
345.9637146
 43
32.98479843
 44
34.0155983
 45
41.23105626
 46
-3.0175342796923E-05
 79
     2
 49
4.24679995
 49
-165.75320435
 53
345.96380615
 43
37.10800171
 44
38.13869858
 45
41.23105626
 46
3.5707624002512E-05
 79
     2
 49
8.49359989
 49
-161.50639343
 53
345.96380615
 43
12.36929989
 44
36.07720184
 45
41.23105626
 46
3.5707624002512E-05
 79
     2
 49
8.49359989
 49
-161.50639343
 53
345.9637146
 43
8.24619961
 44
0.0
 45
41.23105626
 46
-3.0175342796923E-05
 79
     2
 49
16.98719978
 49
-153.01280212
 53
345.9637146
 43
32.98479843
 44
28.86170006
 45
41.23105626
 46
-3.0175342796923E-05
 79
     2
 49
12.74040031
 49
-157.25959778
 53
345.9637146
 43
37.10800171
 44
25.76939964
 45
41.23105626
 46
-3.0175342796923E-05
 79
     2
 49
25.48080063
 49
-144.51919556
 47
0.775229
 98
        1
 10
0.0
 20
0.0
  0
LWPOLYLINE
  5
3F7
102
{ACAD_REACTORS
330
3F8
102
}
100
AcDbEntity
  8
Sc.1_5
 62
     7
  6
CONTINUOUS
100
AcDbPolyline
 90
        4
 70
     1
 43
0.0
 10
2151.73210918
 20
-819.39214222
 10
2151.73210918
 20
-904.9498784
 10
2153.53210918
 20
-904.9498784
 10
2153.53210918
 20
-819.39214222
  0
HATCH
  5
3F8
100
AcDbEntity
  8
Sc.1_5
 62
     9
  6
CONTINUOUS
100
AcDbHatch
 10
0.0
 20
0.0
 30
0.0
210
0.0
220
0.0
230
1.0
  2
CDWK12A
 70
     0
 71
     1
 91
        1
 92
        7
 72
     0
 73
     1
 93
        4
 10
2151.73210918
 20
-819.39214222
 10
2151.73210918
 20
-904.9498784
 10
2153.53210918
 20
-904.9498784
 10
2153.53210918
 20
-819.39214222
 97
        1
330
3F7
 75
     0
 76
     2
 52
0.0
 41
1.0
 77
     0
 78
    15
 53
0.0
 43
0.0
 44
0.0
 45
2.70000005
 46
4.9000001
 79
     2
 49
0.0
 49
-3.70000005
 53
0.0
 43
0.0
 44
0.0
 45
4.4000001
 46
4.80000019
 79
     2
 49
0.0
 49
-5.4000001
 53
0.0
 43
0.0
 44
0.0
 45
1.39999998
 46
4.5999999
 79
     2
 49
0.0
 49
-2.4000001
 53
0.0
 43
0.0
 44
0.0
 45
2.20000005
 46
4.19999981
 79
     2
 49
0.0
 49
-3.20000005
 53
0.0
 43
0.0
 44
0.0
 45
3.79999995
 46
4.0
 79
     2
 49
0.0
 49
-4.80000019
 53
0.0
 43
0.0
 44
0.0
 45
1.20000005
 46
3.79999995
 79
     2
 49
0.0
 49
-2.20000005
 53
0.0
 43
0.0
 44
0.0
 45
2.9000001
 46
3.5
 79
     2
 49
0.0
 49
-3.9000001
 53
0.0
 43
0.0
 44
0.0
 45
4.5999999
 46
3.4000001
 79
     2
 49
0.0
 49
-5.5999999
 53
0.0
 43
0.0
 44
0.0
 45
1.89999998
 46
2.9000001
 79
     2
 49
0.0
 49
-2.9000001
 53
0.0
 43
0.0
 44
0.0
 45
3.20000005
 46
2.79999995
 79
     2
 49
0.0
 49
-4.19999981
 53
0.0
 43
0.0
 44
0.0
 45
3.9000001
 46
2.4000001
 79
     2
 49
0.0
 49
-4.9000001
 53
0.0
 43
0.0
 44
0.0
 45
2.4000001
 46
2.0999999
 79
     2
 49
0.0
 49
-3.4000001
 53
0.0
 43
0.0
 44
0.0
 45
4.9000001
 46
2.0999999
 79
     2
 49
0.0
 49
-5.9000001
 53
0.0
 43
0.0
 44
0.0
 45
3.5999999
 46
1.5
 79
     2
 49
0.0
 49
-4.5999999
 53
0.0
 43
0.0
 44
0.0
 45
1.60000002
 46
1.39999998
 79
     2
 49
0.0
 49
-2.5999999
 47
0.775229
 98
        1
 10
0.0
 20
0.0
  0
LWPOLYLINE
  5
3F9
100
AcDbEntity
  8
Sc.1_5
 62
     7
  6
CONTINUOUS
100
AcDbPolyline
 90
        4
 70
     1
 43
0.0
 10
2228.23177505
 20
-900.94987739
 10
2154.03210918
 20
-900.94987739
 10
2154.03210918
 20
-904.94987739
 10
2228.23177505
 20
-904.94987739
  0
LWPOLYLINE
  5
3FA
102
{ACAD_REACTORS
330
3FB
102
}
100
AcDbEntity
  8
Sc.1_5
 62
     7
  6
CONTINUOUS
100
AcDbPolyline
 90
        4
 70
     1
 43
0.0
 10
2153.53208244
 20
-1009.39214222
 10
2153.53208244
 20
-944.04973724
 10
2151.73208244
 20
-944.04973724
 10
2151.73208244
 20
-1009.39214222
  0
HATCH
  5
3FB
100
AcDbEntity
  8
Sc.1_5
 62
     9
  6
CONTINUOUS
100
AcDbHatch
 10
0.0
 20
0.0
 30
0.0
210
0.0
220
0.0
230
1.0
  2
CDWK12A
 70
     0
 71
     1
 91
        1
 92
        7
 72
     0
 73
     1
 93
        4
 10
2153.53208244
 20
-1009.39214222
 10
2153.53208244
 20
-944.04973724
 10
2151.73208244
 20
-944.04973724
 10
2151.73208244
 20
-1009.39214222
 97
        1
330
3FA
 75
     0
 76
     2
 52
0.0
 41
1.0
 77
     0
 78
    15
 53
0.0
 43
0.0
 44
0.0
 45
2.70000005
 46
4.9000001
 79
     2
 49
0.0
 49
-3.70000005
 53
0.0
 43
0.0
 44
0.0
 45
4.4000001
 46
4.80000019
 79
     2
 49
0.0
 49
-5.4000001
 53
0.0
 43
0.0
 44
0.0
 45
1.39999998
 46
4.5999999
 79
     2
 49
0.0
 49
-2.4000001
 53
0.0
 43
0.0
 44
0.0
 45
2.20000005
 46
4.19999981
 79
     2
 49
0.0
 49
-3.20000005
 53
0.0
 43
0.0
 44
0.0
 45
3.79999995
 46
4.0
 79
     2
 49
0.0
 49
-4.80000019
 53
0.0
 43
0.0
 44
0.0
 45
1.20000005
 46
3.79999995
 79
     2
 49
0.0
 49
-2.20000005
 53
0.0
 43
0.0
 44
0.0
 45
2.9000001
 46
3.5
 79
     2
 49
0.0
 49
-3.9000001
 53
0.0
 43
0.0
 44
0.0
 45
4.5999999
 46
3.4000001
 79
     2
 49
0.0
 49
-5.5999999
 53
0.0
 43
0.0
 44
0.0
 45
1.89999998
 46
2.9000001
 79
     2
 49
0.0
 49
-2.9000001
 53
0.0
 43
0.0
 44
0.0
 45
3.20000005
 46
2.79999995
 79
     2
 49
0.0
 49
-4.19999981
 53
0.0
 43
0.0
 44
0.0
 45
3.9000001
 46
2.4000001
 79
     2
 49
0.0
 49
-4.9000001
 53
0.0
 43
0.0
 44
0.0
 45
2.4000001
 46
2.0999999
 79
     2
 49
0.0
 49
-3.4000001
 53
0.0
 43
0.0
 44
0.0
 45
4.9000001
 46
2.0999999
 79
     2
 49
0.0
 49
-5.9000001
 53
0.0
 43
0.0
 44
0.0
 45
3.5999999
 46
1.5
 79
     2
 49
0.0
 49
-4.5999999
 53
0.0
 43
0.0
 44
0.0
 45
1.60000002
 46
1.39999998
 79
     2
 49
0.0
 49
-2.5999999
 47
0.775229
 98
        1
 10
0.0
 20
0.0
  0
LWPOLYLINE
  5
3FC
102
{ACAD_REACTORS
330
3FD
102
}
100
AcDbEntity
  8
Sc.1_5
 62
     7
  6
CONTINUOUS
100
AcDbPolyline
 90
        4
 70
     1
 43
0.0
 10
2228.23177505
 20
-942.04973738
 10
2151.73208252
 20
-942.04973738
 10
2151.73208252
 20
-943.84973738
 10
2228.23177505
 20
-943.84973738
  0
HATCH
  5
3FD
100
AcDbEntity
  8
Sc.1_5
 62
     9
  6
CONTINUOUS
100
AcDbHatch
 10
0.0
 20
0.0
 30
0.0
210
0.0
220
0.0
230
1.0
  2
CDWK12A
 70
     0
 71
     1
 91
        1
 92
        7
 72
     0
 73
     1
 93
        4
 10
2228.23177505
 20
-942.04973738
 10
2151.73208252
 20
-942.04973738
 10
2151.73208252
 20
-943.84973738
 10
2228.23177505
 20
-943.84973738
 97
        1
330
3FC
 75
     0
 76
     2
 52
0.0
 41
1.0
 77
     0
 78
    15
 53
0.0
 43
0.0
 44
0.0
 45
2.70000005
 46
4.9000001
 79
     2
 49
0.0
 49
-3.70000005
 53
0.0
 43
0.0
 44
0.0
 45
4.4000001
 46
4.80000019
 79
     2
 49
0.0
 49
-5.4000001
 53
0.0
 43
0.0
 44
0.0
 45
1.39999998
 46
4.5999999
 79
     2
 49
0.0
 49
-2.4000001
 53
0.0
 43
0.0
 44
0.0
 45
2.20000005
 46
4.19999981
 79
     2
 49
0.0
 49
-3.20000005
 53
0.0
 43
0.0
 44
0.0
 45
3.79999995
 46
4.0
 79
     2
 49
0.0
 49
-4.80000019
 53
0.0
 43
0.0
 44
0.0
 45
1.20000005
 46
3.79999995
 79
     2
 49
0.0
 49
-2.20000005
 53
0.0
 43
0.0
 44
0.0
 45
2.9000001
 46
3.5
 79
     2
 49
0.0
 49
-3.9000001
 53
0.0
 43
0.0
 44
0.0
 45
4.5999999
 46
3.4000001
 79
     2
 49
0.0
 49
-5.5999999
 53
0.0
 43
0.0
 44
0.0
 45
1.89999998
 46
2.9000001
 79
     2
 49
0.0
 49
-2.9000001
 53
0.0
 43
0.0
 44
0.0
 45
3.20000005
 46
2.79999995
 79
     2
 49
0.0
 49
-4.19999981
 53
0.0
 43
0.0
 44
0.0
 45
3.9000001
 46
2.4000001
 79
     2
 49
0.0
 49
-4.9000001
 53
0.0
 43
0.0
 44
0.0
 45
2.4000001
 46
2.0999999
 79
     2
 49
0.0
 49
-3.4000001
 53
0.0
 43
0.0
 44
0.0
 45
4.9000001
 46
2.0999999
 79
     2
 49
0.0
 49
-5.9000001
 53
0.0
 43
0.0
 44
0.0
 45
3.5999999
 46
1.5
 79
     2
 49
0.0
 49
-4.5999999
 53
0.0
 43
0.0
 44
0.0
 45
1.60000002
 46
1.39999998
 79
     2
 49
0.0
 49
-2.5999999
 47
0.775229
 98
        1
 10
0.0
 20
0.0
  0
LWPOLYLINE
  5
3FE
102
{ACAD_REACTORS
330
3FF
102
}
100
AcDbEntity
  8
Sc.1_5
 62
     7
  6
CONTINUOUS
100
AcDbPolyline
 90
        4
 70
     1
 43
0.0
 10
2122.73218213
 20
-934.04977404
 10
2122.73218213
 20
-905.44987739
 10
2120.93218213
 20
-905.44987739
 10
2120.93218213
 20
-934.04977404
  0
HATCH
  5
3FF
100
AcDbEntity
  8
Sc.1_5
 62
     9
  6
CONTINUOUS
100
AcDbHatch
 10
0.0
 20
0.0
 30
0.0
210
0.0
220
0.0
230
1.0
  2
ANSI31
 70
     0
 71
     1
 91
        1
 92
        7
 72
     0
 73
     1
 93
        4
 10
2122.73218213
 20
-934.04977404
 10
2122.73218213
 20
-905.44987739
 10
2120.93218213
 20
-905.44987739
 10
2120.93218213
 20
-934.04977404
 97
        1
330
3FE
 75
     0
 76
     2
 52
0.0
 41
0.3149626
 77
     0
 78
     1
 53
45.0
 43
0.0
 44
0.0
 45
0.70710678
 46
-0.70710678
 79
     0
 47
0.775229
 98
        1
 10
0.0
 20
0.0
  0
LWPOLYLINE
  5
400
102
{ACAD_REACTORS
330
401
102
}
100
AcDbEntity
  8
Sc.1_5
 62
     7
  6
CONTINUOUS
100
AcDbPolyline
 90
        4
 70
     1
 43
0.0
 10
2122.73218213
 20
-1009.39214429
 10
2122.73218213
 20
-934.54973847
 10
2120.93218213
 20
-934.54973847
 10
2120.93218213
 20
-1009.39214429
  0
HATCH
  5
401
100
AcDbEntity
  8
Sc.1_5
 62
     9
  6
CONTINUOUS
100
AcDbHatch
 10
0.0
 20
0.0
 30
0.0
210
0.0
220
0.0
230
1.0
  2
ANSI31
 70
     0
 71
     1
 91
        1
 92
        7
 72
     0
 73
     1
 93
        4
 10
2122.73218213
 20
-1009.39214429
 10
2122.73218213
 20
-934.54973847
 10
2120.93218213
 20
-934.54973847
 10
2120.93218213
 20
-1009.39214429
 97
        1
330
400
 75
     0
 76
     2
 52
0.0
 41
0.3149626
 77
     0
 78
     1
 53
45.0
 43
0.0
 44
0.0
 45
0.70710678
 46
-0.70710678
 79
     0
 47
0.775229
 98
        1
 10
0.0
 20
0.0
  0
LINE
  5
402
100
AcDbEntity
  8
Sc.1_5
 62
     7
  6
CONTINUOUS
 48
0.5
370
    -3
100
AcDbLine
 10
2184.3793018
 20
-845.54285606
 30
500.0
 11
2142.30029087
 21
-845.54285606
 31
500.0
  0
INSERT
  5
403
100
AcDbEntity
  8
Sc.1_5
 62
     7
  6
CONTINUOUS
370
    -3
100
AcDbBlockReference
  2
CDWK_EXTR_2
 10
2142.30029087
 20
-845.54285606
 30
500.0
 41
1.0
 42
1.0
 43
1.0
  0
LINE
  5
404
100
AcDbEntity
  8
Sc.1_5
 62
     7
  6
CONTINUOUS
 48
0.5
370
    -3
100
AcDbLine
 10
2185.09520569
 20
-953.51435311
 30
500.0
 11
2177.14113948
 21
-943.61330035
 31
500.0
  0
INSERT
  5
405
100
AcDbEntity
  8
Sc.1_5
 62
     7
  6
CONTINUOUS
370
    -3
100
AcDbBlockReference
  2
CDWK_EXTR_2
 10
2177.14113948
 20
-943.61330035
 30
500.0
 41
1.0
 42
1.0
 43
1.0
 50
308.77684939
  0
LINE
  5
406
100
AcDbEntity
  8
Sc.1_5
 62
     7
  6
CONTINUOUS
 48
0.5
370
    -3
100
AcDbLine
 10
2184.3793018
 20
-894.1562596
 30
500.0
 11
2162.11251213
 21
-909.04727808
 31
500.0
  0
INSERT
  5
407
100
AcDbEntity
  8
Sc.1_5
 62
     7
  6
CONTINUOUS
370
    -3
100
AcDbBlockReference
  2
CDWK_EXTR_2
 10
2162.11251213
 20
-909.04727808
 30
500.0
 41
1.0
 42
1.0
 43
1.0
 50
33.77280916
  0
LINE
  5
408
100
AcDbEntity
  8
Sc.1_5
 62
     7
  6
CONTINUOUS
 48
0.5
370
    -3
100
AcDbLine
 10
2184.3793018
 20
-981.27612086
 30
500.0
 11
2142.30029087
 21
-981.27612086
 31
500.0
  0
INSERT
  5
409
100
AcDbEntity
  8
Sc.1_5
 62
     7
  6
CONTINUOUS
370
    -3
100
AcDbBlockReference
  2
CDWK_EXTR_2
 10
2142.30029087
 20
-981.27612086
 30
500.0
 41
1.0
 42
1.0
 43
1.0
  0
LWPOLYLINE
  5
40A
100
AcDbEntity
  8
Sc.1_1
 62
     7
  6
DASHDOT
370
     5
100
AcDbPolyline
 90
        4
 70
     1
 43
0.0
 10
2089.18393949
 20
-1064.11666848
 10
2121.0870116
 20
-1064.11666848
 10
2121.0870116
 20
-1048.11966148
 10
2089.18393949
 20
-1048.11966148
  0
LWPOLYLINE
  5
40B
100
AcDbEntity
  8
LEGEND
 62
     5
  6
CONTINUOUS
370
    -3
100
AcDbPolyline
 90
        4
 70
     1
 43
0.0
 10
2120.76923596
 20
-1064.75031721
 10
2178.5845902
 20
-1064.75031721
 10
2178.5845902
 20
-1047.48795572
 10
2120.76923596
 20
-1047.48795572
  0
LWPOLYLINE
  5
40C
100
AcDbEntity
  8
LEGEND
 62
     5
  6
CONTINUOUS
370
    -3
100
AcDbPolyline
 90
        4
 70
     1
 43
0.0
 10
2178.5845902
 20
-1064.75031721
 10
2251.97674175
 20
-1064.75031721
 10
2251.97674175
 20
-1047.48795572
 10
2178.5845902
 20
-1047.48795572
  0
LWPOLYLINE
  5
40D
100
AcDbEntity
  8
LEGEND
 62
     5
  6
CONTINUOUS
370
    -3
100
AcDbPolyline
 90
        4
 70
     1
 43
0.0
 10
2251.97674175
 20
-1064.75031721
 10
2286.50074088
 20
-1064.75031721
 10
2286.50074088
 20
-1056.11913647
 10
2251.97674175
 20
-1056.11913647
  0
LWPOLYLINE
  5
40E
100
AcDbEntity
  8
LEGEND
 62
     5
  6
CONTINUOUS
370
    -3
100
AcDbPolyline
 90
        4
 70
     1
 43
0.0
 10
2251.97674175
 20
-1056.11913647
 10
2266.88499043
 20
-1056.11913647
 10
2266.88499043
 20
-1047.48795572
 10
2251.97674175
 20
-1047.48795572
  0
LWPOLYLINE
  5
40F
100
AcDbEntity
  8
LEGEND
 62
     5
  6
CONTINUOUS
370
    -3
100
AcDbPolyline
 90
        4
 70
     1
 43
0.0
 10
2089.50074088
 20
-1064.75031721
 10
2286.50074088
 20
-1064.75031721
 10
2286.50074088
 20
-793.75031721
 10
2089.50074088
 20
-793.75031721
  0
LWPOLYLINE
  5
410
100
AcDbEntity
  8
LEGEND
 62
     5
  6
CONTINUOUS
370
    -3
100
AcDbPolyline
 90
        4
 70
     1
 43
0.0
 10
2266.88499043
 20
-1056.11913647
 10
2286.50074088
 20
-1056.11913647
 10
2286.50074088
 20
-1047.48795572
 10
2266.88499043
 20
-1047.48795572
  0
LWPOLYLINE
  5
411
100
AcDbEntity
  8
LEGEND
 62
     5
  6
CONTINUOUS
370
    -3
100
AcDbPolyline
 90
        4
 70
     1
 43
0.0
 10
2089.50074088
 20
-1064.75031721
 10
2120.76923596
 20
-1064.75031721
 10
2120.76923596
 20
-1047.48795572
 10
2089.50074088
 20
-1047.48795572
  0
3DFACE
  5
412
100
AcDbEntity
  8
Sc.1_5
 62
     7
  6
CONTINUOUS
370
    20
100
AcDbFace
 70
     0
 10
2116.23218142
 20
-921.89214245
 30
548.63999023
 11
2120.23218148
 21
-921.8921421
 31
548.63999023
 12
2120.23218218
 22
-929.89214222
 32
548.63999023
 13
2116.23218212
 23
-929.89214257
 33
548.63999023
  0
INSERT
  5
413
100
AcDbEntity
  8
Sc.1_5
 62
     0
370
    20
100
AcDbBlockReference
  2
*X2005
 10
0.0
 20
0.0
 30
0.0
  0
3DFACE
  5
414
100
AcDbEntity
  8
Sc.1_5
 62
     7
  6
CONTINUOUS
370
    20
100
AcDbFace
 70
     0
 10
2123.23212197
 20
-895.9498784
 30
914.4
 11
2123.23218213
 21
-819.39214222
 31
914.4
 12
2151.23212278
 22
-819.39214222
 32
914.4
 13
2151.23212278
 23
-895.9498784
 33
914.4
  0
INSERT
  5
415
100
AcDbEntity
  8
Sc.1_5
 62
     0
370
    20
100
AcDbBlockReference
  2
*X2059
 10
0.0
 20
0.0
 30
0.0
  0
3DFACE
  5
416
100
AcDbEntity
  8
Sc.1_5
 62
     7
  6
CONTINUOUS
370
    20
100
AcDbFace
 70
     0
 10
2151.23208244
 20
-1009.39214222
 30
914.4
 11
2151.23208244
 21
-953.04973738
 31
914.4
 12
2123.23212236
 22
-953.0497386
 32
914.4
 13
2123.23218213
 23
-1009.39214222
 33
914.4
  0
INSERT
  5
417
100
AcDbEntity
  8
Sc.1_5
 62
     0
370
    20
100
AcDbBlockReference
  2
*X2060
 10
0.0
 20
0.0
 30
0.0
  0
3DFACE
  5
418
100
AcDbEntity
  8
Sc.1_5
 62
     7
  6
CONTINUOUS
370
    20
100
AcDbFace
 70
     0
 10
2123.23212197
 20
-895.94987949
 30
548.63999023
 11
2123.23212236
 21
-904.94987962
 31
548.63999023
 12
2151.23212278
 22
-904.9498784
 32
548.63999023
 13
2151.23212239
 23
-895.94987826
 33
548.63999023
  0
INSERT
  5
419
100
AcDbEntity
  8
Sc.1_5
 62
     0
370
    20
100
AcDbBlockReference
  2
*X2061
 10
0.0
 20
0.0
 30
0.0
  0
3DFACE
  5
41A
100
AcDbEntity
  8
Sc.1_5
 62
     7
  6
CONTINUOUS
370
    20
100
AcDbFace
 70
     0
 10
2123.23212197
 20
-934.54973847
 30
548.63999023
 11
2123.23218213
 21
-943.54973738
 31
548.63999023
 12
2151.23212278
 22
-943.54973738
 32
548.63999023
 13
2151.23212239
 23
-934.54973724
 33
548.63999023
  0
INSERT
  5
41B
100
AcDbEntity
  8
Sc.1_5
 62
     0
370
    20
100
AcDbBlockReference
  2
*X2062
 10
0.0
 20
0.0
 30
0.0
  0
3DFACE
  5
41C
100
AcDbEntity
  8
Sc.1_5
 62
     7
  6
CONTINUOUS
370
    20
100
AcDbFace
 70
     0
 10
2151.73208244
 20
-934.54973738
 30
548.63999023
 11
2151.73208252
 21
-941.54973748
 31
548.63999023
 12
2165.73208273
 22
-941.54973731
 32
548.63999023
 13
2165.73208265
 23
-934.54973721
 33
548.63999023
  0
INSERT
  5
41D
100
AcDbEntity
  8
Sc.1_5
 62
     0
370
    20
100
AcDbBlockReference
  2
*X2063
 10
0.0
 20
0.0
 30
0.0
  0
3DFACE
  5
41E
100
AcDbEntity
  8
Sc.1_5
 62
     7
  6
CONTINUOUS
370
    20
100
AcDbFace
 70
     0
 10
2123.23218213
 20
-944.04973738
 30
548.63999023
 11
2123.23212236
 21
-953.0497386
 31
548.63999023
 12
2151.23208244
 22
-953.04973738
 32
548.63999023
 13
2151.23212239
 23
-944.04973724
 33
548.63999023
  0
INSERT
  5
41F
100
AcDbEntity
  8
Sc.1_5
 62
     0
370
    20
100
AcDbBlockReference
  2
*X2064
 10
0.0
 20
0.0
 30
0.0
  0
3DFACE
  5
420
100
AcDbEntity
  8
Sc.1_5
 62
     9
  6
CONTINUOUS
370
    20
100
AcDbFace
 70
     0
 10
2141.97243366
 20
-897.56919741
 30
548.63999023
 11
2140.97243366
 21
-897.56919741
 31
548.63999023
 12
2140.97243366
 22
-915.63330326
 32
548.63999023
 13
2141.97243366
 23
-915.43752978
 33
548.63999023
  0
LWPOLYLINE
  5
421
100
AcDbEntity
  8
Sc.1_5
 62
     9
  6
CONTINUOUS
370
    20
100
AcDbPolyline
 90
        8
 70
     1
 43
0.0
 38
510.0
 39
-510.0
 10
2142.47243366
 20
-914.31487321
 10
2141.97243366
 20
-914.64792169
 10
2140.97243366
 20
-914.90894741
 10
2140.47243366
 20
-914.97194841
 10
2140.97243366
 20
-914.63889993
 10
2141.97243366
 20
-914.3778742
 10
2142.47243366
 20
-914.31487321
 10
2140.47243366
 20
-914.97194841
  0
LWPOLYLINE
  5
422
100
AcDbEntity
  8
Sc.1_5
 62
     9
  6
CONTINUOUS
370
    20
100
AcDbPolyline
 90
        8
 70
     1
 43
0.0
 38
510.0
 39
-510.0
 10
2142.47243366
 20
-913.0776356
 10
2141.97243366
 20
-913.41068408
 10
2140.97243366
 20
-913.6717098
 10
2140.47243366
 20
-913.73471079
 10
2140.97243366
 20
-913.40166232
 10
2141.97243366
 20
-913.14063659
 10
2142.47243366
 20
-913.0776356
 10
2140.47243366
 20
-913.73471079
  0
3DFACE
  5
423
100
AcDbEntity
  8
Sc.1_5
 62
     9
  6
CONTINUOUS
370
    20
100
AcDbFace
 70
     0
 10
2139.67243366
 20
-896.26774531
 30
510.0
 11
2140.97315976
 21
-897.5684714
 31
510.0
 12
2141.97170761
 22
-897.56847135
 32
510.0
 13
2143.27243366
 23
-896.26774531
 33
510.0
  0
3DFACE
  5
424
100
AcDbEntity
  8
Sc.1_5
 62
     9
  6
CONTINUOUS
370
    20
100
AcDbFace
 70
     0
 10
2139.67243366
 20
-896.26774531
 30
510.0
 11
2139.67243366
 21
-896.06774531
 31
510.0
 12
2143.27243366
 22
-896.06774531
 32
510.0
 13
2143.27243366
 23
-896.26774531
 33
510.0
  0
LWPOLYLINE
  5
425
100
AcDbEntity
  8
Sc.1_5
 62
     9
  6
CADWORK_13
370
    -3
100
AcDbPolyline
 90
        4
 70
     0
 43
0.0
 38
510.0
 10
2141.97243366
 20
-896.06774531
 10
2141.77243366
 20
-896.89614035
 10
2141.17243366
 20
-896.89614035
 10
2140.97243366
 20
-896.06774531
  0
LINE
  5
426
100
AcDbEntity
  8
Sc.1_5
 62
     9
  6
CADWORK_13
370
    -3
100
AcDbLine
 10
2141.47243366
 20
-896.89614035
 30
510.0
 11
2141.47243366
 21
-896.06774531
 31
510.0
  0
LWPOLYLINE
  5
427
100
AcDbEntity
  8
Sc.1_5
 62
     9
  6
CONTINUOUS
370
    20
100
AcDbPolyline
 90
        8
 70
     1
 43
0.0
 38
510.0
 39
-510.0
 10
2142.47243366
 20
-911.84039799
 10
2141.97243366
 20
-912.17344646
 10
2140.97243366
 20
-912.43447219
 10
2140.47243366
 20
-912.49747318
 10
2140.97243366
 20
-912.16442471
 10
2141.97243366
 20
-911.90339898
 10
2142.47243366
 20
-911.84039799
 10
2140.47243366
 20
-912.49747318
  0
LWPOLYLINE
  5
428
100
AcDbEntity
  8
Sc.1_5
 62
     9
  6
CONTINUOUS
370
    20
100
AcDbPolyline
 90
        8
 70
     1
 43
0.0
 38
510.0
 39
-510.0
 10
2142.47243366
 20
-910.60316038
 10
2141.97243366
 20
-910.93620885
 10
2140.97243366
 20
-911.19723458
 10
2140.47243366
 20
-911.26023557
 10
2140.97243366
 20
-910.92718709
 10
2141.97243366
 20
-910.66616137
 10
2142.47243366
 20
-910.60316038
 10
2140.47243366
 20
-911.26023557
  0
LWPOLYLINE
  5
429
100
AcDbEntity
  8
Sc.1_5
 62
     9
  6
CONTINUOUS
370
    20
100
AcDbPolyline
 90
        8
 70
     1
 43
0.0
 38
510.0
 39
-510.0
 10
2142.47243366
 20
-909.36592276
 10
2141.97243366
 20
-909.69897124
 10
2140.97243366
 20
-909.95999697
 10
2140.47243366
 20
-910.02299796
 10
2140.97243366
 20
-909.68994948
 10
2141.97243366
 20
-909.42892376
 10
2142.47243366
 20
-909.36592276
 10
2140.47243366
 20
-910.02299796
  0
LWPOLYLINE
  5
42A
100
AcDbEntity
  8
Sc.1_5
 62
     9
  6
CONTINUOUS
370
    20
100
AcDbPolyline
 90
        8
 70
     1
 43
0.0
 38
510.0
 39
-510.0
 10
2142.47243366
 20
-908.12868515
 10
2141.97243366
 20
-908.46173363
 10
2140.97243366
 20
-908.72275936
 10
2140.47243366
 20
-908.78576035
 10
2140.97243366
 20
-908.45271187
 10
2141.97243366
 20
-908.19168614
 10
2142.47243366
 20
-908.12868515
 10
2140.47243366
 20
-908.78576035
  0
LWPOLYLINE
  5
42B
100
AcDbEntity
  8
Sc.1_5
 62
     9
  6
CONTINUOUS
370
    20
100
AcDbPolyline
 90
        8
 70
     1
 43
0.0
 38
510.0
 39
-510.0
 10
2142.47243366
 20
-906.89144754
 10
2141.97243366
 20
-907.22449602
 10
2140.97243366
 20
-907.48552174
 10
2140.47243366
 20
-907.54852274
 10
2140.97243366
 20
-907.21547426
 10
2141.97243366
 20
-906.95444853
 10
2142.47243366
 20
-906.89144754
 10
2140.47243366
 20
-907.54852274
  0
LWPOLYLINE
  5
42C
100
AcDbEntity
  8
Sc.1_5
 62
     9
  6
CONTINUOUS
370
    20
100
AcDbPolyline
 90
        8
 70
     1
 43
0.0
 38
510.0
 39
-510.0
 10
2142.47243366
 20
-905.65420993
 10
2141.97243366
 20
-905.98725841
 10
2140.97243366
 20
-906.24828413
 10
2140.47243366
 20
-906.31128512
 10
2140.97243366
 20
-905.97823665
 10
2141.97243366
 20
-905.71721092
 10
2142.47243366
 20
-905.65420993
 10
2140.47243366
 20
-906.31128512
  0
LWPOLYLINE
  5
42D
100
AcDbEntity
  8
Sc.1_5
 62
     9
  6
CONTINUOUS
370
    20
100
AcDbPolyline
 90
        8
 70
     1
 43
0.0
 38
510.0
 39
-510.0
 10
2142.47243366
 20
-904.41697232
 10
2141.97243366
 20
-904.75002079
 10
2140.97243366
 20
-905.01104652
 10
2140.47243366
 20
-905.07404751
 10
2140.97243366
 20
-904.74099904
 10
2141.97243366
 20
-904.47997331
 10
2142.47243366
 20
-904.41697232
 10
2140.47243366
 20
-905.07404751
  0
LWPOLYLINE
  5
42E
100
AcDbEntity
  8
Sc.1_5
 62
     9
  6
CONTINUOUS
370
    20
100
AcDbPolyline
 90
        8
 70
     1
 43
0.0
 38
510.0
 39
-510.0
 10
2142.47243366
 20
-903.1797347
 10
2141.97243366
 20
-903.51278318
 10
2140.97243366
 20
-903.77380891
 10
2140.47243366
 20
-903.8368099
 10
2140.97243366
 20
-903.50376142
 10
2141.97243366
 20
-903.2427357
 10
2142.47243366
 20
-903.1797347
 10
2140.47243366
 20
-903.8368099
  0
LWPOLYLINE
  5
42F
100
AcDbEntity
  8
Sc.1_5
 62
     9
  6
CONTINUOUS
370
    20
100
AcDbPolyline
 90
        8
 70
     1
 43
0.0
 38
510.0
 39
-510.0
 10
2142.47243366
 20
-901.94249709
 10
2141.97243366
 20
-902.27554557
 10
2140.97243366
 20
-902.5365713
 10
2140.47243366
 20
-902.59957229
 10
2140.97243366
 20
-902.26652381
 10
2141.97243366
 20
-902.00549809
 10
2142.47243366
 20
-901.94249709
 10
2140.47243366
 20
-902.59957229
  0
LWPOLYLINE
  5
430
100
AcDbEntity
  8
Sc.1_5
 62
     9
  6
CONTINUOUS
370
    20
100
AcDbPolyline
 90
        8
 70
     1
 43
0.0
 38
510.0
 39
-510.0
 10
2142.47243366
 20
-900.70525948
 10
2141.97243366
 20
-901.03830796
 10
2140.97243366
 20
-901.29933369
 10
2140.47243366
 20
-901.36233468
 10
2140.97243366
 20
-901.0292862
 10
2141.97243366
 20
-900.76826047
 10
2142.47243366
 20
-900.70525948
 10
2140.47243366
 20
-901.36233468
  0
LWPOLYLINE
  5
431
100
AcDbEntity
  8
Sc.1_5
 62
     9
  6
CONTINUOUS
370
    20
100
AcDbPolyline
 90
        8
 70
     1
 43
0.0
 38
510.0
 39
-510.0
 10
2142.47243366
 20
-899.46802187
 10
2141.97243366
 20
-899.80107035
 10
2140.97243366
 20
-900.06209607
 10
2140.47243366
 20
-900.12509707
 10
2140.97243366
 20
-899.79204859
 10
2141.97243366
 20
-899.53102286
 10
2142.47243366
 20
-899.46802187
 10
2140.47243366
 20
-900.12509707
  0
LWPOLYLINE
  5
432
100
AcDbEntity
  8
Sc.1_5
 62
     9
  6
CONTINUOUS
370
    20
100
AcDbPolyline
 90
        8
 70
     1
 43
0.0
 38
510.0
 39
-510.0
 10
2142.47243366
 20
-898.23078426
 10
2141.97243366
 20
-898.56383274
 10
2140.97243366
 20
-898.82485846
 10
2140.47243366
 20
-898.88785945
 10
2140.97243366
 20
-898.55481098
 10
2141.97243366
 20
-898.29378525
 10
2142.47243366
 20
-898.23078426
 10
2140.47243366
 20
-898.88785945
  0
LWPOLYLINE
  5
433
100
AcDbEntity
  8
Sc.1_5
 62
     9
  6
CONTINUOUS
370
    20
100
AcDbPolyline
 90
        6
 70
     1
 43
0.0
 38
548.63999023
 39
-548.63999023
 10
2140.97243366
 20
-915.63330326
 10
2140.60635795
 20
-915.83988344
 10
2140.97243366
 20
-915.90744668
 10
2141.97243366
 20
-915.64241964
 10
2142.33435802
 20
-915.43446937
 10
2141.97243366
 20
-915.43752978
  0
LWPOLYLINE
  5
434
100
AcDbEntity
  8
Sc.1_5
 62
     9
  6
CONTINUOUS
370
    20
100
AcDbPolyline
 90
        6
 70
     1
 43
0.0
 38
548.63999023
 39
-548.63999023
 10
2141.05401202
 20
-916.65076347
 10
2140.7795039
 20
-916.78585536
 10
2141.09944152
 20
-916.84282479
 10
2141.8621774
 20
-916.66848516
 10
2142.16121206
 20
-916.5154986
 10
2141.88670395
 20
-916.5154986
  0
LINE
  5
435
100
AcDbEntity
  8
Sc.1_5
 62
     9
  6
CONTINUOUS
370
    -3
100
AcDbLine
 10
2140.60635795
 20
-915.83988344
 30
0.0
 11
2142.33435802
 21
-915.43446937
 31
0.0
  0
LINE
  5
436
100
AcDbEntity
  8
Sc.1_5
 62
     9
  6
CONTINUOUS
370
    -3
100
AcDbLine
 10
2140.7795039
 20
-916.78585536
 30
0.0
 11
2142.16121206
 21
-916.5154986
 31
0.0
  0
3DFACE
  5
437
100
AcDbEntity
  8
Sc.1_5
 62
     9
  6
CONTINUOUS
370
    20
100
AcDbFace
 70
     0
 10
2141.09944152
 20
-916.84282479
 30
548.63999023
 11
2141.47243366
 21
-917.73184459
 31
548.63999023
 12
2141.8621774
 22
-916.66848516
 32
548.63999023
 13
2141.8621774
 23
-916.66848516
 33
548.63999023
  0
3DFACE
  5
438
100
AcDbEntity
  8
Sc.1_5
 62
     9
  6
CONTINUOUS
370
    20
100
AcDbFace
 70
     0
 10
2140.97243366
 20
-915.90744668
 30
548.63999023
 11
2141.97243366
 21
-915.64241964
 31
548.63999023
 12
2141.88670395
 22
-916.5154986
 32
548.63999023
 13
2141.05401202
 23
-916.65076347
 33
548.63999023
  0
LWPOLYLINE
  5
439
100
AcDbEntity
  8
Sc.1_5
 62
     9
  6
CONTINUOUS
370
    20
100
AcDbPolyline
 90
       11
 70
     1
 43
0.0
 38
548.63999023
 39
-548.63999023
 10
2134.71784316
 20
-906.95132949
 10
2134.71784316
 20
-950.95119674
 10
2134.71784316
 20
-951.22534017
 10
2134.79942153
 20
-951.96865695
 10
2134.84485102
 20
-952.16071828
 10
2135.21784316
 20
-953.04973808
 10
2135.60758691
 20
-951.98637865
 10
2135.63211345
 20
-951.83339208
 10
2135.71784316
 20
-950.96031313
 10
2135.71784316
 20
-950.75542327
 10
2135.71784316
 20
-906.95060342
  0
LWPOLYLINE
  5
43A
100
AcDbEntity
  8
Sc.1_5
 62
     9
  6
CONTINUOUS
370
    20
100
AcDbPolyline
 90
        8
 70
     1
 43
0.0
 38
548.63999023
 39
-548.63999023
 10
2136.21784316
 20
-949.6327667
 10
2135.71784316
 20
-949.96581518
 10
2134.71784316
 20
-950.2268409
 10
2134.21784316
 20
-950.28984189
 10
2134.71784316
 20
-949.95679342
 10
2135.71784316
 20
-949.69576769
 10
2136.21784316
 20
-949.6327667
 10
2134.21784316
 20
-950.28984189
  0
LWPOLYLINE
  5
43B
100
AcDbEntity
  8
Sc.1_5
 62
     9
  6
CONTINUOUS
370
    20
100
AcDbPolyline
 90
        8
 70
     1
 43
0.0
 38
548.63999023
 39
-548.63999023
 10
2136.21784316
 20
-948.39552909
 10
2135.71784316
 20
-948.72857756
 10
2134.71784316
 20
-948.98960329
 10
2134.21784316
 20
-949.05260428
 10
2134.71784316
 20
-948.7195558
 10
2135.71784316
 20
-948.45853008
 10
2136.21784316
 20
-948.39552909
 10
2134.21784316
 20
-949.05260428
  0
3DFACE
  5
43C
100
AcDbEntity
  8
Sc.1_5
 62
     9
  6
CONTINUOUS
370
    20
100
AcDbFace
 70
     0
 10
2133.41784316
 20
-905.64987739
 30
548.63999023
 11
2134.71856927
 21
-906.95060348
 31
548.63999023
 12
2135.71711711
 22
-906.95060342
 32
548.63999023
 13
2137.01784316
 23
-905.64987739
 33
548.63999023
  0
3DFACE
  5
43D
100
AcDbEntity
  8
Sc.1_5
 62
     9
  6
CONTINUOUS
370
    20
100
AcDbFace
 70
     0
 10
2133.41784316
 20
-905.64987739
 30
548.63999023
 11
2133.41784316
 21
-905.44987739
 31
548.63999023
 12
2137.01784316
 22
-905.44987739
 32
548.63999023
 13
2137.01784316
 23
-905.64987739
 33
548.63999023
  0
LWPOLYLINE
  5
43E
100
AcDbEntity
  8
Sc.1_5
 62
     9
  6
CADWORK_13
370
    -3
100
AcDbPolyline
 90
        4
 70
     0
 43
0.0
 38
510.0
 10
2135.71784316
 20
-905.44987739
 10
2135.51784316
 20
-906.27827243
 10
2134.91784316
 20
-906.27827243
 10
2134.71784316
 20
-905.44987739
  0
LINE
  5
43F
100
AcDbEntity
  8
Sc.1_5
 62
     9
  6
CADWORK_13
370
    -3
100
AcDbLine
 10
2135.21784316
 20
-906.27827243
 30
510.0
 11
2135.21784316
 21
-905.44987739
 31
510.0
  0
LWPOLYLINE
  5
440
100
AcDbEntity
  8
Sc.1_5
 62
     9
  6
CONTINUOUS
370
    20
100
AcDbPolyline
 90
        8
 70
     1
 43
0.0
 38
548.63999023
 39
-548.63999023
 10
2136.21784316
 20
-947.15829147
 10
2135.71784316
 20
-947.49133995
 10
2134.71784316
 20
-947.75236568
 10
2134.21784316
 20
-947.81536667
 10
2134.71784316
 20
-947.48231819
 10
2135.71784316
 20
-947.22129247
 10
2136.21784316
 20
-947.15829147
 10
2134.21784316
 20
-947.81536667
  0
LWPOLYLINE
  5
441
100
AcDbEntity
  8
Sc.1_5
 62
     9
  6
CONTINUOUS
370
    20
100
AcDbPolyline
 90
        8
 70
     1
 43
0.0
 38
548.63999023
 39
-548.63999023
 10
2136.21784316
 20
-945.92105386
 10
2135.71784316
 20
-946.25410234
 10
2134.71784316
 20
-946.51512807
 10
2134.21784316
 20
-946.57812906
 10
2134.71784316
 20
-946.24508058
 10
2135.71784316
 20
-945.98405485
 10
2136.21784316
 20
-945.92105386
 10
2134.21784316
 20
-946.57812906
  0
LWPOLYLINE
  5
442
100
AcDbEntity
  8
Sc.1_5
 62
     9
  6
CONTINUOUS
370
    20
100
AcDbPolyline
 90
        8
 70
     1
 43
0.0
 38
548.63999023
 39
-548.63999023
 10
2136.21784316
 20
-944.68381625
 10
2135.71784316
 20
-945.01686473
 10
2134.71784316
 20
-945.27789046
 10
2134.21784316
 20
-945.34089145
 10
2134.71784316
 20
-945.00784297
 10
2135.71784316
 20
-944.74681724
 10
2136.21784316
 20
-944.68381625
 10
2134.21784316
 20
-945.34089145
  0
LWPOLYLINE
  5
443
100
AcDbEntity
  8
Sc.1_5
 62
     9
  6
CONTINUOUS
370
    20
100
AcDbPolyline
 90
        8
 70
     1
 43
0.0
 38
548.63999023
 39
-548.63999023
 10
2136.21784316
 20
-943.44657864
 10
2135.71784316
 20
-943.77962712
 10
2134.71784316
 20
-944.04065284
 10
2134.21784316
 20
-944.10365384
 10
2134.71784316
 20
-943.77060536
 10
2135.71784316
 20
-943.50957963
 10
2136.21784316
 20
-943.44657864
 10
2134.21784316
 20
-944.10365384
  0
LWPOLYLINE
  5
444
100
AcDbEntity
  8
Sc.1_5
 62
     9
  6
CONTINUOUS
370
    20
100
AcDbPolyline
 90
        8
 70
     1
 43
0.0
 38
548.63999023
 39
-548.63999023
 10
2136.21784316
 20
-942.20934103
 10
2135.71784316
 20
-942.5423895
 10
2134.71784316
 20
-942.80341523
 10
2134.21784316
 20
-942.86641622
 10
2134.71784316
 20
-942.53336775
 10
2135.71784316
 20
-942.27234202
 10
2136.21784316
 20
-942.20934103
 10
2134.21784316
 20
-942.86641622
  0
LWPOLYLINE
  5
445
100
AcDbEntity
  8
Sc.1_5
 62
     9
  6
CONTINUOUS
370
    20
100
AcDbPolyline
 90
        8
 70
     1
 43
0.0
 38
548.63999023
 39
-548.63999023
 10
2136.21784316
 20
-940.97210342
 10
2135.71784316
 20
-941.30515189
 10
2134.71784316
 20
-941.56617762
 10
2134.21784316
 20
-941.62917861
 10
2134.71784316
 20
-941.29613013
 10
2135.71784316
 20
-941.03510441
 10
2136.21784316
 20
-940.97210342
 10
2134.21784316
 20
-941.62917861
  0
LWPOLYLINE
  5
446
100
AcDbEntity
  8
Sc.1_5
 62
     9
  6
CONTINUOUS
370
    20
100
AcDbPolyline
 90
        8
 70
     1
 43
0.0
 38
548.63999023
 39
-548.63999023
 10
2136.21784316
 20
-939.7348658
 10
2135.71784316
 20
-940.06791428
 10
2134.71784316
 20
-940.32894001
 10
2134.21784316
 20
-940.391941
 10
2134.71784316
 20
-940.05889252
 10
2135.71784316
 20
-939.7978668
 10
2136.21784316
 20
-939.7348658
 10
2134.21784316
 20
-940.391941
  0
LWPOLYLINE
  5
447
100
AcDbEntity
  8
Sc.1_5
 62
     9
  6
CONTINUOUS
370
    20
100
AcDbPolyline
 90
        8
 70
     1
 43
0.0
 38
548.63999023
 39
-548.63999023
 10
2136.21784316
 20
-938.49762819
 10
2135.71784316
 20
-938.83067667
 10
2134.71784316
 20
-939.0917024
 10
2134.21784316
 20
-939.15470339
 10
2134.71784316
 20
-938.82165491
 10
2135.71784316
 20
-938.56062918
 10
2136.21784316
 20
-938.49762819
 10
2134.21784316
 20
-939.15470339
  0
LWPOLYLINE
  5
448
100
AcDbEntity
  8
Sc.1_5
 62
     9
  6
CONTINUOUS
370
    20
100
AcDbPolyline
 90
        8
 70
     1
 43
0.0
 38
548.63999023
 39
-548.63999023
 10
2136.21784316
 20
-937.26039058
 10
2135.71784316
 20
-937.59343906
 10
2134.71784316
 20
-937.85446478
 10
2134.21784316
 20
-937.91746578
 10
2134.71784316
 20
-937.5844173
 10
2135.71784316
 20
-937.32339157
 10
2136.21784316
 20
-937.26039058
 10
2134.21784316
 20
-937.91746578
  0
LWPOLYLINE
  5
449
100
AcDbEntity
  8
Sc.1_5
 62
     9
  6
CONTINUOUS
370
    20
100
AcDbPolyline
 90
        8
 70
     1
 43
0.0
 38
548.63999023
 39
-548.63999023
 10
2136.21784316
 20
-936.02315297
 10
2135.71784316
 20
-936.35620145
 10
2134.71784316
 20
-936.61722717
 10
2134.21784316
 20
-936.68022817
 10
2134.71784316
 20
-936.34717969
 10
2135.71784316
 20
-936.08615396
 10
2136.21784316
 20
-936.02315297
 10
2134.21784316
 20
-936.68022817
  0
LWPOLYLINE
  5
44A
100
AcDbEntity
  8
Sc.1_5
 62
     9
  6
CONTINUOUS
370
    20
100
AcDbPolyline
 90
        8
 70
     1
 43
0.0
 38
548.63999023
 39
-548.63999023
 10
2136.21784316
 20
-934.78591536
 10
2135.71784316
 20
-935.11896383
 10
2134.71784316
 20
-935.37998956
 10
2134.21784316
 20
-935.44299055
 10
2134.71784316
 20
-935.10994208
 10
2135.71784316
 20
-934.84891635
 10
2136.21784316
 20
-934.78591536
 10
2134.21784316
 20
-935.44299055
  0
LWPOLYLINE
  5
44B
100
AcDbEntity
  8
Sc.1_5
 62
     9
  6
CONTINUOUS
370
    20
100
AcDbPolyline
 90
        8
 70
     1
 43
0.0
 38
548.63999023
 39
-548.63999023
 10
2136.21784316
 20
-933.54867775
 10
2135.71784316
 20
-933.88172622
 10
2134.71784316
 20
-934.14275195
 10
2134.21784316
 20
-934.20575294
 10
2134.71784316
 20
-933.87270446
 10
2135.71784316
 20
-933.61167874
 10
2136.21784316
 20
-933.54867775
 10
2134.21784316
 20
-934.20575294
  0
LWPOLYLINE
  5
44C
100
AcDbEntity
  8
Sc.1_5
 62
     9
  6
CONTINUOUS
370
    20
100
AcDbPolyline
 90
        8
 70
     1
 43
0.0
 38
548.63999023
 39
-548.63999023
 10
2136.21784316
 20
-932.31144013
 10
2135.71784316
 20
-932.64448861
 10
2134.71784316
 20
-932.90551434
 10
2134.21784316
 20
-932.96851533
 10
2134.71784316
 20
-932.63546685
 10
2135.71784316
 20
-932.37444113
 10
2136.21784316
 20
-932.31144013
 10
2134.21784316
 20
-932.96851533
  0
LWPOLYLINE
  5
44D
100
AcDbEntity
  8
Sc.1_5
 62
     9
  6
CONTINUOUS
370
    20
100
AcDbPolyline
 90
        8
 70
     1
 43
0.0
 38
548.63999023
 39
-548.63999023
 10
2136.21784316
 20
-931.07420252
 10
2135.71784316
 20
-931.407251
 10
2134.71784316
 20
-931.66827673
 10
2134.21784316
 20
-931.73127772
 10
2134.71784316
 20
-931.39822924
 10
2135.71784316
 20
-931.13720351
 10
2136.21784316
 20
-931.07420252
 10
2134.21784316
 20
-931.73127772
  0
LWPOLYLINE
  5
44E
100
AcDbEntity
  8
Sc.1_5
 62
     9
  6
CONTINUOUS
370
    20
100
AcDbPolyline
 90
        8
 70
     1
 43
0.0
 38
548.63999023
 39
-548.63999023
 10
2136.21784316
 20
-929.83696491
 10
2135.71784316
 20
-930.17001339
 10
2134.71784316
 20
-930.43103911
 10
2134.21784316
 20
-930.49404011
 10
2134.71784316
 20
-930.16099163
 10
2135.71784316
 20
-929.8999659
 10
2136.21784316
 20
-929.83696491
 10
2134.21784316
 20
-930.49404011
  0
LWPOLYLINE
  5
44F
100
AcDbEntity
  8
Sc.1_5
 62
     9
  6
CONTINUOUS
370
    20
100
AcDbPolyline
 90
        8
 70
     1
 43
0.0
 38
548.63999023
 39
-548.63999023
 10
2136.21784316
 20
-928.5997273
 10
2135.71784316
 20
-928.93277578
 10
2134.71784316
 20
-929.1938015
 10
2134.21784316
 20
-929.25680249
 10
2134.71784316
 20
-928.92375402
 10
2135.71784316
 20
-928.66272829
 10
2136.21784316
 20
-928.5997273
 10
2134.21784316
 20
-929.25680249
  0
LWPOLYLINE
  5
450
100
AcDbEntity
  8
Sc.1_5
 62
     9
  6
CONTINUOUS
370
    20
100
AcDbPolyline
 90
        8
 70
     1
 43
0.0
 38
548.63999023
 39
-548.63999023
 10
2136.21784316
 20
-927.36248969
 10
2135.71784316
 20
-927.69553816
 10
2134.71784316
 20
-927.95656389
 10
2134.21784316
 20
-928.01956488
 10
2134.71784316
 20
-927.68651641
 10
2135.71784316
 20
-927.42549068
 10
2136.21784316
 20
-927.36248969
 10
2134.21784316
 20
-928.01956488
  0
LWPOLYLINE
  5
451
100
AcDbEntity
  8
Sc.1_5
 62
     9
  6
CONTINUOUS
370
    20
100
AcDbPolyline
 90
        8
 70
     1
 43
0.0
 38
548.63999023
 39
-548.63999023
 10
2136.21784316
 20
-926.12525208
 10
2135.71784316
 20
-926.45830055
 10
2134.71784316
 20
-926.71932628
 10
2134.21784316
 20
-926.78232727
 10
2134.71784316
 20
-926.44927879
 10
2135.71784316
 20
-926.18825307
 10
2136.21784316
 20
-926.12525208
 10
2134.21784316
 20
-926.78232727
  0
LWPOLYLINE
  5
452
100
AcDbEntity
  8
Sc.1_5
 62
     9
  6
CONTINUOUS
370
    20
100
AcDbPolyline
 90
        8
 70
     1
 43
0.0
 38
548.63999023
 39
-548.63999023
 10
2136.21784316
 20
-924.88801446
 10
2135.71784316
 20
-925.22106294
 10
2134.71784316
 20
-925.48208867
 10
2134.21784316
 20
-925.54508966
 10
2134.71784316
 20
-925.21204118
 10
2135.71784316
 20
-924.95101546
 10
2136.21784316
 20
-924.88801446
 10
2134.21784316
 20
-925.54508966
  0
LWPOLYLINE
  5
453
100
AcDbEntity
  8
Sc.1_5
 62
     9
  6
CONTINUOUS
370
    20
100
AcDbPolyline
 90
        8
 70
     1
 43
0.0
 38
548.63999023
 39
-548.63999023
 10
2136.21784316
 20
-923.65077685
 10
2135.71784316
 20
-923.98382533
 10
2134.71784316
 20
-924.24485106
 10
2134.21784316
 20
-924.30785205
 10
2134.71784316
 20
-923.97480357
 10
2135.71784316
 20
-923.71377784
 10
2136.21784316
 20
-923.65077685
 10
2134.21784316
 20
-924.30785205
  0
LWPOLYLINE
  5
454
100
AcDbEntity
  8
Sc.1_5
 62
     9
  6
CONTINUOUS
370
    20
100
AcDbPolyline
 90
        8
 70
     1
 43
0.0
 38
548.63999023
 39
-548.63999023
 10
2136.21784316
 20
-922.41353924
 10
2135.71784316
 20
-922.74658772
 10
2134.71784316
 20
-923.00761344
 10
2134.21784316
 20
-923.07061444
 10
2134.71784316
 20
-922.73756596
 10
2135.71784316
 20
-922.47654023
 10
2136.21784316
 20
-922.41353924
 10
2134.21784316
 20
-923.07061444
  0
LWPOLYLINE
  5
455
100
AcDbEntity
  8
Sc.1_5
 62
     9
  6
CONTINUOUS
370
    20
100
AcDbPolyline
 90
        8
 70
     1
 43
0.0
 38
548.63999023
 39
-548.63999023
 10
2136.21784316
 20
-921.17630163
 10
2135.71784316
 20
-921.50935011
 10
2134.71784316
 20
-921.77037583
 10
2134.21784316
 20
-921.83337682
 10
2134.71784316
 20
-921.50032835
 10
2135.71784316
 20
-921.23930262
 10
2136.21784316
 20
-921.17630163
 10
2134.21784316
 20
-921.83337682
  0
LWPOLYLINE
  5
456
100
AcDbEntity
  8
Sc.1_5
 62
     9
  6
CONTINUOUS
370
    20
100
AcDbPolyline
 90
        8
 70
     1
 43
0.0
 38
548.63999023
 39
-548.63999023
 10
2136.21784316
 20
-919.93906402
 10
2135.71784316
 20
-920.27211249
 10
2134.71784316
 20
-920.53313822
 10
2134.21784316
 20
-920.59613921
 10
2134.71784316
 20
-920.26309074
 10
2135.71784316
 20
-920.00206501
 10
2136.21784316
 20
-919.93906402
 10
2134.21784316
 20
-920.59613921
  0
LWPOLYLINE
  5
457
100
AcDbEntity
  8
Sc.1_5
 62
     9
  6
CONTINUOUS
370
    20
100
AcDbPolyline
 90
        8
 70
     1
 43
0.0
 38
548.63999023
 39
-548.63999023
 10
2136.21784316
 20
-918.7018264
 10
2135.71784316
 20
-919.03487488
 10
2134.71784316
 20
-919.29590061
 10
2134.21784316
 20
-919.3589016
 10
2134.71784316
 20
-919.02585312
 10
2135.71784316
 20
-918.7648274
 10
2136.21784316
 20
-918.7018264
 10
2134.21784316
 20
-919.3589016
  0
LWPOLYLINE
  5
458
100
AcDbEntity
  8
Sc.1_5
 62
     9
  6
CONTINUOUS
370
    20
100
AcDbPolyline
 90
        8
 70
     1
 43
0.0
 38
548.63999023
 39
-548.63999023
 10
2136.21784316
 20
-917.46458879
 10
2135.71784316
 20
-917.79763727
 10
2134.71784316
 20
-918.058663
 10
2134.21784316
 20
-918.12166399
 10
2134.71784316
 20
-917.78861551
 10
2135.71784316
 20
-917.52758979
 10
2136.21784316
 20
-917.46458879
 10
2134.21784316
 20
-918.12166399
  0
LWPOLYLINE
  5
459
100
AcDbEntity
  8
Sc.1_5
 62
     9
  6
CONTINUOUS
370
    20
100
AcDbPolyline
 90
        8
 70
     1
 43
0.0
 38
548.63999023
 39
-548.63999023
 10
2136.21784316
 20
-916.22735118
 10
2135.71784316
 20
-916.56039966
 10
2134.71784316
 20
-916.82142539
 10
2134.21784316
 20
-916.88442638
 10
2134.71784316
 20
-916.5513779
 10
2135.71784316
 20
-916.29035217
 10
2136.21784316
 20
-916.22735118
 10
2134.21784316
 20
-916.88442638
  0
LWPOLYLINE
  5
45A
100
AcDbEntity
  8
Sc.1_5
 62
     9
  6
CONTINUOUS
370
    20
100
AcDbPolyline
 90
        8
 70
     1
 43
0.0
 38
548.63999023
 39
-548.63999023
 10
2136.21784316
 20
-914.99011357
 10
2135.71784316
 20
-915.32316205
 10
2134.71784316
 20
-915.58418777
 10
2134.21784316
 20
-915.64718877
 10
2134.71784316
 20
-915.31414029
 10
2135.71784316
 20
-915.05311456
 10
2136.21784316
 20
-914.99011357
 10
2134.21784316
 20
-915.64718877
  0
LWPOLYLINE
  5
45B
100
AcDbEntity
  8
Sc.1_5
 62
     9
  6
CONTINUOUS
370
    20
100
AcDbPolyline
 90
        8
 70
     1
 43
0.0
 38
548.63999023
 39
-548.63999023
 10
2136.21784316
 20
-913.75287596
 10
2135.71784316
 20
-914.08592444
 10
2134.71784316
 20
-914.34695016
 10
2134.21784316
 20
-914.40995115
 10
2134.71784316
 20
-914.07690268
 10
2135.71784316
 20
-913.81587695
 10
2136.21784316
 20
-913.75287596
 10
2134.21784316
 20
-914.40995115
  0
LWPOLYLINE
  5
45C
100
AcDbEntity
  8
Sc.1_5
 62
     9
  6
CONTINUOUS
370
    20
100
AcDbPolyline
 90
        8
 70
     1
 43
0.0
 38
548.63999023
 39
-548.63999023
 10
2136.21784316
 20
-912.51563835
 10
2135.71784316
 20
-912.84868682
 10
2134.71784316
 20
-913.10971255
 10
2134.21784316
 20
-913.17271354
 10
2134.71784316
 20
-912.83966506
 10
2135.71784316
 20
-912.57863934
 10
2136.21784316
 20
-912.51563835
 10
2134.21784316
 20
-913.17271354
  0
LWPOLYLINE
  5
45D
100
AcDbEntity
  8
Sc.1_5
 62
     9
  6
CONTINUOUS
370
    20
100
AcDbPolyline
 90
        8
 70
     1
 43
0.0
 38
548.63999023
 39
-548.63999023
 10
2136.21784316
 20
-911.27840073
 10
2135.71784316
 20
-911.61144921
 10
2134.71784316
 20
-911.87247494
 10
2134.21784316
 20
-911.93547593
 10
2134.71784316
 20
-911.60242745
 10
2135.71784316
 20
-911.34140173
 10
2136.21784316
 20
-911.27840073
 10
2134.21784316
 20
-911.93547593
  0
LWPOLYLINE
  5
45E
100
AcDbEntity
  8
Sc.1_5
 62
     9
  6
CONTINUOUS
370
    20
100
AcDbPolyline
 90
        8
 70
     1
 43
0.0
 38
548.63999023
 39
-548.63999023
 10
2136.21784316
 20
-910.04116312
 10
2135.71784316
 20
-910.3742116
 10
2134.71784316
 20
-910.63523733
 10
2134.21784316
 20
-910.69823832
 10
2134.71784316
 20
-910.36518984
 10
2135.71784316
 20
-910.10416411
 10
2136.21784316
 20
-910.04116312
 10
2134.21784316
 20
-910.69823832
  0
LWPOLYLINE
  5
45F
100
AcDbEntity
  8
Sc.1_5
 62
     9
  6
CONTINUOUS
370
    20
100
AcDbPolyline
 90
        8
 70
     1
 43
0.0
 38
548.63999023
 39
-548.63999023
 10
2136.21784316
 20
-908.80392551
 10
2135.71784316
 20
-909.13697399
 10
2134.71784316
 20
-909.39799972
 10
2134.21784316
 20
-909.46100071
 10
2134.71784316
 20
-909.12795223
 10
2135.71784316
 20
-908.8669265
 10
2136.21784316
 20
-908.80392551
 10
2134.21784316
 20
-909.46100071
  0
LWPOLYLINE
  5
460
100
AcDbEntity
  8
Sc.1_5
 62
     9
  6
CONTINUOUS
370
    20
100
AcDbPolyline
 90
        8
 70
     1
 43
0.0
 38
548.63999023
 39
-548.63999023
 10
2136.21784316
 20
-907.5666879
 10
2135.71784316
 20
-907.89973638
 10
2134.71784316
 20
-908.1607621
 10
2134.21784316
 20
-908.2237631
 10
2134.71784316
 20
-907.89071462
 10
2135.71784316
 20
-907.62968889
 10
2136.21784316
 20
-907.5666879
 10
2134.21784316
 20
-908.2237631
  0
LWPOLYLINE
  5
461
100
AcDbEntity
  8
Sc.1_5
 62
     9
  6
CONTINUOUS
370
    20
100
AcDbPolyline
 90
        6
 70
     1
 43
0.0
 38
548.63999023
 39
-548.63999023
 10
2134.35176745
 20
-951.15777692
 10
2134.71784316
 20
-950.95119674
 10
2135.71784316
 20
-950.75542327
 10
2136.07976752
 20
-950.75236285
 10
2135.71784316
 20
-950.96031313
 10
2134.71784316
 20
-951.22534017
  0
LINE
  5
462
100
AcDbEntity
  8
Sc.1_5
 62
     9
  6
CONTINUOUS
 48
0.25
370
    20
100
AcDbLine
 10
2134.35176745
 20
-951.15777692
 30
548.63999023
 11
2136.07976752
 21
-950.75236285
 31
548.63999023
  0
LWPOLYLINE
  5
463
100
AcDbEntity
  8
Sc.1_5
 62
     9
  6
CONTINUOUS
370
    20
100
AcDbPolyline
 90
        6
 70
     1
 43
0.0
 38
548.63999023
 39
-548.63999023
 10
2134.52491341
 20
-952.10374885
 10
2134.79942153
 20
-951.96865695
 10
2135.63211345
 20
-951.83339208
 10
2135.90662157
 20
-951.83339208
 10
2135.60758691
 20
-951.98637865
 10
2134.84485102
 20
-952.16071828
  0
LINE
  5
464
100
AcDbEntity
  8
Sc.1_5
 62
     9
  6
CONTINUOUS
 48
0.25
370
    20
100
AcDbLine
 10
2134.52491341
 20
-952.10374885
 30
548.63999023
 11
2135.90662157
 21
-951.83339208
 31
548.63999023
  0
TEXT
  5
465
100
AcDbEntity
  8
Sc.1_5
 62
     7
370
    18
100
AcDbText
 10
2185.38107046
 20
-846.79285606
 30
0.0
 40
2.5
  1
Stud frame wall to NZS3604:2011
  7
TAHOMA
 50
0.0
 41
0.8
 51
0.0
100
AcDbText
  0
TEXT
  5
466
100
AcDbEntity
  8
Sc.1_5
 62
     7
370
    35
100
AcDbText
 10
2185.38107046
 20
-895.4062596
 30
0.0
 40
2.5
  1
Woodspan PLT floor panel
  7
TAHOMA
 50
0.0
 41
0.8
 51
0.0
100
AcDbText
  0
TEXT
  5
467
100
AcDbEntity
  8
Sc.1_5
 62
     7
370
    18
100
AcDbText
 10
2185.38107046
 20
-898.9062596
 30
0.0
 40
2.5
  1
fixings as per engineer's details
  7
TAHOMA
 50
0.0
 41
0.8
 51
0.0
100
AcDbText
  0
TEXT
  5
468
100
AcDbEntity
  8
Sc.1_5
 62
     7
370
    18
100
AcDbText
 10
2185.38107046
 20
-954.74498301
 30
0.0
 40
2.5
  1
Ceiling, depending on aesthetic and
  7
TAHOMA
 50
0.0
 41
0.8
 51
0.0
100
AcDbText
  0
TEXT
  5
469
100
AcDbEntity
  8
Sc.1_5
 62
     7
370
    18
100
AcDbText
 10
2185.38107046
 20
-958.24498301
 30
0.0
 40
2.5
  1
acoustic requirements
  7
TAHOMA
 50
0.0
 41
0.8
 51
0.0
100
AcDbText
  0
TEXT
  5
46A
100
AcDbEntity
  8
Sc.1_5
 62
     7
370
    18
100
AcDbText
 10
2185.38107046
 20
-982.52612086
 30
0.0
 40
2.5
  1
Stud frame wall to NZS3604:2011
  7
TAHOMA
 50
0.0
 41
0.8
 51
0.0
100
AcDbText
  0
TEXT
  5
46B
100
AcDbEntity
  8
LEGEND
 62
     7
370
    -3
100
AcDbText
 10
2267.88499043
 20
-1050.08795572
 30
0.0
 40
1.60000002
  1
Date
  7
TAHOMA
 50
0.0
 41
1.0
 51
0.0
100
AcDbText
  0
TEXT
  5
46C
100
AcDbEntity
  8
LEGEND
 62
     7
370
    -3
100
AcDbText
 10
2252.97674175
 20
-1058.71913647
 30
0.0
 40
1.60000002
  1
Detail
  7
TAHOMA
 50
0.0
 41
1.0
 51
0.0
100
AcDbText
  0
TEXT
  5
46D
100
AcDbEntity
  8
LEGEND
 62
     7
370
    18
100
AcDbText
 10
2256.40435699
 20
-1054.52910833
 30
0.0
 40
2.79999995
  1
1.0
  7
TAHOMA
 50
0.0
 41
1.0
 51
0.0
100
AcDbText
  0
TEXT
  5
46E
100
AcDbEntity
  8
LEGEND
 62
     7
370
    -3
100
AcDbText
 10
2252.97674175
 20
-1050.08795572
 30
0.0
 40
1.60000002
  1
Version
  7
TAHOMA
 50
0.0
 41
1.0
 51
0.0
100
AcDbText
  0
TEXT
  5
46F
100
AcDbEntity
  8
LEGEND
 62
     7
370
    -3
100
AcDbText
 10
2122.03595044
 20
-1050.08795572
 30
0.0
 40
1.60000002
  1
Phone:
  7
TAHOMA
 50
0.0
 41
1.0
 51
0.0
100
AcDbText
  0
TEXT
  5
470
100
AcDbEntity
  8
LEGEND
 62
     7
370
    -3
100
AcDbText
 10
2122.03595044
 20
-1054.20874289
 30
0.0
 40
1.60000002
  1
Email:
  7
TAHOMA
 50
0.0
 41
1.0
 51
0.0
100
AcDbText
  0
TEXT
  5
471
100
AcDbEntity
  8
LEGEND
 62
     7
370
    -3
100
AcDbText
 10
2122.03595044
 20
-1058.32953005
 30
0.0
 40
1.60000002
  1
Web:
  7
TAHOMA
 50
0.0
 41
1.0
 51
0.0
100
AcDbText
  0
TEXT
  5
472
100
AcDbEntity
  8
LEGEND
 62
     7
370
    18
100
AcDbText
 10
2131.93793141
 20
-1050.88795572
 30
0.0
 40
2.4000001
  1
06 755 9000
  7
TAHOMA
 50
0.0
 41
1.0
 51
0.0
100
AcDbText
  0
TEXT
  5
473
100
AcDbEntity
  8
LEGEND
 62
     7
370
    18
100
AcDbText
 10
2131.93793141
 20
-1055.00874289
 30
0.0
 40
2.4000001
  1
info@woodspan.co.nz
  7
TAHOMA
 50
0.0
 41
1.0
 51
0.0
100
AcDbText
  0
TEXT
  5
474
100
AcDbEntity
  8
LEGEND
 62
     7
370
    18
100
AcDbText
 10
2131.93793141
 20
-1059.12953005
 30
0.0
 40
2.4000001
  1
www.woodspan.co.nz
  7
TAHOMA
 50
0.0
 41
1.0
 51
0.0
100
AcDbText
  0
TEXT
  5
475
100
AcDbEntity
  8
LEGEND
 62
     7
370
    18
100
AcDbText
 10
2121.98831616
 20
-1063.25031721
 30
0.0
 40
2.4000001
  1
Connett Road, Bell Block, New Plymouth
  7
TAHOMA
 50
0.0
 41
1.0
 51
0.0
100
AcDbText
  0
TEXT
  5
476
100
AcDbEntity
  8
LEGEND
 62
     7
370
    18
100
AcDbText
 10
2268.9706399
 20
-1054.32910833
 30
0.0
 40
2.4000001
  1
11.07.2019
  7
TAHOMA
 50
0.0
 41
1.0
 51
0.0
100
AcDbText
  0
TEXT
  5
477
100
AcDbEntity
  8
LEGEND
 62
     7
370
    18
100
AcDbText
 10
2261.00401812
 20
-1062.26246302
 30
0.0
 40
4.0
  1

  7
TAHOMA
 50
0.0
 41
0.95
 51
0.0
100
AcDbText
  0
TEXT
  5
478
100
AcDbEntity
  8
LEGEND
 62
     7
370
    18
100
AcDbText
 10
2261.76972135
 20
-1062.58554495
 30
0.0
 40
4.0
  1
PLT 2.3
  7
TAHOMA
 50
0.0
 41
0.95
 51
0.0
100
AcDbText
  0
TEXT
  5
479
100
AcDbEntity
  8
LEGEND
 62
     7
370
    18
100
AcDbText
 10
2180.97981498
 20
-1054.66228266
 30
0.0
 40
4.0
  1
PLT mid floor
  7
TAHOMA
 50
0.0
 41
0.95
 51
0.0
100
AcDbText
  0
TEXT
  5
47A
100
AcDbEntity
  8
LEGEND
 62
     7
370
    18
100
AcDbText
 10
2180.97981498
 20
-1061.42145705
 30
0.0
 40
4.0
  1
Platform Framing - Option 1
  7
TAHOMA
 50
0.0
 41
0.95
 51
0.0
100
AcDbText
  0
TEXT
  5
47B
100
AcDbEntity
  8
LEGEND
 62
     7
370
    18
100
AcDbText
 10
2173.61117541
 20
-1045.12756884
 30
0.0
 40
2.4000001
  1
Indicative details only
  7
TAHOMA
 50
0.0
 41
1.0
 51
0.0
100
AcDbText
  0
ENDSEC
  0
SECTION
  2
OBJECTS
  0
DICTIONARY
  5
1
100
AcDbDictionary
  3
ACAD_GROUP
350
2
  3
ACAD_MLINESTYLE
350
3
  0
DICTIONARY
  5
2
102
{CDWK_REACTORS
330
1
102
}
100
AcDbDictionary
  0
DICTIONARY
  5
3
102
{CDWK_REACTORS
330
1
102
}
100
AcDbDictionary
  3
STANDARD
350
4
  0
MLINESTYLE
  5
4
102
{CDWK_REACTORS
330
3
102
}
100
AcDbMlineStyle
  2
STANDARD
 70
     0
  3

 62
     0
 51
90.0
 52
90.0
 71
     2
 49
0.5
 62
   256
  6
BYLAYER
 49
-0.5
 62
   256
  6
BYLAYER
  0
ENDSEC
  0
EOF
