  0
SECTION
  2
HEADER
  9
$ACADVER
  1
AC1014
  9
$DWGCODEPAGE
  3
ANSI_1252
  9
$INSBASE
 10
0.0
 20
0.0
 30
0.0
  9
$EXTMIN
 10
2330.78530917
 20
-1064.75031721
  9
$EXTMAX
 10
2528.10211056
 20
-793.75031721
  9
$LIMMIN
 10
2330.78530917
 20
-1064.75031721
  9
$LIMMAX
 10
2528.10211056
 20
-793.75031721
  9
$ORTHOMODE
 70
     0
  9
$REGENMODE
 70
     1
  9
$FILLMODE
 70
     1
  9
$QTEXTMODE
 70
     0
  9
$MIRRTEXT
 70
     1
  9
$DRAGMODE
 70
     2
  9
$LTSCALE
 40
1.0
  9
$OSMODE
 70
     0
  9
$ATTMODE
 70
     1
  9
$TEXTSIZE
 40
3.5
  9
$TRACEWID
 40
1.0
  9
$TEXTSTYLE
  7
STANDARD
  9
$CLAYER
  8
0
  9
$CELTYPE
  6
BYLAYER
  9
$CECOLOR
 62
   256
  9
$DIMSCALE
 40
1.0
  9
$DIMASZ
 40
2.0
  9
$DIMEXO
 40
5.0
  9
$DIMDLI
 40
10.0
  9
$DIMRND
 40
0.0
  9
$DIMDLE
 40
2.0
  9
$DIMEXE
 40
2.0
  9
$DIMTP
 40
0.0
  9
$DIMTM
 40
0.0
  9
$DIMTXT
 40
2.1
  9
$DIMCEN
 40
1.5
  9
$DIMTSZ
 40
0.0
  9
$DIMTOL
 70
     0
  9
$DIMLIM
 70
     0
  9
$DIMTIH
 70
     1
  9
$DIMTOH
 70
     0
  9
$DIMSE1
 70
     0
  9
$DIMSE2
 70
     0
  9
$DIMTAD
 70
     1
  9
$DIMZIN
 70
     8
  9
$DIMBLK
  1

  9
$DIMASO
 70
     1
  9
$DIMSHO
 70
     1
  9
$DIMPOST
  1

  9
$DIMAPOST
  1

  9
$DIMALT
 70
     0
  9
$DIMALTD
 70
     2
  9
$DIMALTF
 40
25.4
  9
$DIMLFAC
 40
1.0
  9
$DIMTOFL
 70
     0
  9
$DIMTVP
 40
0.0
  9
$DIMTIX
 70
     0
  9
$DIMSOXD
 70
     0
  9
$DIMSAH
 70
     0
  9
$DIMBLK1
  1

  9
$DIMBLK2
  1

  9
$DIMSTYLE
  2
*UNNAMED
  9
$DIMCLRD
 70
     5
  9
$DIMCLRE
 70
     5
  9
$DIMCLRT
 70
     5
  9
$DIMTFAC
 40
1.0
  9
$DIMGAP
 40
0.09
  9
$DIMUNIT
 70
     2
  9
$LUNITS
 70
     2
  9
$LUPREC
 70
     6
  9
$AXISMODE
 70
     0
  9
$AXISUNIT
 10
0.0
 20
0.0
  9
$SKETCHINC
 40
0.1
  9
$FILLETRAD
 40
0.0
  9
$AUNITS
 70
     0
  9
$AUPREC
 70
     0
  9
$MENU
  1
ACAD
  9
$ELEVATION
 40
0.0
  9
$PELEVATION
 40
0.0
  9
$THICKNESS
 40
0.0
  9
$LIMCHECK
 70
     0
  9
$BLIPMODE
 70
     1
  9
$CHAMFERA
 40
0.0
  9
$CHAMFERB
 40
0.0
  9
$SKPOLY
 70
     1
  9
$TDCREATE
 40
2458675.0000000000
  9
$TDUPDATE
 40
2458675.0000000000
  9
$TDINDWG
 40
0.0
  9
$TDUSRTIMER
 40
0.0
  9
$USRTIMER
 70
     1
  9
$ANGBASE
 50
0.0
  9
$ANGDIR
 70
     0
  9
$PDMODE
 70
     0
  9
$PDSIZE
 40
0.0
  9
$PLINEWID
 40
0.0
  9
$COORDS
 70
     2
  9
$SPLFRAME
 70
     0
  9
$SPLINETYPE
 70
     6
  9
$SPLINESEGS
 70
     8
  9
$ATTDIA
 70
     1
  9
$ATTREQ
 70
     1
  9
$HANDLING
 70
     1
  9
$HANDSEED
  5
     48A
  9
$SURFTAB1
 70
     6
  9
$SURFTAB2
 70
     6
  9
$SURFTYPE
 70
     6
  9
$SURFU
 70
     6
  9
$SURFV
 70
     6
  9
$UCSNAME
  2

  9
$UCSORG
 10
0.0
 20
0.0
 30
0.0
  9
$UCSXDIR
 10
1.0
 20
0.0
 30
0.0
  9
$UCSYDIR
 10
0.0
 20
1.0
 30
0.0
  9
$PUCSNAME
  2

  9
$PUCSORG
 10
0.0
 20
0.0
 30
0.0
  9
$PUCSXDIR
 10
1.0
 20
0.0
 30
0.0
  9
$PUCSYDIR
 10
0.0
 20
1.0
 30
0.0
  9
$USERI1
 70
     0
  9
$USERI2
 70
     0
  9
$USERI3
 70
     0
  9
$USERI4
 70
     0
  9
$USERI5
 70
     0
  9
$USERR1
 40
0.0
  9
$USERR2
 40
0.0
  9
$USERR3
 40
0.0
  9
$USERR4
 40
0.0
  9
$USERR5
 40
0.0
  9
$WORLDVIEW
 70
     1
  9
$SHADEDGE
 70
     3
  9
$SHADEDIF
 70
    70
  9
$TILEMODE
 70
     1
  9
$MAXACTVP
 70
    16
  9
$PINSBASE
 10
0.0
 20
0.0
 30
0.0
  9
$PLIMCHECK
 70
     0
  9
$PEXTMIN
 10
1.0000000000000E+20
 20
1.0000000000000E+20
 30
1.0000000000000E+20
  9
$PEXTMAX
 10
-1.0000000000000E+20
 20
-1.0000000000000E+20
 30
-1.0000000000000E+20
  9
$PLIMMIN
 10
0.0
 20
0.0
  9
$UNITMODE
 70
     0
  9
$VISRETAIN
 70
     0
  9
$MEASUREMENT
 70
     1
  0
ENDSEC
  0
SECTION
  2
TABLES
  0
TABLE
  2
VPORT
  5
1B2
100
AcDbSymbolTable
 70
     1
  0
ENDTAB
  0
TABLE
  2
STYLE
  5
1B3
100
AcDbSymbolTable
 70
     3
  0
STYLE
  5
1B4
100
AcDbSymbolTableRecord
100
AcDbTextStyleTableRecord
  2
STANDARD
 70
     0
 40
0.0
 41
1.0
 50
0.0
 71
     0
 42
3.5
  3
MONOTXT
  4

  0
STYLE
  5
1B5
100
AcDbSymbolTableRecord
100
AcDbTextStyleTableRecord
  2
SYMAP
 70
     0
 40
0.0
 41
1.0
 50
0.0
 71
     0
 42
3.5
  3
SYMAP
  4

  0
STYLE
  5
1B6
100
AcDbSymbolTableRecord
100
AcDbTextStyleTableRecord
  2
CADWORK1
 70
     0
 40
0.0
 41
1.0
 50
0.0
 71
     0
 42
3.5
  3
MONOTXT
  4

  0
STYLE
  5
1B7
100
AcDbSymbolTableRecord
100
AcDbTextStyleTableRecord
  2
MONOTXT
 70
     0
 40
0.0
 41
1.0
 50
0.0
 71
     0
 42
3.5
  3
MONOTXT
  4

  0
STYLE
  5
1B8
100
AcDbSymbolTableRecord
100
AcDbTextStyleTableRecord
  2
TAHOMA
 70
     0
 40
0.0
 41
1.0
 50
0.0
 71
     0
 42
3.5
  3

  4

1001
ACAD
1000
Tahoma
1071
        0
  0
ENDTAB
  0
TABLE
  2
LTYPE
  5
1B9
100
AcDbSymbolTable
 70
    15
  0
LTYPE
  5
1BA
100
AcDbSymbolTableRecord
100
AcDbLinetypeTableRecord
  2
BYBLOCK
 70
    64
  3

 72
    65
 73
     0
 40
0.0
  0
LTYPE
  5
1BB
100
AcDbSymbolTableRecord
100
AcDbLinetypeTableRecord
  2
BYLAYER
 70
    64
  3

 72
    65
 73
     0
 40
0.0
  0
LTYPE
  5
1BC
100
AcDbSymbolTableRecord
100
AcDbLinetypeTableRecord
  2
CONTINUOUS
 70
    64
  3
Solid line
 72
    65
 73
     0
 40
0.0
  0
LTYPE
  5
1BD
100
AcDbSymbolTableRecord
100
AcDbLinetypeTableRecord
  2
DOT2
 70
    64
  3
...............................................
 72
    65
 73
     2
 40
1.25
 49
0.0
 74
     0
 49
-1.25
 74
     0
  0
LTYPE
  5
1BE
100
AcDbSymbolTableRecord
100
AcDbLinetypeTableRecord
  2
CADWORK_13
 70
    64
  3
13 =======================================
 72
    65
 73
     2
 40
4.0
 49
2.0
 74
     0
 49
-2.0
 74
     0
  0
LTYPE
  5
1BF
100
AcDbSymbolTableRecord
100
AcDbLinetypeTableRecord
  2
DASHED
 70
    64
  3
__ __ __ __ __ __ __ __ __ __ __ __ __ __ __ __
 72
    65
 73
     2
 40
7.5
 49
5.0
 74
     0
 49
-2.5
 74
     0
  0
LTYPE
  5
1C0
100
AcDbSymbolTableRecord
100
AcDbLinetypeTableRecord
  2
DASHDOT
 70
    64
  3
 __ . __ . __ . __ . __ . __ . __ . __ . __ . __
 72
    65
 73
     4
 40
10.0
 49
5.0
 74
     0
 49
-2.5
 74
     0
 49
0.0
 74
     0
 49
-2.5
 74
     0
  0
LTYPE
  5
1C1
100
AcDbSymbolTableRecord
100
AcDbLinetypeTableRecord
  2
CADWORK_16
 70
    64
  3
--´\,----´\,----´\,----´\,----´\,----´\,----´\,--
 72
    65
 73
     5
 40
17.0
 49
2.0
 74
     0
 49
0.0
 74
     2
 75
     0
340
1B4
 46
6.0
 50
170.0
 44
3.01999998
 45
5.57999992
  9
|
 49
-2.0999999
 74
     2
 75
     0
340
1B4
 46
12.0
 50
10.0
 44
-2.9000001
 45
-6.5999999
  9
|
 49
-2.0999999
 74
     2
 75
     0
340
1B4
 46
6.0
 50
170.0
 44
1.96000004
 45
-0.36000001
  9
|
 49
10.80000019
 74
     0
  0
LTYPE
  5
1C2
100
AcDbSymbolTableRecord
100
AcDbLinetypeTableRecord
  2
CADWORK_15
 70
    64
  3
15 =======================================
 72
    65
 73
     0
 40
0.0
  0
LTYPE
  5
1C3
100
AcDbSymbolTableRecord
100
AcDbLinetypeTableRecord
  2
DAL
 70
    64
  3
Solid line (for MAPS)
 72
    65
 73
     0
 40
0.0
  0
LTYPE
  5
1C4
100
AcDbSymbolTableRecord
100
AcDbLinetypeTableRecord
  2
MUR
 70
    64
  3
Solid line (for MAPS)
 72
    65
 73
     0
 40
0.0
  0
LTYPE
  5
1C5
100
AcDbSymbolTableRecord
100
AcDbLinetypeTableRecord
  2
SOM
 70
    64
  3
Solid line (for MAPS)
 72
    65
 73
     0
 40
0.0
  0
LTYPE
  5
1C6
100
AcDbSymbolTableRecord
100
AcDbLinetypeTableRecord
  2
COL
 70
    64
  3
Solid line (for MAPS)
 72
    65
 73
     0
 40
0.0
  0
LTYPE
  5
1C7
100
AcDbSymbolTableRecord
100
AcDbLinetypeTableRecord
  2
LGN
 70
    64
  3
Solid line (for MAPS)
 72
    65
 73
     0
 40
0.0
  0
LTYPE
  5
1C8
100
AcDbSymbolTableRecord
100
AcDbLinetypeTableRecord
  2
PNT
 70
    64
  3
Solid line (for MAPS)
 72
    65
 73
     0
 40
0.0
  0
ENDTAB
  0
TABLE
  2
LAYER
  5
1C9
100
AcDbSymbolTable
 70
    16
  0
LAYER
  5
1CA
100
AcDbSymbolTableRecord
100
AcDbLayerTableRecord
  2
0
 70
     0
 62
     1
  6
CONTINUOUS
370
    -3
  0
LAYER
  5
1CB
100
AcDbSymbolTableRecord
100
AcDbLayerTableRecord
  2
Standard
 70
     0
 62
     7
  6
CONTINUOUS
370
    -3
  0
LAYER
  5
1CC
100
AcDbSymbolTableRecord
100
AcDbLayerTableRecord
  2
Sc.1_1
 70
     0
 62
     7
  6
CONTINUOUS
370
    -3
  0
LAYER
  5
1CD
100
AcDbSymbolTableRecord
100
AcDbLayerTableRecord
  2
Sc.1_2
 70
     0
 62
     7
  6
CONTINUOUS
370
    -3
  0
LAYER
  5
1CE
100
AcDbSymbolTableRecord
100
AcDbLayerTableRecord
  2
Sc.1_5
 70
     0
 62
     7
  6
CONTINUOUS
370
    -3
  0
LAYER
  5
1CF
100
AcDbSymbolTableRecord
100
AcDbLayerTableRecord
  2
Sc.1_10
 70
     0
 62
     7
  6
CONTINUOUS
370
    -3
  0
LAYER
  5
1D0
100
AcDbSymbolTableRecord
100
AcDbLayerTableRecord
  2
Sc.1_20
 70
     0
 62
     7
  6
CONTINUOUS
370
    -3
  0
LAYER
  5
1D1
100
AcDbSymbolTableRecord
100
AcDbLayerTableRecord
  2
Sc.1_25
 70
     0
 62
     7
  6
CONTINUOUS
370
    -3
  0
LAYER
  5
1D2
100
AcDbSymbolTableRecord
100
AcDbLayerTableRecord
  2
Sc.1_33
 70
     0
 62
     7
  6
CONTINUOUS
370
    -3
  0
LAYER
  5
1D3
100
AcDbSymbolTableRecord
100
AcDbLayerTableRecord
  2
Sc.1_50
 70
     0
 62
     7
  6
CONTINUOUS
370
    -3
  0
LAYER
  5
1D4
100
AcDbSymbolTableRecord
100
AcDbLayerTableRecord
  2
Sc.1_75
 70
     0
 62
     7
  6
CONTINUOUS
370
    -3
  0
LAYER
  5
1D5
100
AcDbSymbolTableRecord
100
AcDbLayerTableRecord
  2
Sc.1_100
 70
     0
 62
     7
  6
CONTINUOUS
370
    -3
  0
LAYER
  5
1D6
100
AcDbSymbolTableRecord
100
AcDbLayerTableRecord
  2
Sc.1_200
 70
     0
 62
     7
  6
CONTINUOUS
370
    -3
  0
LAYER
  5
1D7
100
AcDbSymbolTableRecord
100
AcDbLayerTableRecord
  2
Sc.1_500
 70
     0
 62
     7
  6
CONTINUOUS
370
    -3
  0
LAYER
  5
1D8
100
AcDbSymbolTableRecord
100
AcDbLayerTableRecord
  2
Sc.1_1000
 70
     0
 62
     7
  6
CONTINUOUS
370
    -3
  0
LAYER
  5
1D9
100
AcDbSymbolTableRecord
100
AcDbLayerTableRecord
  2
Laser frames
 70
     0
 62
     7
  6
CONTINUOUS
370
    18
  0
LAYER
  5
1DA
100
AcDbSymbolTableRecord
100
AcDbLayerTableRecord
  2
LEGEND
 70
     0
 62
     7
  6
CONTINUOUS
370
    -3
  0
ENDTAB
  0
TABLE
  2
VIEW
  5
1DB
100
AcDbSymbolTable
 70
     0
  0
ENDTAB
  0
TABLE
  2
UCS
  5
1DC
100
AcDbSymbolTable
 70
     0
  0
ENDTAB
  0
TABLE
  2
APPID
  5
1DD
100
AcDbSymbolTable
 70
     1
  0
APPID
  5
1DE
100
AcDbSymbolTableRecord
100
AcDbRegAppTableRecord
  2
ACAD
 70
     0
  0
ENDTAB
  0
TABLE
  2
DIMSTYLE
  5
1DF
100
AcDbSymbolTable
 70
     0
  0
ENDTAB
  0
TABLE
  2
BLOCK_RECORD
  5
1E0
100
AcDbSymbolTable
 70
     0
  0
BLOCK_RECORD
  5
1E1
100
AcDbSymbolTableRecord
100
AcDbBlockTableRecord
  2
*MODEL_SPACE
  0
BLOCK_RECORD
  5
1E2
100
AcDbSymbolTableRecord
100
AcDbBlockTableRecord
  2
*PAPER_SPACE
  0
BLOCK_RECORD
  5
1E3
100
AcDbSymbolTableRecord
100
AcDbBlockTableRecord
  2
CDWK_EXTR_0
  0
BLOCK_RECORD
  5
1E4
100
AcDbSymbolTableRecord
100
AcDbBlockTableRecord
  2
CDWK_EXTR_1D
  0
BLOCK_RECORD
  5
1E5
100
AcDbSymbolTableRecord
100
AcDbBlockTableRecord
  2
CDWK_EXTR_1G
  0
BLOCK_RECORD
  5
1E6
100
AcDbSymbolTableRecord
100
AcDbBlockTableRecord
  2
CDWK_EXTR_2
  0
BLOCK_RECORD
  5
1E7
100
AcDbSymbolTableRecord
100
AcDbBlockTableRecord
  2
CDWK_EXTR_3
  0
BLOCK_RECORD
  5
1E8
100
AcDbSymbolTableRecord
100
AcDbBlockTableRecord
  2
CDWK_EXTR_4
  0
BLOCK_RECORD
  5
1E9
100
AcDbSymbolTableRecord
100
AcDbBlockTableRecord
  2
CDWK_PTTYP0
  0
BLOCK_RECORD
  5
1EA
100
AcDbSymbolTableRecord
100
AcDbBlockTableRecord
  2
*X2006
  0
BLOCK_RECORD
  5
1EB
100
AcDbSymbolTableRecord
100
AcDbBlockTableRecord
  2
*X2007
  0
BLOCK_RECORD
  5
1EC
100
AcDbSymbolTableRecord
100
AcDbBlockTableRecord
  2
*X2093
  0
BLOCK_RECORD
  5
1ED
100
AcDbSymbolTableRecord
100
AcDbBlockTableRecord
  2
*X2094
  0
BLOCK_RECORD
  5
1EE
100
AcDbSymbolTableRecord
100
AcDbBlockTableRecord
  2
*X2095
  0
BLOCK_RECORD
  5
1EF
100
AcDbSymbolTableRecord
100
AcDbBlockTableRecord
  2
*X2096
  0
BLOCK_RECORD
  5
1F0
100
AcDbSymbolTableRecord
100
AcDbBlockTableRecord
  2
*X2171
  0
BLOCK_RECORD
  5
1F1
100
AcDbSymbolTableRecord
100
AcDbBlockTableRecord
  2
*X2173
  0
ENDTAB
  0
ENDSEC
  0
SECTION
  2
BLOCKS
  0
BLOCK
  5
1F2
100
AcDbEntity
  8
0
100
AcDbBlockBegin
  2
*MODEL_SPACE
 70
     0
 10
0.0
 20
0.0
 30
0.0
  3
*MODEL_SPACE
  1

  0
ENDBLK
  5
1F3
100
AcDbEntity
100
AcDbBlockEnd
  0
BLOCK
  5
1F4
100
AcDbEntity
  8
0
100
AcDbBlockBegin
  2
*PAPER_SPACE
 70
     0
 10
0.0
 20
0.0
 30
0.0
  3
*PAPER_SPACE
  1

  0
ENDBLK
  5
1F5
100
AcDbEntity
100
AcDbBlockEnd
  0
BLOCK
  5
1F6
100
AcDbEntity
  8
0
100
AcDbBlockBegin
  2
CDWK_EXTR_0
 70
     0
 10
0.0
 20
0.0
 30
0.0
  3
CDWK_EXTR_0
  1

  4
Cadwork line-extremity
  0
LINE
  5
1F7
100
AcDbEntity
  8
0
 62
     0
370
    -2
100
AcDbLine
 10
0.0
 20
0.0
 30
0.0
 11
2.0
 21
0.5
 31
0.0
  0
LINE
  5
1F8
100
AcDbEntity
  8
0
 62
     0
370
    -2
100
AcDbLine
 10
0.0
 20
0.0
 30
0.0
 11
2.0
 21
-0.5
 31
0.0
  0
LINE
  5
1F9
100
AcDbEntity
  8
0
 62
     0
370
    -2
100
AcDbLine
 10
2.0
 20
0.5
 30
0.0
 11
2.0
 21
-0.5
 31
0.0
  0
ENDBLK
  5
1FA
100
AcDbEntity
100
AcDbBlockEnd
  0
BLOCK
  5
1FB
100
AcDbEntity
  8
0
100
AcDbBlockBegin
  2
CDWK_EXTR_1D
 70
     0
 10
0.0
 20
0.0
 30
0.0
  3
CDWK_EXTR_1D
  1

  4
Cadwork line-extremity
  0
LINE
  5
1FC
100
AcDbEntity
  8
0
 62
     0
370
    -2
100
AcDbLine
 10
0.0
 20
0.0
 30
0.0
 11
0.0
 21
1.0
 31
0.0
  0
LINE
  5
1FD
100
AcDbEntity
  8
0
 62
     0
370
    -2
100
AcDbLine
 10
0.0
 20
1.0
 30
0.0
 11
0.5
 21
1.5
 31
0.0
  0
LINE
  5
1FE
100
AcDbEntity
  8
0
 62
     0
370
    -2
100
AcDbLine
 10
0.5
 20
1.5
 30
0.0
 11
1.5
 21
1.5
 31
0.0
  0
ENDBLK
  5
1FF
100
AcDbEntity
100
AcDbBlockEnd
  0
BLOCK
  5
200
100
AcDbEntity
  8
0
100
AcDbBlockBegin
  2
CDWK_EXTR_1G
 70
     0
 10
0.0
 20
0.0
 30
0.0
  3
CDWK_EXTR_1G
  1

  4
Cadwork line-extremity
  0
LINE
  5
201
100
AcDbEntity
  8
0
 62
     0
370
    -2
100
AcDbLine
 10
0.0
 20
0.0
 30
0.0
 11
0.0
 21
-1.0
 31
0.0
  0
LINE
  5
202
100
AcDbEntity
  8
0
 62
     0
370
    -2
100
AcDbLine
 10
0.0
 20
-1.0
 30
0.0
 11
0.5
 21
-1.5
 31
0.0
  0
LINE
  5
203
100
AcDbEntity
  8
0
 62
     0
370
    -2
100
AcDbLine
 10
0.5
 20
-1.5
 30
0.0
 11
1.5
 21
-1.5
 31
0.0
  0
ENDBLK
  5
204
100
AcDbEntity
100
AcDbBlockEnd
  0
BLOCK
  5
205
100
AcDbEntity
  8
0
100
AcDbBlockBegin
  2
CDWK_EXTR_2
 70
     0
 10
0.0
 20
0.0
 30
0.0
  3
CDWK_EXTR_2
  1

  4
Cadwork line-extremity
  0
SOLID
  5
206
100
AcDbEntity
  8
0
 62
     0
100
AcDbTrace
 10
0.0
 20
0.0
 11
2.0
 21
0.5
 12
2.0
 22
-0.5
 13
2.0
 23
-0.5
  0
ENDBLK
  5
207
100
AcDbEntity
100
AcDbBlockEnd
  0
BLOCK
  5
208
100
AcDbEntity
  8
0
100
AcDbBlockBegin
  2
CDWK_EXTR_3
 70
     0
 10
0.0
 20
0.0
 30
0.0
  3
CDWK_EXTR_3
  1

  4
Cadwork line-extremity
  0
SOLID
  5
209
100
AcDbEntity
  8
0
 62
     0
100
AcDbTrace
 10
0.0
 20
0.0
 11
2.0
 21
0.5
 12
2.0
 22
-0.5
 13
2.0
 23
-0.5
  0
LINE
  5
20A
100
AcDbEntity
  8
0
 62
     0
370
    -2
100
AcDbLine
 10
0.0
 20
1.0
 30
0.0
 11
0.0
 21
-1.0
 31
0.0
  0
ENDBLK
  5
20B
100
AcDbEntity
100
AcDbBlockEnd
  0
BLOCK
  5
20C
100
AcDbEntity
  8
0
100
AcDbBlockBegin
  2
CDWK_EXTR_4
 70
     0
 10
0.0
 20
0.0
 30
0.0
  3
CDWK_EXTR_4
  1

  4
Cadwork line-extremity
  0
HATCH
  5
20D
100
AcDbEntity
  8
0
 62
     0
370
    -2
100
AcDbHatch
 10
0.0
 20
0.0
 30
0.0
210
0.0
220
0.0
230
1.0
  2
SOLID
 70
     1
 71
     0
 91
        1
 92
        1
 93
        1
 72
     2
 10
0.0
 20
0.0
 40
0.5
 50
0.0
 51
360.0
 73
     1
 97
        0
 75
     0
 76
     1
 98
        1
 10
0.0
 20
0.0
  0
ENDBLK
  5
20E
100
AcDbEntity
100
AcDbBlockEnd
  0
BLOCK
  5
20F
100
AcDbEntity
  8
0
100
AcDbBlockBegin
  2
CDWK_PTTYP0
 70
     0
 10
0.0
 20
0.0
 30
0.0
  3
CDWK_PTTYP0
  1

  4
Cadwork point
  0
POINT
  5
210
100
AcDbEntity
  8
0
 62
     0
100
AcDbPoint
 10
0.0
 20
0.0
 30
0.0
  0
ENDBLK
  5
211
100
AcDbEntity
100
AcDbBlockEnd
  0
BLOCK
  5
212
100
AcDbEntity
  8
Sc.1_5
100
AcDbBlockBegin
  2
*X2006
 70
     1
 10
0.0
 20
0.0
 30
0.0
  3
*X2006
  1

  4
Cadwork hatch
  0
LINE
  5
213
100
AcDbEntity
  8
Sc.1_5
 62
     9
  6
CONTINUOUS
370
    -2
100
AcDbLine
 10
2364.67918067
 20
-936.11177055
 30
0.0
 11
2368.679103
 21
-944.11174691
 31
0.0
  0
LINE
  5
214
100
AcDbEntity
  8
Sc.1_5
 62
     9
  6
CONTINUOUS
370
    -2
100
AcDbLine
 10
2368.679103
 20
-936.11177055
 30
0.0
 11
2364.67918067
 21
-944.11174691
 31
0.0
  0
ENDBLK
  5
215
100
AcDbEntity
100
AcDbBlockEnd
  0
BLOCK
  5
216
100
AcDbEntity
  8
Sc.1_5
100
AcDbBlockBegin
  2
*X2007
 70
     1
 10
0.0
 20
0.0
 30
0.0
  3
*X2007
  1

  4
Cadwork hatch
  0
LINE
  5
217
100
AcDbEntity
  8
Sc.1_5
 62
     9
  6
CONTINUOUS
370
    -2
100
AcDbLine
 10
2364.67918067
 20
-921.89214416
 30
0.0
 11
2368.679103
 21
-929.89212052
 31
0.0
  0
LINE
  5
218
100
AcDbEntity
  8
Sc.1_5
 62
     9
  6
CONTINUOUS
370
    -2
100
AcDbLine
 10
2368.679103
 20
-921.89214416
 30
0.0
 11
2364.67918067
 21
-929.89212052
 31
0.0
  0
ENDBLK
  5
219
100
AcDbEntity
100
AcDbBlockEnd
  0
BLOCK
  5
21A
100
AcDbEntity
  8
Sc.1_5
100
AcDbBlockBegin
  2
*X2093
 70
     1
 10
0.0
 20
0.0
 30
0.0
  3
*X2093
  1

  4
Cadwork hatch
  0
LINE
  5
21B
100
AcDbEntity
  8
Sc.1_5
 62
     9
  6
CONTINUOUS
370
    -2
100
AcDbLine
 10
2371.67904474
 20
-895.44988896
 30
0.0
 11
2399.67915957
 21
-904.4498459
 31
0.0
  0
LINE
  5
21C
100
AcDbEntity
  8
Sc.1_5
 62
     9
  6
CONTINUOUS
370
    -2
100
AcDbLine
 10
2371.67904474
 20
-904.44991176
 30
0.0
 11
2399.67915957
 21
-895.44988896
 31
0.0
  0
ENDBLK
  5
21D
100
AcDbEntity
100
AcDbBlockEnd
  0
BLOCK
  5
21E
100
AcDbEntity
  8
Sc.1_5
100
AcDbBlockBegin
  2
*X2094
 70
     1
 10
0.0
 20
0.0
 30
0.0
  3
*X2094
  1

  4
Cadwork hatch
  0
LINE
  5
21F
100
AcDbEntity
  8
Sc.1_5
 62
     9
  6
CONTINUOUS
370
    -2
100
AcDbLine
 10
2371.67904474
 20
-935.04975219
 30
0.0
 11
2399.67915957
 21
-944.04970913
 31
0.0
  0
LINE
  5
220
100
AcDbEntity
  8
Sc.1_5
 62
     9
  6
CONTINUOUS
370
    -2
100
AcDbLine
 10
2371.67917645
 20
-944.04970913
 30
0.0
 11
2399.67915957
 21
-935.04975219
 31
0.0
  0
ENDBLK
  5
221
100
AcDbEntity
100
AcDbBlockEnd
  0
BLOCK
  5
222
100
AcDbEntity
  8
Sc.1_5
100
AcDbBlockBegin
  2
*X2095
 70
     1
 10
0.0
 20
0.0
 30
0.0
  3
*X2095
  1

  4
Cadwork hatch
  0
LINE
  5
223
100
AcDbEntity
  8
Sc.1_5
 62
     9
  6
CONTINUOUS
370
    -2
100
AcDbLine
 10
2400.67900844
 20
-934.5497619
 30
0.0
 11
2414.679
 21
-941.54975768
 31
0.0
  0
LINE
  5
224
100
AcDbEntity
  8
Sc.1_5
 62
     9
  6
CONTINUOUS
370
    -2
100
AcDbLine
 10
2400.67900844
 20
-941.54975768
 30
0.0
 11
2414.679
 21
-934.5497619
 31
0.0
  0
ENDBLK
  5
225
100
AcDbEntity
100
AcDbBlockEnd
  0
BLOCK
  5
226
100
AcDbEntity
  8
Sc.1_5
100
AcDbBlockBegin
  2
*X2096
 70
     1
 10
0.0
 20
0.0
 30
0.0
  3
*X2096
  1

  4
Cadwork hatch
  0
LINE
  5
227
100
AcDbEntity
  8
Sc.1_5
 62
     9
  6
CONTINUOUS
370
    -2
100
AcDbLine
 10
2371.67917645
 20
-944.54976527
 30
0.0
 11
2399.67902786
 21
-953.54972222
 31
0.0
  0
LINE
  5
228
100
AcDbEntity
  8
Sc.1_5
 62
     9
  6
CONTINUOUS
370
    -2
100
AcDbLine
 10
2371.67904474
 20
-953.54972222
 30
0.0
 11
2399.67915957
 21
-944.54976527
 31
0.0
  0
ENDBLK
  5
229
100
AcDbEntity
100
AcDbBlockEnd
  0
BLOCK
  5
22A
100
AcDbEntity
  8
Sc.1_5
100
AcDbBlockBegin
  2
*X2171
 70
     1
 10
0.0
 20
0.0
 30
0.0
  3
*X2171
  1

  4
Cadwork hatch
  0
LINE
  5
22B
100
AcDbEntity
  8
Sc.1_5
 62
     9
  6
CONTINUOUS
370
    -2
100
AcDbLine
 10
2371.67910342
 20
-895.4498784
 30
0.0
 11
2371.67910391
 21
-894.82492681
 31
0.0
  0
LINE
  5
22C
100
AcDbEntity
  8
Sc.1_5
 62
     9
  6
CONTINUOUS
370
    -2
100
AcDbLine
 10
2371.6791066
 20
-891.40816242
 30
0.0
 11
2371.67910758
 21
-890.15825925
 31
0.0
  0
LINE
  5
22D
100
AcDbEntity
  8
Sc.1_5
 62
     9
  6
CONTINUOUS
370
    -2
100
AcDbLine
 10
2371.67911026
 20
-886.74149486
 30
0.0
 11
2371.67911125
 21
-885.49159169
 31
0.0
  0
LINE
  5
22E
100
AcDbEntity
  8
Sc.1_5
 62
     9
  6
CONTINUOUS
370
    -2
100
AcDbLine
 10
2371.67911393
 20
-882.0748273
 30
0.0
 11
2371.67911491
 21
-880.82492413
 31
0.0
  0
LINE
  5
22F
100
AcDbEntity
  8
Sc.1_5
 62
     9
  6
CONTINUOUS
370
    -2
100
AcDbLine
 10
2371.6791176
 20
-877.40815974
 30
0.0
 11
2371.67911858
 21
-876.15825657
 31
0.0
  0
LINE
  5
230
100
AcDbEntity
  8
Sc.1_5
 62
     9
  6
CONTINUOUS
370
    -2
100
AcDbLine
 10
2371.67912126
 20
-872.74149218
 30
0.0
 11
2371.67912225
 21
-871.49158901
 31
0.0
  0
LINE
  5
231
100
AcDbEntity
  8
Sc.1_5
 62
     9
  6
CONTINUOUS
370
    -2
100
AcDbLine
 10
2371.67912493
 20
-868.07482462
 30
0.0
 11
2371.67912591
 21
-866.82492145
 31
0.0
  0
LINE
  5
232
100
AcDbEntity
  8
Sc.1_5
 62
     9
  6
CONTINUOUS
370
    -2
100
AcDbLine
 10
2371.6791286
 20
-863.40815706
 30
0.0
 11
2371.67912958
 21
-862.15825389
 31
0.0
  0
LINE
  5
233
100
AcDbEntity
  8
Sc.1_5
 62
     9
  6
CONTINUOUS
370
    -2
100
AcDbLine
 10
2371.67913227
 20
-858.7414895
 30
0.0
 11
2371.67913325
 21
-857.49158633
 31
0.0
  0
LINE
  5
234
100
AcDbEntity
  8
Sc.1_5
 62
     9
  6
CONTINUOUS
370
    -2
100
AcDbLine
 10
2371.67913593
 20
-854.07482194
 30
0.0
 11
2371.67913692
 21
-852.82491877
 31
0.0
  0
LINE
  5
235
100
AcDbEntity
  8
Sc.1_5
 62
     9
  6
CONTINUOUS
370
    -2
100
AcDbLine
 10
2371.6791396
 20
-849.40815437
 30
0.0
 11
2371.67914058
 21
-848.15825121
 31
0.0
  0
LINE
  5
236
100
AcDbEntity
  8
Sc.1_5
 62
     9
  6
CONTINUOUS
370
    -2
100
AcDbLine
 10
2371.67914327
 20
-844.74148681
 30
0.0
 11
2371.67914425
 21
-843.49158364
 31
0.0
  0
LINE
  5
237
100
AcDbEntity
  8
Sc.1_5
 62
     9
  6
CONTINUOUS
370
    -2
100
AcDbLine
 10
2371.67914693
 20
-840.07481925
 30
0.0
 11
2371.67914792
 21
-838.82491608
 31
0.0
  0
LINE
  5
238
100
AcDbEntity
  8
Sc.1_5
 62
     9
  6
CONTINUOUS
370
    -2
100
AcDbLine
 10
2371.6791506
 20
-835.40815169
 30
0.0
 11
2371.67915158
 21
-834.15824852
 31
0.0
  0
LINE
  5
239
100
AcDbEntity
  8
Sc.1_5
 62
     9
  6
CONTINUOUS
370
    -2
100
AcDbLine
 10
2371.67915427
 20
-830.74148413
 30
0.0
 11
2371.67915525
 21
-829.49158096
 31
0.0
  0
LINE
  5
23A
100
AcDbEntity
  8
Sc.1_5
 62
     9
  6
CONTINUOUS
370
    -2
100
AcDbLine
 10
2371.67915794
 20
-826.07481657
 30
0.0
 11
2371.67915892
 21
-824.8249134
 31
0.0
  0
LINE
  5
23B
100
AcDbEntity
  8
Sc.1_5
 62
     9
  6
CONTINUOUS
370
    -2
100
AcDbLine
 10
2371.6791616
 20
-821.40814901
 30
0.0
 11
2371.67916259
 21
-820.15824584
 31
0.0
  0
LINE
  5
23C
100
AcDbEntity
  8
Sc.1_5
 62
     9
  6
CONTINUOUS
370
    -2
100
AcDbLine
 10
2395.76973449
 20
-890.78322985
 30
0.0
 11
2395.01243813
 21
-890.78322926
 31
0.0
  0
LINE
  5
23D
100
AcDbEntity
  8
Sc.1_5
 62
     9
  6
CONTINUOUS
370
    -2
100
AcDbLine
 10
2395.76974183
 20
-881.44989757
 30
0.0
 11
2395.01244547
 21
-881.44989697
 31
0.0
  0
LINE
  5
23E
100
AcDbEntity
  8
Sc.1_5
 62
     9
  6
CONTINUOUS
370
    -2
100
AcDbLine
 10
2395.76974916
 20
-872.11656528
 30
0.0
 11
2395.0124528
 21
-872.11656469
 31
0.0
  0
LINE
  5
23F
100
AcDbEntity
  8
Sc.1_5
 62
     9
  6
CONTINUOUS
370
    -2
100
AcDbLine
 10
2395.76975649
 20
-862.783233
 30
0.0
 11
2395.01246014
 21
-862.7832324
 31
0.0
  0
LINE
  5
240
100
AcDbEntity
  8
Sc.1_5
 62
     9
  6
CONTINUOUS
370
    -2
100
AcDbLine
 10
2395.76976383
 20
-853.44990071
 30
0.0
 11
2395.01246747
 21
-853.44990012
 31
0.0
  0
LINE
  5
241
100
AcDbEntity
  8
Sc.1_5
 62
     9
  6
CONTINUOUS
370
    -2
100
AcDbLine
 10
2395.76977116
 20
-844.11656843
 30
0.0
 11
2395.0124748
 21
-844.11656783
 31
0.0
  0
LINE
  5
242
100
AcDbEntity
  8
Sc.1_5
 62
     9
  6
CONTINUOUS
370
    -2
100
AcDbLine
 10
2395.7697785
 20
-834.78323615
 30
0.0
 11
2395.01248214
 21
-834.78323555
 31
0.0
  0
LINE
  5
243
100
AcDbEntity
  8
Sc.1_5
 62
     9
  6
CONTINUOUS
370
    -2
100
AcDbLine
 10
2395.76978583
 20
-825.44990386
 30
0.0
 11
2395.01248947
 21
-825.44990327
 31
0.0
  0
LINE
  5
244
100
AcDbEntity
  8
Sc.1_5
 62
     9
  6
CONTINUOUS
370
    -2
100
AcDbLine
 10
2376.34577723
 20
-886.11654878
 30
0.0
 11
2375.58848087
 21
-886.11654819
 31
0.0
  0
LINE
  5
245
100
AcDbEntity
  8
Sc.1_5
 62
     9
  6
CONTINUOUS
370
    -2
100
AcDbLine
 10
2376.34578457
 20
-876.7832165
 30
0.0
 11
2375.58848821
 21
-876.7832159
 31
0.0
  0
LINE
  5
246
100
AcDbEntity
  8
Sc.1_5
 62
     9
  6
CONTINUOUS
370
    -2
100
AcDbLine
 10
2376.3457919
 20
-867.44988421
 30
0.0
 11
2375.58849554
 21
-867.44988362
 31
0.0
  0
LINE
  5
247
100
AcDbEntity
  8
Sc.1_5
 62
     9
  6
CONTINUOUS
370
    -2
100
AcDbLine
 10
2376.34579923
 20
-858.11655193
 30
0.0
 11
2375.58850288
 21
-858.11655133
 31
0.0
  0
LINE
  5
248
100
AcDbEntity
  8
Sc.1_5
 62
     9
  6
CONTINUOUS
370
    -2
100
AcDbLine
 10
2376.34580657
 20
-848.78321964
 30
0.0
 11
2375.58851021
 21
-848.78321905
 31
0.0
  0
LINE
  5
249
100
AcDbEntity
  8
Sc.1_5
 62
     9
  6
CONTINUOUS
370
    -2
100
AcDbLine
 10
2376.3458139
 20
-839.44988736
 30
0.0
 11
2375.58851754
 21
-839.44988676
 31
0.0
  0
LINE
  5
24A
100
AcDbEntity
  8
Sc.1_5
 62
     9
  6
CONTINUOUS
370
    -2
100
AcDbLine
 10
2376.34582124
 20
-830.11655507
 30
0.0
 11
2375.58852488
 21
-830.11655448
 31
0.0
  0
LINE
  5
24B
100
AcDbEntity
  8
Sc.1_5
 62
     9
  6
CONTINUOUS
370
    -2
100
AcDbLine
 10
2376.34582857
 20
-820.78322279
 30
0.0
 11
2375.58853221
 21
-820.7832222
 31
0.0
  0
LINE
  5
24C
100
AcDbEntity
  8
Sc.1_5
 62
     9
  6
CONTINUOUS
370
    -2
100
AcDbLine
 10
2394.01123752
 20
-890.89394447
 30
0.0
 11
2377.3466723
 21
-895.33814081
 31
0.0
  0
LINE
  5
24D
100
AcDbEntity
  8
Sc.1_5
 62
     9
  6
CONTINUOUS
370
    -2
100
AcDbLine
 10
2394.01126086
 20
-881.56061409
 30
0.0
 11
2377.34669564
 21
-886.00481043
 31
0.0
  0
LINE
  5
24E
100
AcDbEntity
  8
Sc.1_5
 62
     9
  6
CONTINUOUS
370
    -2
100
AcDbLine
 10
2394.0112842
 20
-872.2272837
 30
0.0
 11
2377.34671898
 21
-876.67148004
 31
0.0
  0
LINE
  5
24F
100
AcDbEntity
  8
Sc.1_5
 62
     9
  6
CONTINUOUS
370
    -2
100
AcDbLine
 10
2394.01130754
 20
-862.89395332
 30
0.0
 11
2377.34674233
 21
-867.33814966
 31
0.0
  0
LINE
  5
250
100
AcDbEntity
  8
Sc.1_5
 62
     9
  6
CONTINUOUS
370
    -2
100
AcDbLine
 10
2394.01133088
 20
-853.56062294
 30
0.0
 11
2377.34676567
 21
-858.00481928
 31
0.0
  0
LINE
  5
251
100
AcDbEntity
  8
Sc.1_5
 62
     9
  6
CONTINUOUS
370
    -2
100
AcDbLine
 10
2394.01135422
 20
-844.22729255
 30
0.0
 11
2377.34678901
 21
-848.67148889
 31
0.0
  0
LINE
  5
252
100
AcDbEntity
  8
Sc.1_5
 62
     9
  6
CONTINUOUS
370
    -2
100
AcDbLine
 10
2394.01137756
 20
-834.89396217
 30
0.0
 11
2377.34681235
 21
-839.33815851
 31
0.0
  0
LINE
  5
253
100
AcDbEntity
  8
Sc.1_5
 62
     9
  6
CONTINUOUS
370
    -2
100
AcDbLine
 10
2394.01140091
 20
-825.56063178
 30
0.0
 11
2377.34683569
 21
-830.00482812
 31
0.0
  0
LINE
  5
254
100
AcDbEntity
  8
Sc.1_5
 62
     9
  6
CONTINUOUS
370
    -2
100
AcDbLine
 10
2382.1441051
 20
-819.39214222
 30
0.0
 11
2377.34685903
 21
-820.67149774
 31
0.0
  0
LINE
  5
255
100
AcDbEntity
  8
Sc.1_5
 62
     9
  6
CONTINUOUS
370
    -2
100
AcDbLine
 10
2394.01123769
 20
-890.67251513
 30
0.0
 11
2377.34667946
 21
-886.2282926
 31
0.0
  0
LINE
  5
256
100
AcDbEntity
  8
Sc.1_5
 62
     9
  6
CONTINUOUS
370
    -2
100
AcDbLine
 10
2394.01122902
 20
-881.33918475
 30
0.0
 11
2377.34667079
 21
-876.89496222
 31
0.0
  0
LINE
  5
257
100
AcDbEntity
  8
Sc.1_5
 62
     9
  6
CONTINUOUS
370
    -2
100
AcDbLine
 10
2394.01122035
 20
-872.00585437
 30
0.0
 11
2377.34666212
 21
-867.56163183
 31
0.0
  0
LINE
  5
258
100
AcDbEntity
  8
Sc.1_5
 62
     9
  6
CONTINUOUS
370
    -2
100
AcDbLine
 10
2394.01121167
 20
-862.67252398
 30
0.0
 11
2377.34665344
 21
-858.22830145
 31
0.0
  0
LINE
  5
259
100
AcDbEntity
  8
Sc.1_5
 62
     9
  6
CONTINUOUS
370
    -2
100
AcDbLine
 10
2394.011203
 20
-853.3391936
 30
0.0
 11
2377.34664477
 21
-848.89497107
 31
0.0
  0
LINE
  5
25A
100
AcDbEntity
  8
Sc.1_5
 62
     9
  6
CONTINUOUS
370
    -2
100
AcDbLine
 10
2394.01119433
 20
-844.00586321
 30
0.0
 11
2377.3466361
 21
-839.56164068
 31
0.0
  0
LINE
  5
25B
100
AcDbEntity
  8
Sc.1_5
 62
     9
  6
CONTINUOUS
370
    -2
100
AcDbLine
 10
2394.01118566
 20
-834.67253283
 30
0.0
 11
2377.34662743
 21
-830.2283103
 31
0.0
  0
LINE
  5
25C
100
AcDbEntity
  8
Sc.1_5
 62
     9
  6
CONTINUOUS
370
    -2
100
AcDbLine
 10
2394.01117698
 20
-825.33920244
 30
0.0
 11
2377.34661875
 21
-820.89497991
 31
0.0
  0
LINE
  5
25D
100
AcDbEntity
  8
Sc.1_5
 62
     9
  6
CONTINUOUS
370
    -2
100
AcDbLine
 10
2399.67910284
 20
-894.82494884
 30
0.0
 11
2399.34533919
 21
-893.60114505
 31
0.0
  0
LINE
  5
25E
100
AcDbEntity
  8
Sc.1_5
 62
     9
  6
CONTINUOUS
370
    -2
100
AcDbLine
 10
2399.67910284
 20
-885.49158904
 30
0.0
 11
2399.34534677
 21
-884.26781306
 31
0.0
  0
LINE
  5
25F
100
AcDbEntity
  8
Sc.1_5
 62
     9
  6
CONTINUOUS
370
    -2
100
AcDbLine
 10
2399.67910284
 20
-876.15822923
 30
0.0
 11
2399.34535436
 21
-874.93448107
 31
0.0
  0
LINE
  5
260
100
AcDbEntity
  8
Sc.1_5
 62
     9
  6
CONTINUOUS
370
    -2
100
AcDbLine
 10
2399.67910284
 20
-866.82486943
 30
0.0
 11
2399.34536194
 21
-865.60114908
 31
0.0
  0
LINE
  5
261
100
AcDbEntity
  8
Sc.1_5
 62
     9
  6
CONTINUOUS
370
    -2
100
AcDbLine
 10
2399.67910284
 20
-857.49150963
 30
0.0
 11
2399.34536953
 21
-856.26781709
 31
0.0
  0
LINE
  5
262
100
AcDbEntity
  8
Sc.1_5
 62
     9
  6
CONTINUOUS
370
    -2
100
AcDbLine
 10
2399.67910284
 20
-848.15814983
 30
0.0
 11
2399.34537711
 21
-846.93448509
 31
0.0
  0
LINE
  5
263
100
AcDbEntity
  8
Sc.1_5
 62
     9
  6
CONTINUOUS
370
    -2
100
AcDbLine
 10
2399.67910284
 20
-838.82479003
 30
0.0
 11
2399.34538469
 21
-837.6011531
 31
0.0
  0
LINE
  5
264
100
AcDbEntity
  8
Sc.1_5
 62
     9
  6
CONTINUOUS
370
    -2
100
AcDbLine
 10
2399.67910284
 20
-829.49143023
 30
0.0
 11
2399.34539228
 21
-828.26782111
 31
0.0
  0
LINE
  5
265
100
AcDbEntity
  8
Sc.1_5
 62
     9
  6
CONTINUOUS
370
    -2
100
AcDbLine
 10
2399.67910284
 20
-820.15807042
 30
0.0
 11
2399.47021396
 21
-819.39214222
 31
0.0
  0
LINE
  5
266
100
AcDbEntity
  8
Sc.1_5
 62
     9
  6
CONTINUOUS
370
    -2
100
AcDbLine
 10
2399.67910284
 20
-886.74153406
 30
0.0
 11
2399.34534229
 21
-887.96531955
 31
0.0
  0
LINE
  5
267
100
AcDbEntity
  8
Sc.1_5
 62
     9
  6
CONTINUOUS
370
    -2
100
AcDbLine
 10
2399.67910284
 20
-877.40822349
 30
0.0
 11
2399.34534813
 21
-878.63198756
 31
0.0
  0
LINE
  5
268
100
AcDbEntity
  8
Sc.1_5
 62
     9
  6
CONTINUOUS
370
    -2
100
AcDbLine
 10
2399.67910284
 20
-868.07491292
 30
0.0
 11
2399.34535397
 21
-869.29865557
 31
0.0
  0
LINE
  5
269
100
AcDbEntity
  8
Sc.1_5
 62
     9
  6
CONTINUOUS
370
    -2
100
AcDbLine
 10
2399.67910284
 20
-858.74160234
 30
0.0
 11
2399.34535981
 21
-859.96532358
 31
0.0
  0
LINE
  5
26A
100
AcDbEntity
  8
Sc.1_5
 62
     9
  6
CONTINUOUS
370
    -2
100
AcDbLine
 10
2399.67910284
 20
-849.40829177
 30
0.0
 11
2399.34536565
 21
-850.63199158
 31
0.0
  0
LINE
  5
26B
100
AcDbEntity
  8
Sc.1_5
 62
     9
  6
CONTINUOUS
370
    -2
100
AcDbLine
 10
2399.67910284
 20
-840.0749812
 30
0.0
 11
2399.34537149
 21
-841.29865959
 31
0.0
  0
LINE
  5
26C
100
AcDbEntity
  8
Sc.1_5
 62
     9
  6
CONTINUOUS
370
    -2
100
AcDbLine
 10
2399.67910284
 20
-830.74167062
 30
0.0
 11
2399.34537733
 21
-831.9653276
 31
0.0
  0
LINE
  5
26D
100
AcDbEntity
  8
Sc.1_5
 62
     9
  6
CONTINUOUS
370
    -2
100
AcDbLine
 10
2399.67910284
 20
-821.40836005
 30
0.0
 11
2399.34538318
 21
-822.63199561
 31
0.0
  0
LINE
  5
26E
100
AcDbEntity
  8
Sc.1_5
 62
     9
  6
CONTINUOUS
370
    -2
100
AcDbLine
 10
2372.01287606
 20
-892.63199473
 30
0.0
 11
2371.6791087
 21
-891.40817734
 31
0.0
  0
LINE
  5
26F
100
AcDbEntity
  8
Sc.1_5
 62
     9
  6
CONTINUOUS
370
    -2
100
AcDbLine
 10
2372.01288364
 20
-883.29866273
 30
0.0
 11
2371.67911629
 21
-882.07484535
 31
0.0
  0
LINE
  5
270
100
AcDbEntity
  8
Sc.1_5
 62
     9
  6
CONTINUOUS
370
    -2
100
AcDbLine
 10
2372.01289123
 20
-873.96533074
 30
0.0
 11
2371.67912387
 21
-872.74151335
 31
0.0
  0
LINE
  5
271
100
AcDbEntity
  8
Sc.1_5
 62
     9
  6
CONTINUOUS
370
    -2
100
AcDbLine
 10
2372.01289881
 20
-864.63199875
 30
0.0
 11
2371.67913145
 21
-863.40818136
 31
0.0
  0
LINE
  5
272
100
AcDbEntity
  8
Sc.1_5
 62
     9
  6
CONTINUOUS
370
    -2
100
AcDbLine
 10
2372.0129064
 20
-855.29866676
 30
0.0
 11
2371.67913904
 21
-854.07484937
 31
0.0
  0
LINE
  5
273
100
AcDbEntity
  8
Sc.1_5
 62
     9
  6
CONTINUOUS
370
    -2
100
AcDbLine
 10
2372.01291398
 20
-845.96533477
 30
0.0
 11
2371.67914662
 21
-844.74151738
 31
0.0
  0
LINE
  5
274
100
AcDbEntity
  8
Sc.1_5
 62
     9
  6
CONTINUOUS
370
    -2
100
AcDbLine
 10
2372.01292157
 20
-836.63200278
 30
0.0
 11
2371.67915421
 21
-835.40818539
 31
0.0
  0
LINE
  5
275
100
AcDbEntity
  8
Sc.1_5
 62
     9
  6
CONTINUOUS
370
    -2
100
AcDbLine
 10
2372.01292915
 20
-827.29867079
 30
0.0
 11
2371.67916179
 21
-826.0748534
 31
0.0
  0
LINE
  5
276
100
AcDbEntity
  8
Sc.1_5
 62
     9
  6
CONTINUOUS
370
    -2
100
AcDbLine
 10
2371.67916028
 20
-824.82492448
 30
0.0
 11
2372.01292956
 21
-823.60110762
 31
0.0
  0
LINE
  5
277
100
AcDbEntity
  8
Sc.1_5
 62
     9
  6
CONTINUOUS
370
    -2
100
AcDbLine
 10
2371.6791532
 20
-834.15825648
 30
0.0
 11
2372.01292248
 21
-832.93443961
 31
0.0
  0
LINE
  5
278
100
AcDbEntity
  8
Sc.1_5
 62
     9
  6
CONTINUOUS
370
    -2
100
AcDbLine
 10
2371.67914611
 20
-843.49158847
 30
0.0
 11
2372.0129154
 21
-842.2677716
 31
0.0
  0
LINE
  5
279
100
AcDbEntity
  8
Sc.1_5
 62
     9
  6
CONTINUOUS
370
    -2
100
AcDbLine
 10
2371.67913903
 20
-852.82492046
 30
0.0
 11
2372.01290831
 21
-851.60110359
 31
0.0
  0
LINE
  5
27A
100
AcDbEntity
  8
Sc.1_5
 62
     9
  6
CONTINUOUS
370
    -2
100
AcDbLine
 10
2371.67913194
 20
-862.15825245
 30
0.0
 11
2372.01290123
 21
-860.93443558
 31
0.0
  0
LINE
  5
27B
100
AcDbEntity
  8
Sc.1_5
 62
     9
  6
CONTINUOUS
370
    -2
100
AcDbLine
 10
2371.67912486
 20
-871.49158444
 30
0.0
 11
2372.01289414
 21
-870.26776758
 31
0.0
  0
LINE
  5
27C
100
AcDbEntity
  8
Sc.1_5
 62
     9
  6
CONTINUOUS
370
    -2
100
AcDbLine
 10
2371.67911778
 20
-880.82491643
 30
0.0
 11
2372.01288706
 21
-879.60109957
 31
0.0
  0
LINE
  5
27D
100
AcDbEntity
  8
Sc.1_5
 62
     9
  6
CONTINUOUS
370
    -2
100
AcDbLine
 10
2371.67911069
 20
-890.15824842
 30
0.0
 11
2372.01287997
 21
-888.93443156
 31
0.0
  0
LINE
  5
27E
100
AcDbEntity
  8
Sc.1_5
 62
     9
  6
CONTINUOUS
370
    -2
100
AcDbLine
 10
2399.34533336
 20
-893.60112701
 30
0.0
 11
2398.71833695
 21
-892.55613114
 31
0.0
  0
LINE
  5
27F
100
AcDbEntity
  8
Sc.1_5
 62
     9
  6
CONTINUOUS
370
    -2
100
AcDbLine
 10
2399.34534063
 20
-884.26779311
 30
0.0
 11
2398.71834423
 21
-883.22279724
 31
0.0
  0
LINE
  5
280
100
AcDbEntity
  8
Sc.1_5
 62
     9
  6
CONTINUOUS
370
    -2
100
AcDbLine
 10
2399.3453479
 20
-874.93445921
 30
0.0
 11
2398.7183515
 21
-873.88946335
 31
0.0
  0
LINE
  5
281
100
AcDbEntity
  8
Sc.1_5
 62
     9
  6
CONTINUOUS
370
    -2
100
AcDbLine
 10
2399.34535518
 20
-865.60112532
 30
0.0
 11
2398.71835877
 21
-864.55612945
 31
0.0
  0
LINE
  5
282
100
AcDbEntity
  8
Sc.1_5
 62
     9
  6
CONTINUOUS
370
    -2
100
AcDbLine
 10
2399.34536245
 20
-856.26779142
 30
0.0
 11
2398.71836604
 21
-855.22279555
 31
0.0
  0
LINE
  5
283
100
AcDbEntity
  8
Sc.1_5
 62
     9
  6
CONTINUOUS
370
    -2
100
AcDbLine
 10
2399.34536972
 20
-846.93445752
 30
0.0
 11
2398.71837332
 21
-845.88946165
 31
0.0
  0
LINE
  5
284
100
AcDbEntity
  8
Sc.1_5
 62
     9
  6
CONTINUOUS
370
    -2
100
AcDbLine
 10
2399.34537699
 20
-837.60112363
 30
0.0
 11
2398.71838059
 21
-836.55612776
 31
0.0
  0
LINE
  5
285
100
AcDbEntity
  8
Sc.1_5
 62
     9
  6
CONTINUOUS
370
    -2
100
AcDbLine
 10
2399.34538427
 20
-828.26778973
 30
0.0
 11
2398.71838786
 21
-827.22279386
 31
0.0
  0
LINE
  5
286
100
AcDbEntity
  8
Sc.1_5
 62
     9
  6
CONTINUOUS
370
    -2
100
AcDbLine
 10
2399.34533847
 20
-887.97224593
 30
0.0
 11
2398.71834035
 21
-889.01724077
 31
0.0
  0
LINE
  5
287
100
AcDbEntity
  8
Sc.1_5
 62
     9
  6
CONTINUOUS
370
    -2
100
AcDbLine
 10
2399.34534648
 20
-878.63891204
 30
0.0
 11
2398.71834837
 21
-879.68390688
 31
0.0
  0
LINE
  5
288
100
AcDbEntity
  8
Sc.1_5
 62
     9
  6
CONTINUOUS
370
    -2
100
AcDbLine
 10
2399.3453545
 20
-869.30557814
 30
0.0
 11
2398.71835638
 21
-870.35057298
 31
0.0
  0
LINE
  5
289
100
AcDbEntity
  8
Sc.1_5
 62
     9
  6
CONTINUOUS
370
    -2
100
AcDbLine
 10
2399.34536252
 20
-859.97224424
 30
0.0
 11
2398.7183644
 21
-861.01723908
 31
0.0
  0
LINE
  5
28A
100
AcDbEntity
  8
Sc.1_5
 62
     9
  6
CONTINUOUS
370
    -2
100
AcDbLine
 10
2399.34537054
 20
-850.63891035
 30
0.0
 11
2398.71837242
 21
-851.68390519
 31
0.0
  0
LINE
  5
28B
100
AcDbEntity
  8
Sc.1_5
 62
     9
  6
CONTINUOUS
370
    -2
100
AcDbLine
 10
2399.34537855
 20
-841.30557645
 30
0.0
 11
2398.71838044
 21
-842.35057129
 31
0.0
  0
LINE
  5
28C
100
AcDbEntity
  8
Sc.1_5
 62
     9
  6
CONTINUOUS
370
    -2
100
AcDbLine
 10
2399.34538657
 20
-831.97224255
 30
0.0
 11
2398.71838846
 21
-833.01723739
 31
0.0
  0
LINE
  5
28D
100
AcDbEntity
  8
Sc.1_5
 62
     9
  6
CONTINUOUS
370
    -2
100
AcDbLine
 10
2399.34539459
 20
-822.63890865
 30
0.0
 11
2398.71839647
 21
-823.68390349
 31
0.0
  0
LINE
  5
28E
100
AcDbEntity
  8
Sc.1_5
 62
     9
  6
CONTINUOUS
370
    -2
100
AcDbLine
 10
2372.63986914
 20
-893.67696924
 30
0.0
 11
2372.01287274
 21
-892.63197337
 31
0.0
  0
LINE
  5
28F
100
AcDbEntity
  8
Sc.1_5
 62
     9
  6
CONTINUOUS
370
    -2
100
AcDbLine
 10
2372.63987641
 20
-884.34363534
 30
0.0
 11
2372.01288001
 21
-883.29863947
 31
0.0
  0
LINE
  5
290
100
AcDbEntity
  8
Sc.1_5
 62
     9
  6
CONTINUOUS
370
    -2
100
AcDbLine
 10
2372.63988369
 20
-875.01030144
 30
0.0
 11
2372.01288728
 21
-873.96530558
 31
0.0
  0
LINE
  5
291
100
AcDbEntity
  8
Sc.1_5
 62
     9
  6
CONTINUOUS
370
    -2
100
AcDbLine
 10
2372.63989096
 20
-865.67696755
 30
0.0
 11
2372.01289455
 21
-864.63197168
 31
0.0
  0
LINE
  5
292
100
AcDbEntity
  8
Sc.1_5
 62
     9
  6
CONTINUOUS
370
    -2
100
AcDbLine
 10
2372.63989823
 20
-856.34363365
 30
0.0
 11
2372.01290183
 21
-855.29863778
 31
0.0
  0
LINE
  5
293
100
AcDbEntity
  8
Sc.1_5
 62
     9
  6
CONTINUOUS
370
    -2
100
AcDbLine
 10
2372.6399055
 20
-847.01029975
 30
0.0
 11
2372.0129091
 21
-845.96530389
 31
0.0
  0
LINE
  5
294
100
AcDbEntity
  8
Sc.1_5
 62
     9
  6
CONTINUOUS
370
    -2
100
AcDbLine
 10
2372.63991277
 20
-837.67696586
 30
0.0
 11
2372.01291637
 21
-836.63196999
 31
0.0
  0
LINE
  5
295
100
AcDbEntity
  8
Sc.1_5
 62
     9
  6
CONTINUOUS
370
    -2
100
AcDbLine
 10
2372.63992005
 20
-828.34363196
 30
0.0
 11
2372.01292364
 21
-827.29863609
 31
0.0
  0
LINE
  5
296
100
AcDbEntity
  8
Sc.1_5
 62
     9
  6
CONTINUOUS
370
    -2
100
AcDbLine
 10
2372.01292499
 20
-823.60111254
 30
0.0
 11
2372.63992304
 21
-822.55611765
 31
0.0
  0
LINE
  5
297
100
AcDbEntity
  8
Sc.1_5
 62
     9
  6
CONTINUOUS
370
    -2
100
AcDbLine
 10
2372.01291759
 20
-832.93444643
 30
0.0
 11
2372.63991564
 21
-831.88945155
 31
0.0
  0
LINE
  5
298
100
AcDbEntity
  8
Sc.1_5
 62
     9
  6
CONTINUOUS
370
    -2
100
AcDbLine
 10
2372.0129102
 20
-842.26778033
 30
0.0
 11
2372.63990824
 21
-841.22278545
 31
0.0
  0
LINE
  5
299
100
AcDbEntity
  8
Sc.1_5
 62
     9
  6
CONTINUOUS
370
    -2
100
AcDbLine
 10
2372.0129028
 20
-851.60111423
 30
0.0
 11
2372.63990085
 21
-850.55611934
 31
0.0
  0
LINE
  5
29A
100
AcDbEntity
  8
Sc.1_5
 62
     9
  6
CONTINUOUS
370
    -2
100
AcDbLine
 10
2372.0128954
 20
-860.93444812
 30
0.0
 11
2372.63989345
 21
-859.88945324
 31
0.0
  0
LINE
  5
29B
100
AcDbEntity
  8
Sc.1_5
 62
     9
  6
CONTINUOUS
370
    -2
100
AcDbLine
 10
2372.01288801
 20
-870.26778202
 30
0.0
 11
2372.63988605
 21
-869.22278714
 31
0.0
  0
LINE
  5
29C
100
AcDbEntity
  8
Sc.1_5
 62
     9
  6
CONTINUOUS
370
    -2
100
AcDbLine
 10
2372.01288061
 20
-879.60111592
 30
0.0
 11
2372.63987866
 21
-878.55612104
 31
0.0
  0
LINE
  5
29D
100
AcDbEntity
  8
Sc.1_5
 62
     9
  6
CONTINUOUS
370
    -2
100
AcDbLine
 10
2372.01287321
 20
-888.93444981
 30
0.0
 11
2372.63987126
 21
-887.88945493
 31
0.0
  0
LINE
  5
29E
100
AcDbEntity
  8
Sc.1_5
 62
     9
  6
CONTINUOUS
370
    -2
100
AcDbLine
 10
2398.71833812
 20
-892.55613486
 30
0.0
 11
2397.9855207
 21
-891.82331628
 31
0.0
  0
LINE
  5
29F
100
AcDbEntity
  8
Sc.1_5
 62
     9
  6
CONTINUOUS
370
    -2
100
AcDbLine
 10
2398.71834545
 20
-883.22280011
 30
0.0
 11
2397.98552803
 21
-882.48998154
 31
0.0
  0
LINE
  5
2A0
100
AcDbEntity
  8
Sc.1_5
 62
     9
  6
CONTINUOUS
370
    -2
100
AcDbLine
 10
2398.71835279
 20
-873.88946537
 30
0.0
 11
2397.98553536
 21
-873.15664679
 31
0.0
  0
LINE
  5
2A1
100
AcDbEntity
  8
Sc.1_5
 62
     9
  6
CONTINUOUS
370
    -2
100
AcDbLine
 10
2398.71836012
 20
-864.55613062
 30
0.0
 11
2397.9855427
 21
-863.82331205
 31
0.0
  0
LINE
  5
2A2
100
AcDbEntity
  8
Sc.1_5
 62
     9
  6
CONTINUOUS
370
    -2
100
AcDbLine
 10
2398.71836746
 20
-855.22279588
 30
0.0
 11
2397.98555003
 21
-854.4899773
 31
0.0
  0
LINE
  5
2A3
100
AcDbEntity
  8
Sc.1_5
 62
     9
  6
CONTINUOUS
370
    -2
100
AcDbLine
 10
2398.71837479
 20
-845.88946113
 30
0.0
 11
2397.98555737
 21
-845.15664256
 31
0.0
  0
LINE
  5
2A4
100
AcDbEntity
  8
Sc.1_5
 62
     9
  6
CONTINUOUS
370
    -2
100
AcDbLine
 10
2398.71838212
 20
-836.55612639
 30
0.0
 11
2397.9855647
 21
-835.82330781
 31
0.0
  0
LINE
  5
2A5
100
AcDbEntity
  8
Sc.1_5
 62
     9
  6
CONTINUOUS
370
    -2
100
AcDbLine
 10
2398.71838946
 20
-827.22279164
 30
0.0
 11
2397.98557204
 21
-826.48997307
 31
0.0
  0
LINE
  5
2A6
100
AcDbEntity
  8
Sc.1_5
 62
     9
  6
CONTINUOUS
370
    -2
100
AcDbLine
 10
2398.7183409
 20
-889.01032969
 30
0.0
 11
2397.98552233
 21
-889.74314711
 31
0.0
  0
LINE
  5
2A7
100
AcDbEntity
  8
Sc.1_5
 62
     9
  6
CONTINUOUS
370
    -2
100
AcDbLine
 10
2398.71834824
 20
-879.67699494
 30
0.0
 11
2397.98552966
 21
-880.40981236
 31
0.0
  0
LINE
  5
2A8
100
AcDbEntity
  8
Sc.1_5
 62
     9
  6
CONTINUOUS
370
    -2
100
AcDbLine
 10
2398.71835557
 20
-870.3436602
 30
0.0
 11
2397.985537
 21
-871.07647762
 31
0.0
  0
LINE
  5
2A9
100
AcDbEntity
  8
Sc.1_5
 62
     9
  6
CONTINUOUS
370
    -2
100
AcDbLine
 10
2398.71836291
 20
-861.01032545
 30
0.0
 11
2397.98554433
 21
-861.74314287
 31
0.0
  0
LINE
  5
2AA
100
AcDbEntity
  8
Sc.1_5
 62
     9
  6
CONTINUOUS
370
    -2
100
AcDbLine
 10
2398.71837024
 20
-851.67699071
 30
0.0
 11
2397.98555167
 21
-852.40980813
 31
0.0
  0
LINE
  5
2AB
100
AcDbEntity
  8
Sc.1_5
 62
     9
  6
CONTINUOUS
370
    -2
100
AcDbLine
 10
2398.71837758
 20
-842.34365596
 30
0.0
 11
2397.985559
 21
-843.07647338
 31
0.0
  0
LINE
  5
2AC
100
AcDbEntity
  8
Sc.1_5
 62
     9
  6
CONTINUOUS
370
    -2
100
AcDbLine
 10
2398.71838491
 20
-833.01032121
 30
0.0
 11
2397.98556634
 21
-833.74313864
 31
0.0
  0
LINE
  5
2AD
100
AcDbEntity
  8
Sc.1_5
 62
     9
  6
CONTINUOUS
370
    -2
100
AcDbLine
 10
2398.71839224
 20
-823.67698647
 30
0.0
 11
2397.98557367
 21
-824.40980389
 31
0.0
  0
LINE
  5
2AE
100
AcDbEntity
  8
Sc.1_5
 62
     9
  6
CONTINUOUS
370
    -2
100
AcDbLine
 10
2373.37268606
 20
-894.40978776
 30
0.0
 11
2372.63986864
 21
-893.67696919
 31
0.0
  0
LINE
  5
2AF
100
AcDbEntity
  8
Sc.1_5
 62
     9
  6
CONTINUOUS
370
    -2
100
AcDbLine
 10
2373.3726934
 20
-885.07645301
 30
0.0
 11
2372.63987597
 21
-884.34363444
 31
0.0
  0
LINE
  5
2B0
100
AcDbEntity
  8
Sc.1_5
 62
     9
  6
CONTINUOUS
370
    -2
100
AcDbLine
 10
2373.37270073
 20
-875.74311827
 30
0.0
 11
2372.63988331
 21
-875.01029969
 31
0.0
  0
LINE
  5
2B1
100
AcDbEntity
  8
Sc.1_5
 62
     9
  6
CONTINUOUS
370
    -2
100
AcDbLine
 10
2373.37270807
 20
-866.40978352
 30
0.0
 11
2372.63989064
 21
-865.67696495
 31
0.0
  0
LINE
  5
2B2
100
AcDbEntity
  8
Sc.1_5
 62
     9
  6
CONTINUOUS
370
    -2
100
AcDbLine
 10
2373.3727154
 20
-857.07644878
 30
0.0
 11
2372.63989798
 21
-856.3436302
 31
0.0
  0
LINE
  5
2B3
100
AcDbEntity
  8
Sc.1_5
 62
     9
  6
CONTINUOUS
370
    -2
100
AcDbLine
 10
2373.37272273
 20
-847.74311403
 30
0.0
 11
2372.63990531
 21
-847.01029546
 31
0.0
  0
LINE
  5
2B4
100
AcDbEntity
  8
Sc.1_5
 62
     9
  6
CONTINUOUS
370
    -2
100
AcDbLine
 10
2373.37273007
 20
-838.40977929
 30
0.0
 11
2372.63991265
 21
-837.67696071
 31
0.0
  0
LINE
  5
2B5
100
AcDbEntity
  8
Sc.1_5
 62
     9
  6
CONTINUOUS
370
    -2
100
AcDbLine
 10
2373.3727374
 20
-829.07644454
 30
0.0
 11
2372.63991998
 21
-828.34362597
 31
0.0
  0
LINE
  5
2B6
100
AcDbEntity
  8
Sc.1_5
 62
     9
  6
CONTINUOUS
370
    -2
100
AcDbLine
 10
2373.37274474
 20
-819.7431098
 30
0.0
 11
2373.02177771
 21
-819.39214222
 31
0.0
  0
LINE
  5
2B7
100
AcDbEntity
  8
Sc.1_5
 62
     9
  6
CONTINUOUS
370
    -2
100
AcDbLine
 10
2372.63992737
 20
-822.55611136
 30
0.0
 11
2373.37274594
 21
-821.82329394
 31
0.0
  0
LINE
  5
2B8
100
AcDbEntity
  8
Sc.1_5
 62
     9
  6
CONTINUOUS
370
    -2
100
AcDbLine
 10
2372.63992003
 20
-831.88944611
 30
0.0
 11
2373.37273861
 21
-831.15662868
 31
0.0
  0
LINE
  5
2B9
100
AcDbEntity
  8
Sc.1_5
 62
     9
  6
CONTINUOUS
370
    -2
100
AcDbLine
 10
2372.6399127
 20
-841.22278085
 30
0.0
 11
2373.37273127
 21
-840.48996343
 31
0.0
  0
LINE
  5
2BA
100
AcDbEntity
  8
Sc.1_5
 62
     9
  6
CONTINUOUS
370
    -2
100
AcDbLine
 10
2372.63990537
 20
-850.5561156
 30
0.0
 11
2373.37272394
 21
-849.82329817
 31
0.0
  0
LINE
  5
2BB
100
AcDbEntity
  8
Sc.1_5
 62
     9
  6
CONTINUOUS
370
    -2
100
AcDbLine
 10
2372.63989803
 20
-859.88945034
 30
0.0
 11
2373.37271661
 21
-859.15663292
 31
0.0
  0
LINE
  5
2BC
100
AcDbEntity
  8
Sc.1_5
 62
     9
  6
CONTINUOUS
370
    -2
100
AcDbLine
 10
2372.6398907
 20
-869.22278509
 30
0.0
 11
2373.37270927
 21
-868.48996767
 31
0.0
  0
LINE
  5
2BD
100
AcDbEntity
  8
Sc.1_5
 62
     9
  6
CONTINUOUS
370
    -2
100
AcDbLine
 10
2372.63988336
 20
-878.55611983
 30
0.0
 11
2373.37270194
 21
-877.82330241
 31
0.0
  0
LINE
  5
2BE
100
AcDbEntity
  8
Sc.1_5
 62
     9
  6
CONTINUOUS
370
    -2
100
AcDbLine
 10
2372.63987603
 20
-887.88945458
 30
0.0
 11
2373.3726946
 21
-887.15663716
 31
0.0
  0
LINE
  5
2BF
100
AcDbEntity
  8
Sc.1_5
 62
     9
  6
CONTINUOUS
370
    -2
100
AcDbLine
 10
2397.98551888
 20
-891.82331768
 30
0.0
 11
2397.08104638
 21
-891.220335
 31
0.0
  0
LINE
  5
2C0
100
AcDbEntity
  8
Sc.1_5
 62
     9
  6
CONTINUOUS
370
    -2
100
AcDbLine
 10
2397.98552516
 20
-882.48998404
 30
0.0
 11
2397.08105266
 21
-881.88700136
 31
0.0
  0
LINE
  5
2C1
100
AcDbEntity
  8
Sc.1_5
 62
     9
  6
CONTINUOUS
370
    -2
100
AcDbLine
 10
2397.98553143
 20
-873.15665039
 30
0.0
 11
2397.08105894
 21
-872.55366771
 31
0.0
  0
LINE
  5
2C2
100
AcDbEntity
  8
Sc.1_5
 62
     9
  6
CONTINUOUS
370
    -2
100
AcDbLine
 10
2397.98553771
 20
-863.82331675
 30
0.0
 11
2397.08106522
 21
-863.22033406
 31
0.0
  0
LINE
  5
2C3
100
AcDbEntity
  8
Sc.1_5
 62
     9
  6
CONTINUOUS
370
    -2
100
AcDbLine
 10
2397.98554399
 20
-854.4899831
 30
0.0
 11
2397.0810715
 21
-853.88700042
 31
0.0
  0
LINE
  5
2C4
100
AcDbEntity
  8
Sc.1_5
 62
     9
  6
CONTINUOUS
370
    -2
100
AcDbLine
 10
2397.98555027
 20
-845.15664946
 30
0.0
 11
2397.08107777
 21
-844.55366677
 31
0.0
  0
LINE
  5
2C5
100
AcDbEntity
  8
Sc.1_5
 62
     9
  6
CONTINUOUS
370
    -2
100
AcDbLine
 10
2397.98555654
 20
-835.82331581
 30
0.0
 11
2397.08108405
 21
-835.22033313
 31
0.0
  0
LINE
  5
2C6
100
AcDbEntity
  8
Sc.1_5
 62
     9
  6
CONTINUOUS
370
    -2
100
AcDbLine
 10
2397.98556282
 20
-826.48998217
 30
0.0
 11
2397.08109033
 21
-825.88699948
 31
0.0
  0
LINE
  5
2C7
100
AcDbEntity
  8
Sc.1_5
 62
     9
  6
CONTINUOUS
370
    -2
100
AcDbLine
 10
2397.98552219
 20
-889.74314867
 30
0.0
 11
2397.08104871
 21
-890.34612988
 31
0.0
  0
LINE
  5
2C8
100
AcDbEntity
  8
Sc.1_5
 62
     9
  6
CONTINUOUS
370
    -2
100
AcDbLine
 10
2397.9855312
 20
-880.40981503
 30
0.0
 11
2397.08105772
 21
-881.01279623
 31
0.0
  0
LINE
  5
2C9
100
AcDbEntity
  8
Sc.1_5
 62
     9
  6
CONTINUOUS
370
    -2
100
AcDbLine
 10
2397.98554021
 20
-871.07648138
 30
0.0
 11
2397.08106673
 21
-871.67946258
 31
0.0
  0
LINE
  5
2CA
100
AcDbEntity
  8
Sc.1_5
 62
     9
  6
CONTINUOUS
370
    -2
100
AcDbLine
 10
2397.98554923
 20
-861.74314774
 30
0.0
 11
2397.08107575
 21
-862.34612894
 31
0.0
  0
LINE
  5
2CB
100
AcDbEntity
  8
Sc.1_5
 62
     9
  6
CONTINUOUS
370
    -2
100
AcDbLine
 10
2397.98555824
 20
-852.40981409
 30
0.0
 11
2397.08108476
 21
-853.01279529
 31
0.0
  0
LINE
  5
2CC
100
AcDbEntity
  8
Sc.1_5
 62
     9
  6
CONTINUOUS
370
    -2
100
AcDbLine
 10
2397.98556725
 20
-843.07648045
 30
0.0
 11
2397.08109377
 21
-843.67946165
 31
0.0
  0
LINE
  5
2CD
100
AcDbEntity
  8
Sc.1_5
 62
     9
  6
CONTINUOUS
370
    -2
100
AcDbLine
 10
2397.98557626
 20
-833.7431468
 30
0.0
 11
2397.08110278
 21
-834.346128
 31
0.0
  0
LINE
  5
2CE
100
AcDbEntity
  8
Sc.1_5
 62
     9
  6
CONTINUOUS
370
    -2
100
AcDbLine
 10
2397.98558528
 20
-824.40981316
 30
0.0
 11
2397.0811118
 21
-825.01279436
 31
0.0
  0
LINE
  5
2CF
100
AcDbEntity
  8
Sc.1_5
 62
     9
  6
CONTINUOUS
370
    -2
100
AcDbLine
 10
2374.27715639
 20
-895.01277345
 30
0.0
 11
2373.3726839
 21
-894.40979077
 31
0.0
  0
LINE
  5
2D0
100
AcDbEntity
  8
Sc.1_5
 62
     9
  6
CONTINUOUS
370
    -2
100
AcDbLine
 10
2374.27716267
 20
-885.67943981
 30
0.0
 11
2373.37269017
 21
-885.07645712
 31
0.0
  0
LINE
  5
2D1
100
AcDbEntity
  8
Sc.1_5
 62
     9
  6
CONTINUOUS
370
    -2
100
AcDbLine
 10
2374.27716894
 20
-876.34610616
 30
0.0
 11
2373.37269645
 21
-875.74312348
 31
0.0
  0
LINE
  5
2D2
100
AcDbEntity
  8
Sc.1_5
 62
     9
  6
CONTINUOUS
370
    -2
100
AcDbLine
 10
2374.27717522
 20
-867.01277251
 30
0.0
 11
2373.37270273
 21
-866.40978983
 31
0.0
  0
LINE
  5
2D3
100
AcDbEntity
  8
Sc.1_5
 62
     9
  6
CONTINUOUS
370
    -2
100
AcDbLine
 10
2374.2771815
 20
-857.67943887
 30
0.0
 11
2373.37270901
 21
-857.07645619
 31
0.0
  0
LINE
  5
2D4
100
AcDbEntity
  8
Sc.1_5
 62
     9
  6
CONTINUOUS
370
    -2
100
AcDbLine
 10
2374.27718778
 20
-848.34610522
 30
0.0
 11
2373.37271529
 21
-847.74312254
 31
0.0
  0
LINE
  5
2D5
100
AcDbEntity
  8
Sc.1_5
 62
     9
  6
CONTINUOUS
370
    -2
100
AcDbLine
 10
2374.27719406
 20
-839.01277158
 30
0.0
 11
2373.37272156
 21
-838.4097889
 31
0.0
  0
LINE
  5
2D6
100
AcDbEntity
  8
Sc.1_5
 62
     9
  6
CONTINUOUS
370
    -2
100
AcDbLine
 10
2374.27720033
 20
-829.67943793
 30
0.0
 11
2373.37272784
 21
-829.07645525
 31
0.0
  0
LINE
  5
2D7
100
AcDbEntity
  8
Sc.1_5
 62
     9
  6
CONTINUOUS
370
    -2
100
AcDbLine
 10
2374.27720661
 20
-820.34610429
 30
0.0
 11
2373.37273412
 21
-819.7431216
 31
0.0
  0
LINE
  5
2D8
100
AcDbEntity
  8
Sc.1_5
 62
     9
  6
CONTINUOUS
370
    -2
100
AcDbLine
 10
2373.37274667
 20
-821.82329891
 30
0.0
 11
2374.27722011
 21
-821.22031765
 31
0.0
  0
LINE
  5
2D9
100
AcDbEntity
  8
Sc.1_5
 62
     9
  6
CONTINUOUS
370
    -2
100
AcDbLine
 10
2373.37273828
 20
-831.15663256
 30
0.0
 11
2374.27721172
 21
-830.55365129
 31
0.0
  0
LINE
  5
2DA
100
AcDbEntity
  8
Sc.1_5
 62
     9
  6
CONTINUOUS
370
    -2
100
AcDbLine
 10
2373.37272989
 20
-840.4899662
 30
0.0
 11
2374.27720333
 21
-839.88698494
 31
0.0
  0
LINE
  5
2DB
100
AcDbEntity
  8
Sc.1_5
 62
     9
  6
CONTINUOUS
370
    -2
100
AcDbLine
 10
2373.3727215
 20
-849.82329985
 30
0.0
 11
2374.27719494
 21
-849.22031858
 31
0.0
  0
LINE
  5
2DC
100
AcDbEntity
  8
Sc.1_5
 62
     9
  6
CONTINUOUS
370
    -2
100
AcDbLine
 10
2373.37271311
 20
-859.15663349
 30
0.0
 11
2374.27718655
 21
-858.55365223
 31
0.0
  0
LINE
  5
2DD
100
AcDbEntity
  8
Sc.1_5
 62
     9
  6
CONTINUOUS
370
    -2
100
AcDbLine
 10
2373.37270472
 20
-868.48996714
 30
0.0
 11
2374.27717816
 21
-867.88698588
 31
0.0
  0
LINE
  5
2DE
100
AcDbEntity
  8
Sc.1_5
 62
     9
  6
CONTINUOUS
370
    -2
100
AcDbLine
 10
2373.37269633
 20
-877.82330078
 30
0.0
 11
2374.27716977
 21
-877.22031952
 31
0.0
  0
LINE
  5
2DF
100
AcDbEntity
  8
Sc.1_5
 62
     9
  6
CONTINUOUS
370
    -2
100
AcDbLine
 10
2373.37268794
 20
-887.15663443
 30
0.0
 11
2374.27716138
 21
-886.55365317
 31
0.0
  0
LINE
  5
2E0
100
AcDbEntity
  8
Sc.1_5
 62
     9
  6
CONTINUOUS
370
    -2
100
AcDbLine
 10
2397.08105
 20
-891.22033674
 30
0.0
 11
2395.76973479
 21
-890.78323045
 31
0.0
  0
LINE
  5
2E1
100
AcDbEntity
  8
Sc.1_5
 62
     9
  6
CONTINUOUS
370
    -2
100
AcDbLine
 10
2397.08105687
 20
-881.88700243
 30
0.0
 11
2395.76974165
 21
-881.44989614
 31
0.0
  0
LINE
  5
2E2
100
AcDbEntity
  8
Sc.1_5
 62
     9
  6
CONTINUOUS
370
    -2
100
AcDbLine
 10
2397.08106373
 20
-872.55366812
 30
0.0
 11
2395.76974852
 21
-872.11656183
 31
0.0
  0
LINE
  5
2E3
100
AcDbEntity
  8
Sc.1_5
 62
     9
  6
CONTINUOUS
370
    -2
100
AcDbLine
 10
2397.0810706
 20
-863.22033382
 30
0.0
 11
2395.76975539
 21
-862.78322752
 31
0.0
  0
LINE
  5
2E4
100
AcDbEntity
  8
Sc.1_5
 62
     9
  6
CONTINUOUS
370
    -2
100
AcDbLine
 10
2397.08107746
 20
-853.88699951
 30
0.0
 11
2395.76976225
 21
-853.44989322
 31
0.0
  0
LINE
  5
2E5
100
AcDbEntity
  8
Sc.1_5
 62
     9
  6
CONTINUOUS
370
    -2
100
AcDbLine
 10
2397.08108433
 20
-844.5536652
 30
0.0
 11
2395.76976912
 21
-844.11655891
 31
0.0
  0
LINE
  5
2E6
100
AcDbEntity
  8
Sc.1_5
 62
     9
  6
CONTINUOUS
370
    -2
100
AcDbLine
 10
2397.0810912
 20
-835.22033089
 30
0.0
 11
2395.76977599
 21
-834.7832246
 31
0.0
  0
LINE
  5
2E7
100
AcDbEntity
  8
Sc.1_5
 62
     9
  6
CONTINUOUS
370
    -2
100
AcDbLine
 10
2397.08109806
 20
-825.88699658
 30
0.0
 11
2395.76978285
 21
-825.44989029
 31
0.0
  0
LINE
  5
2E8
100
AcDbEntity
  8
Sc.1_5
 62
     9
  6
CONTINUOUS
370
    -2
100
AcDbLine
 10
2397.08105115
 20
-890.34612567
 30
0.0
 11
2395.76973526
 21
-890.7832299
 31
0.0
  0
LINE
  5
2E9
100
AcDbEntity
  8
Sc.1_5
 62
     9
  6
CONTINUOUS
370
    -2
100
AcDbLine
 10
2397.08105896
 20
-881.01279136
 30
0.0
 11
2395.76974306
 21
-881.44989559
 31
0.0
  0
LINE
  5
2EA
100
AcDbEntity
  8
Sc.1_5
 62
     9
  6
CONTINUOUS
370
    -2
100
AcDbLine
 10
2397.08106676
 20
-871.67945705
 30
0.0
 11
2395.76975086
 21
-872.11656128
 31
0.0
  0
LINE
  5
2EB
100
AcDbEntity
  8
Sc.1_5
 62
     9
  6
CONTINUOUS
370
    -2
100
AcDbLine
 10
2397.08107456
 20
-862.34612275
 30
0.0
 11
2395.76975866
 21
-862.78322698
 31
0.0
  0
LINE
  5
2EC
100
AcDbEntity
  8
Sc.1_5
 62
     9
  6
CONTINUOUS
370
    -2
100
AcDbLine
 10
2397.08108236
 20
-853.01278844
 30
0.0
 11
2395.76976647
 21
-853.44989267
 31
0.0
  0
LINE
  5
2ED
100
AcDbEntity
  8
Sc.1_5
 62
     9
  6
CONTINUOUS
370
    -2
100
AcDbLine
 10
2397.08109017
 20
-843.67945413
 30
0.0
 11
2395.76977427
 21
-844.11655836
 31
0.0
  0
LINE
  5
2EE
100
AcDbEntity
  8
Sc.1_5
 62
     9
  6
CONTINUOUS
370
    -2
100
AcDbLine
 10
2397.08109797
 20
-834.34611982
 30
0.0
 11
2395.76978207
 21
-834.78322405
 31
0.0
  0
LINE
  5
2EF
100
AcDbEntity
  8
Sc.1_5
 62
     9
  6
CONTINUOUS
370
    -2
100
AcDbLine
 10
2397.08110577
 20
-825.01278552
 30
0.0
 11
2395.76978987
 21
-825.44988974
 31
0.0
  0
LINE
  5
2F0
100
AcDbEntity
  8
Sc.1_5
 62
     9
  6
CONTINUOUS
370
    -2
100
AcDbLine
 10
2375.58846243
 20
-895.4498784
 30
0.0
 11
2374.27715864
 21
-895.01277591
 31
0.0
  0
LINE
  5
2F1
100
AcDbEntity
  8
Sc.1_5
 62
     9
  6
CONTINUOUS
370
    -2
100
AcDbLine
 10
2375.58848072
 20
-886.1165479
 30
0.0
 11
2374.27716551
 21
-885.6794416
 31
0.0
  0
LINE
  5
2F2
100
AcDbEntity
  8
Sc.1_5
 62
     9
  6
CONTINUOUS
370
    -2
100
AcDbLine
 10
2375.58848758
 20
-876.78321359
 30
0.0
 11
2374.27717237
 21
-876.3461073
 31
0.0
  0
LINE
  5
2F3
100
AcDbEntity
  8
Sc.1_5
 62
     9
  6
CONTINUOUS
370
    -2
100
AcDbLine
 10
2375.58849445
 20
-867.44987928
 30
0.0
 11
2374.27717924
 21
-867.01277299
 31
0.0
  0
LINE
  5
2F4
100
AcDbEntity
  8
Sc.1_5
 62
     9
  6
CONTINUOUS
370
    -2
100
AcDbLine
 10
2375.58850132
 20
-858.11654497
 30
0.0
 11
2374.27718611
 21
-857.67943868
 31
0.0
  0
LINE
  5
2F5
100
AcDbEntity
  8
Sc.1_5
 62
     9
  6
CONTINUOUS
370
    -2
100
AcDbLine
 10
2375.58850818
 20
-848.78321066
 30
0.0
 11
2374.27719297
 21
-848.34610437
 31
0.0
  0
LINE
  5
2F6
100
AcDbEntity
  8
Sc.1_5
 62
     9
  6
CONTINUOUS
370
    -2
100
AcDbLine
 10
2375.58851505
 20
-839.44987636
 30
0.0
 11
2374.27719984
 21
-839.01277007
 31
0.0
  0
LINE
  5
2F7
100
AcDbEntity
  8
Sc.1_5
 62
     9
  6
CONTINUOUS
370
    -2
100
AcDbLine
 10
2375.58852192
 20
-830.11654205
 30
0.0
 11
2374.27720671
 21
-829.67943576
 31
0.0
  0
LINE
  5
2F8
100
AcDbEntity
  8
Sc.1_5
 62
     9
  6
CONTINUOUS
370
    -2
100
AcDbLine
 10
2375.58852878
 20
-820.78320774
 30
0.0
 11
2374.27721357
 21
-820.34610145
 31
0.0
  0
LINE
  5
2F9
100
AcDbEntity
  8
Sc.1_5
 62
     9
  6
CONTINUOUS
370
    -2
100
AcDbLine
 10
2374.27722109
 20
-821.22031272
 30
0.0
 11
2375.58853699
 21
-820.78320849
 31
0.0
  0
LINE
  5
2FA
100
AcDbEntity
  8
Sc.1_5
 62
     9
  6
CONTINUOUS
370
    -2
100
AcDbLine
 10
2374.27721329
 20
-830.55364703
 30
0.0
 11
2375.58852918
 21
-830.1165428
 31
0.0
  0
LINE
  5
2FB
100
AcDbEntity
  8
Sc.1_5
 62
     9
  6
CONTINUOUS
370
    -2
100
AcDbLine
 10
2374.27720548
 20
-839.88698134
 30
0.0
 11
2375.58852138
 21
-839.44987711
 31
0.0
  0
LINE
  5
2FC
100
AcDbEntity
  8
Sc.1_5
 62
     9
  6
CONTINUOUS
370
    -2
100
AcDbLine
 10
2374.27719768
 20
-849.22031565
 30
0.0
 11
2375.58851358
 21
-848.78321142
 31
0.0
  0
LINE
  5
2FD
100
AcDbEntity
  8
Sc.1_5
 62
     9
  6
CONTINUOUS
370
    -2
100
AcDbLine
 10
2374.27718988
 20
-858.55364995
 30
0.0
 11
2375.58850578
 21
-858.11654573
 31
0.0
  0
LINE
  5
2FE
100
AcDbEntity
  8
Sc.1_5
 62
     9
  6
CONTINUOUS
370
    -2
100
AcDbLine
 10
2374.27718208
 20
-867.88698426
 30
0.0
 11
2375.58849797
 21
-867.44988003
 31
0.0
  0
LINE
  5
2FF
100
AcDbEntity
  8
Sc.1_5
 62
     9
  6
CONTINUOUS
370
    -2
100
AcDbLine
 10
2374.27717427
 20
-877.22031857
 30
0.0
 11
2375.58849017
 21
-876.78321434
 31
0.0
  0
LINE
  5
300
100
AcDbEntity
  8
Sc.1_5
 62
     9
  6
CONTINUOUS
370
    -2
100
AcDbLine
 10
2374.27716647
 20
-886.55365288
 30
0.0
 11
2375.58848237
 21
-886.11654865
 31
0.0
  0
LINE
  5
301
100
AcDbEntity
  8
Sc.1_5
 62
     9
  6
CONTINUOUS
370
    -2
100
AcDbLine
 10
2395.01242511
 20
-890.78323047
 30
0.0
 11
2394.01137238
 21
-890.67200154
 31
0.0
  0
LINE
  5
302
100
AcDbEntity
  8
Sc.1_5
 62
     9
  6
CONTINUOUS
370
    -2
100
AcDbLine
 10
2395.01242104
 20
-881.44989782
 30
0.0
 11
2394.01136831
 21
-881.33866889
 31
0.0
  0
LINE
  5
303
100
AcDbEntity
  8
Sc.1_5
 62
     9
  6
CONTINUOUS
370
    -2
100
AcDbLine
 10
2395.01241696
 20
-872.11656517
 30
0.0
 11
2394.01136423
 21
-872.00533624
 31
0.0
  0
LINE
  5
304
100
AcDbEntity
  8
Sc.1_5
 62
     9
  6
CONTINUOUS
370
    -2
100
AcDbLine
 10
2395.01241289
 20
-862.78323252
 30
0.0
 11
2394.01136016
 21
-862.67200359
 31
0.0
  0
LINE
  5
305
100
AcDbEntity
  8
Sc.1_5
 62
     9
  6
CONTINUOUS
370
    -2
100
AcDbLine
 10
2395.01240882
 20
-853.44989987
 30
0.0
 11
2394.01135609
 21
-853.33867094
 31
0.0
  0
LINE
  5
306
100
AcDbEntity
  8
Sc.1_5
 62
     9
  6
CONTINUOUS
370
    -2
100
AcDbLine
 10
2395.01240475
 20
-844.11656722
 30
0.0
 11
2394.01135202
 21
-844.00533829
 31
0.0
  0
LINE
  5
307
100
AcDbEntity
  8
Sc.1_5
 62
     9
  6
CONTINUOUS
370
    -2
100
AcDbLine
 10
2395.01240068
 20
-834.78323457
 30
0.0
 11
2394.01134795
 21
-834.67200564
 31
0.0
  0
LINE
  5
308
100
AcDbEntity
  8
Sc.1_5
 62
     9
  6
CONTINUOUS
370
    -2
100
AcDbLine
 10
2395.01239661
 20
-825.44990192
 30
0.0
 11
2394.01134388
 21
-825.33867299
 31
0.0
  0
LINE
  5
309
100
AcDbEntity
  8
Sc.1_5
 62
     9
  6
CONTINUOUS
370
    -2
100
AcDbLine
 10
2395.01243651
 20
-890.78323034
 30
0.0
 11
2394.01138361
 21
-890.8944577
 31
0.0
  0
LINE
  5
30A
100
AcDbEntity
  8
Sc.1_5
 62
     9
  6
CONTINUOUS
370
    -2
100
AcDbLine
 10
2395.01245525
 20
-881.44989769
 30
0.0
 11
2394.01140235
 21
-881.56112505
 31
0.0
  0
LINE
  5
30B
100
AcDbEntity
  8
Sc.1_5
 62
     9
  6
CONTINUOUS
370
    -2
100
AcDbLine
 10
2395.01247399
 20
-872.11656504
 30
0.0
 11
2394.01142109
 21
-872.2277924
 31
0.0
  0
LINE
  5
30C
100
AcDbEntity
  8
Sc.1_5
 62
     9
  6
CONTINUOUS
370
    -2
100
AcDbLine
 10
2395.01249273
 20
-862.78323239
 30
0.0
 11
2394.01143983
 21
-862.89445975
 31
0.0
  0
LINE
  5
30D
100
AcDbEntity
  8
Sc.1_5
 62
     9
  6
CONTINUOUS
370
    -2
100
AcDbLine
 10
2395.01251147
 20
-853.44989974
 30
0.0
 11
2394.01145857
 21
-853.5611271
 31
0.0
  0
LINE
  5
30E
100
AcDbEntity
  8
Sc.1_5
 62
     9
  6
CONTINUOUS
370
    -2
100
AcDbLine
 10
2395.01253021
 20
-844.11656709
 30
0.0
 11
2394.01147731
 21
-844.22779445
 31
0.0
  0
LINE
  5
30F
100
AcDbEntity
  8
Sc.1_5
 62
     9
  6
CONTINUOUS
370
    -2
100
AcDbLine
 10
2395.01254896
 20
-834.78323444
 30
0.0
 11
2394.01149605
 21
-834.8944618
 31
0.0
  0
LINE
  5
310
100
AcDbEntity
  8
Sc.1_5
 62
     9
  6
CONTINUOUS
370
    -2
100
AcDbLine
 10
2395.0125677
 20
-825.44990179
 30
0.0
 11
2394.01151479
 21
-825.56112915
 31
0.0
  0
LINE
  5
311
100
AcDbEntity
  8
Sc.1_5
 62
     9
  6
CONTINUOUS
370
    -2
100
AcDbLine
 10
2376.34571315
 20
-820.78321499
 30
0.0
 11
2377.34676591
 21
-820.89444365
 31
0.0
  0
LINE
  5
312
100
AcDbEntity
  8
Sc.1_5
 62
     9
  6
CONTINUOUS
370
    -2
100
AcDbLine
 10
2376.34571971
 20
-830.11654764
 30
0.0
 11
2377.34677247
 21
-830.2277763
 31
0.0
  0
LINE
  5
313
100
AcDbEntity
  8
Sc.1_5
 62
     9
  6
CONTINUOUS
370
    -2
100
AcDbLine
 10
2376.34572626
 20
-839.44988029
 30
0.0
 11
2377.34677902
 21
-839.56110895
 31
0.0
  0
LINE
  5
314
100
AcDbEntity
  8
Sc.1_5
 62
     9
  6
CONTINUOUS
370
    -2
100
AcDbLine
 10
2376.34573282
 20
-848.78321294
 30
0.0
 11
2377.34678558
 21
-848.8944416
 31
0.0
  0
LINE
  5
315
100
AcDbEntity
  8
Sc.1_5
 62
     9
  6
CONTINUOUS
370
    -2
100
AcDbLine
 10
2376.34573938
 20
-858.11654559
 30
0.0
 11
2377.34679214
 21
-858.22777425
 31
0.0
  0
LINE
  5
316
100
AcDbEntity
  8
Sc.1_5
 62
     9
  6
CONTINUOUS
370
    -2
100
AcDbLine
 10
2376.34574594
 20
-867.44987824
 30
0.0
 11
2377.34679869
 21
-867.5611069
 31
0.0
  0
LINE
  5
317
100
AcDbEntity
  8
Sc.1_5
 62
     9
  6
CONTINUOUS
370
    -2
100
AcDbLine
 10
2376.34575249
 20
-876.78321089
 30
0.0
 11
2377.34680525
 21
-876.89443955
 31
0.0
  0
LINE
  5
318
100
AcDbEntity
  8
Sc.1_5
 62
     9
  6
CONTINUOUS
370
    -2
100
AcDbLine
 10
2376.34575905
 20
-886.11654354
 30
0.0
 11
2377.34681181
 21
-886.2277722
 31
0.0
  0
LINE
  5
319
100
AcDbEntity
  8
Sc.1_5
 62
     9
  6
CONTINUOUS
370
    -2
100
AcDbLine
 10
2376.34591553
 20
-820.78321928
 30
0.0
 11
2377.34696843
 21
-820.67199192
 31
0.0
  0
LINE
  5
31A
100
AcDbEntity
  8
Sc.1_5
 62
     9
  6
CONTINUOUS
370
    -2
100
AcDbLine
 10
2376.34589679
 20
-830.11655193
 30
0.0
 11
2377.34694969
 21
-830.00532457
 31
0.0
  0
LINE
  5
31B
100
AcDbEntity
  8
Sc.1_5
 62
     9
  6
CONTINUOUS
370
    -2
100
AcDbLine
 10
2376.34587805
 20
-839.44988458
 30
0.0
 11
2377.34693095
 21
-839.33865722
 31
0.0
  0
LINE
  5
31C
100
AcDbEntity
  8
Sc.1_5
 62
     9
  6
CONTINUOUS
370
    -2
100
AcDbLine
 10
2376.34585931
 20
-848.78321723
 30
0.0
 11
2377.34691221
 21
-848.67198987
 31
0.0
  0
LINE
  5
31D
100
AcDbEntity
  8
Sc.1_5
 62
     9
  6
CONTINUOUS
370
    -2
100
AcDbLine
 10
2376.34584057
 20
-858.11654988
 30
0.0
 11
2377.34689347
 21
-858.00532252
 31
0.0
  0
LINE
  5
31E
100
AcDbEntity
  8
Sc.1_5
 62
     9
  6
CONTINUOUS
370
    -2
100
AcDbLine
 10
2376.34582183
 20
-867.44988253
 30
0.0
 11
2377.34687473
 21
-867.33865517
 31
0.0
  0
LINE
  5
31F
100
AcDbEntity
  8
Sc.1_5
 62
     9
  6
CONTINUOUS
370
    -2
100
AcDbLine
 10
2376.34580309
 20
-876.78321518
 30
0.0
 11
2377.34685599
 21
-876.67198782
 31
0.0
  0
LINE
  5
320
100
AcDbEntity
  8
Sc.1_5
 62
     9
  6
CONTINUOUS
370
    -2
100
AcDbLine
 10
2376.34578435
 20
-886.11654783
 30
0.0
 11
2377.34683725
 21
-886.00532047
 31
0.0
  0
LINE
  5
321
100
AcDbEntity
  8
Sc.1_5
 62
     9
  6
CONTINUOUS
370
    -2
100
AcDbLine
 10
2376.34578437
 20
-895.4498784
 30
0.0
 11
2377.34681851
 21
-895.33865313
 31
0.0
  0
ENDBLK
  5
322
100
AcDbEntity
100
AcDbBlockEnd
  0
BLOCK
  5
323
100
AcDbEntity
  8
Sc.1_5
100
AcDbBlockBegin
  2
*X2173
 70
     1
 10
0.0
 20
0.0
 30
0.0
  3
*X2173
  1

  4
Cadwork hatch
  0
LINE
  5
324
100
AcDbEntity
  8
Sc.1_5
 62
     9
  6
CONTINUOUS
370
    -2
100
AcDbLine
 10
2371.67910351
 20
-954.0171628
 30
0.0
 11
2371.67910351
 21
-953.54973738
 31
0.0
  0
LINE
  5
325
100
AcDbEntity
  8
Sc.1_5
 62
     9
  6
CONTINUOUS
370
    -2
100
AcDbLine
 10
2395.76969704
 20
-1004.72548106
 30
0.0
 11
2395.01240178
 21
-1004.72548106
 31
0.0
  0
LINE
  5
326
100
AcDbEntity
  8
Sc.1_5
 62
     9
  6
CONTINUOUS
370
    -2
100
AcDbLine
 10
2395.76969704
 20
-995.39216229
 30
0.0
 11
2395.01240178
 21
-995.39216229
 31
0.0
  0
LINE
  5
327
100
AcDbEntity
  8
Sc.1_5
 62
     9
  6
CONTINUOUS
370
    -2
100
AcDbLine
 10
2395.76969704
 20
-986.05884351
 30
0.0
 11
2395.01240178
 21
-986.05884351
 31
0.0
  0
LINE
  5
328
100
AcDbEntity
  8
Sc.1_5
 62
     9
  6
CONTINUOUS
370
    -2
100
AcDbLine
 10
2395.76969704
 20
-976.72552474
 30
0.0
 11
2395.01240178
 21
-976.72552474
 31
0.0
  0
LINE
  5
329
100
AcDbEntity
  8
Sc.1_5
 62
     9
  6
CONTINUOUS
370
    -2
100
AcDbLine
 10
2395.76969704
 20
-967.39220597
 30
0.0
 11
2395.01240178
 21
-967.39220597
 31
0.0
  0
LINE
  5
32A
100
AcDbEntity
  8
Sc.1_5
 62
     9
  6
CONTINUOUS
370
    -2
100
AcDbLine
 10
2395.76969704
 20
-958.05888719
 30
0.0
 11
2395.01240178
 21
-958.05888719
 31
0.0
  0
LINE
  5
32B
100
AcDbEntity
  8
Sc.1_5
 62
     9
  6
CONTINUOUS
370
    -2
100
AcDbLine
 10
2376.34576423
 20
-1009.39214078
 30
0.0
 11
2375.58846897
 21
-1009.39214078
 31
0.0
  0
LINE
  5
32C
100
AcDbEntity
  8
Sc.1_5
 62
     9
  6
CONTINUOUS
370
    -2
100
AcDbLine
 10
2376.34576423
 20
-1000.05882201
 30
0.0
 11
2375.58846897
 21
-1000.05882201
 31
0.0
  0
LINE
  5
32D
100
AcDbEntity
  8
Sc.1_5
 62
     9
  6
CONTINUOUS
370
    -2
100
AcDbLine
 10
2376.34576423
 20
-990.72550324
 30
0.0
 11
2375.58846897
 21
-990.72550324
 31
0.0
  0
LINE
  5
32E
100
AcDbEntity
  8
Sc.1_5
 62
     9
  6
CONTINUOUS
370
    -2
100
AcDbLine
 10
2376.34576423
 20
-981.39218446
 30
0.0
 11
2375.58846897
 21
-981.39218446
 31
0.0
  0
LINE
  5
32F
100
AcDbEntity
  8
Sc.1_5
 62
     9
  6
CONTINUOUS
370
    -2
100
AcDbLine
 10
2376.34576423
 20
-972.05886569
 30
0.0
 11
2375.58846897
 21
-972.05886569
 31
0.0
  0
LINE
  5
330
100
AcDbEntity
  8
Sc.1_5
 62
     9
  6
CONTINUOUS
370
    -2
100
AcDbLine
 10
2376.34576423
 20
-962.72554691
 30
0.0
 11
2375.58846897
 21
-962.72554691
 31
0.0
  0
LINE
  5
331
100
AcDbEntity
  8
Sc.1_5
 62
     9
  6
CONTINUOUS
370
    -2
100
AcDbLine
 10
2394.01135296
 20
-1004.83671075
 30
0.0
 11
2377.34681536
 21
-1009.28091375
 31
0.0
  0
LINE
  5
332
100
AcDbEntity
  8
Sc.1_5
 62
     9
  6
CONTINUOUS
370
    -2
100
AcDbLine
 10
2394.01136897
 20
-995.50339387
 30
0.0
 11
2377.34683137
 21
-999.94759688
 31
0.0
  0
LINE
  5
333
100
AcDbEntity
  8
Sc.1_5
 62
     9
  6
CONTINUOUS
370
    -2
100
AcDbLine
 10
2394.01138497
 20
-986.170077
 30
0.0
 11
2377.34684737
 21
-990.61428
 31
0.0
  0
LINE
  5
334
100
AcDbEntity
  8
Sc.1_5
 62
     9
  6
CONTINUOUS
370
    -2
100
AcDbLine
 10
2394.01140098
 20
-976.83676012
 30
0.0
 11
2377.34686338
 21
-981.28096313
 31
0.0
  0
LINE
  5
335
100
AcDbEntity
  8
Sc.1_5
 62
     9
  6
CONTINUOUS
370
    -2
100
AcDbLine
 10
2394.01141699
 20
-967.50344325
 30
0.0
 11
2377.34687939
 21
-971.94764625
 31
0.0
  0
LINE
  5
336
100
AcDbEntity
  8
Sc.1_5
 62
     9
  6
CONTINUOUS
370
    -2
100
AcDbLine
 10
2394.01143299
 20
-958.17012638
 30
0.0
 11
2377.34689539
 21
-962.61432938
 31
0.0
  0
LINE
  5
337
100
AcDbEntity
  8
Sc.1_5
 62
     9
  6
CONTINUOUS
370
    -2
100
AcDbLine
 10
2394.01135296
 20
-1004.61425405
 30
0.0
 11
2377.34681536
 21
-1000.17005104
 31
0.0
  0
LINE
  5
338
100
AcDbEntity
  8
Sc.1_5
 62
     9
  6
CONTINUOUS
370
    -2
100
AcDbLine
 10
2394.01133695
 20
-995.28093717
 30
0.0
 11
2377.34679935
 21
-990.83673417
 31
0.0
  0
LINE
  5
339
100
AcDbEntity
  8
Sc.1_5
 62
     9
  6
CONTINUOUS
370
    -2
100
AcDbLine
 10
2394.01132095
 20
-985.9476203
 30
0.0
 11
2377.34678335
 21
-981.5034173
 31
0.0
  0
LINE
  5
33A
100
AcDbEntity
  8
Sc.1_5
 62
     9
  6
CONTINUOUS
370
    -2
100
AcDbLine
 10
2394.01130494
 20
-976.61430342
 30
0.0
 11
2377.34676734
 21
-972.17010042
 31
0.0
  0
LINE
  5
33B
100
AcDbEntity
  8
Sc.1_5
 62
     9
  6
CONTINUOUS
370
    -2
100
AcDbLine
 10
2394.01128893
 20
-967.28098655
 30
0.0
 11
2377.34675133
 21
-962.83678355
 31
0.0
  0
LINE
  5
33C
100
AcDbEntity
  8
Sc.1_5
 62
     9
  6
CONTINUOUS
370
    -2
100
AcDbLine
 10
2394.01127293
 20
-957.94766967
 30
0.0
 11
2377.52023677
 21
-953.54973712
 31
0.0
  0
LINE
  5
33D
100
AcDbEntity
  8
Sc.1_5
 62
     9
  6
CONTINUOUS
370
    -2
100
AcDbLine
 10
2399.6790625
 20
-1008.7671911
 30
0.0
 11
2399.34529466
 21
-1007.54337575
 31
0.0
  0
LINE
  5
33E
100
AcDbEntity
  8
Sc.1_5
 62
     9
  6
CONTINUOUS
370
    -2
100
AcDbLine
 10
2399.6790625
 20
-999.43387171
 30
0.0
 11
2399.34529491
 21
-998.21005727
 31
0.0
  0
LINE
  5
33F
100
AcDbEntity
  8
Sc.1_5
 62
     9
  6
CONTINUOUS
370
    -2
100
AcDbLine
 10
2399.6790625
 20
-990.10055231
 30
0.0
 11
2399.34529516
 21
-988.87673879
 31
0.0
  0
LINE
  5
340
100
AcDbEntity
  8
Sc.1_5
 62
     9
  6
CONTINUOUS
370
    -2
100
AcDbLine
 10
2399.6790625
 20
-980.76723291
 30
0.0
 11
2399.34529541
 21
-979.54342031
 31
0.0
  0
LINE
  5
341
100
AcDbEntity
  8
Sc.1_5
 62
     9
  6
CONTINUOUS
370
    -2
100
AcDbLine
 10
2399.6790625
 20
-971.43391351
 30
0.0
 11
2399.34529566
 21
-970.21010182
 31
0.0
  0
LINE
  5
342
100
AcDbEntity
  8
Sc.1_5
 62
     9
  6
CONTINUOUS
370
    -2
100
AcDbLine
 10
2399.6790625
 20
-962.10059411
 30
0.0
 11
2399.34529591
 21
-960.87678334
 31
0.0
  0
LINE
  5
343
100
AcDbEntity
  8
Sc.1_5
 62
     9
  6
CONTINUOUS
370
    -2
100
AcDbLine
 10
2399.679061
 20
-1000.68377398
 30
0.0
 11
2399.34529333
 21
-1001.90758938
 31
0.0
  0
LINE
  5
344
100
AcDbEntity
  8
Sc.1_5
 62
     9
  6
CONTINUOUS
370
    -2
100
AcDbLine
 10
2399.67905951
 20
-991.3504555
 30
0.0
 11
2399.34529184
 21
-992.5742709
 31
0.0
  0
LINE
  5
345
100
AcDbEntity
  8
Sc.1_5
 62
     9
  6
CONTINUOUS
370
    -2
100
AcDbLine
 10
2399.67905802
 20
-982.01713702
 30
0.0
 11
2399.34529034
 21
-983.24095242
 31
0.0
  0
LINE
  5
346
100
AcDbEntity
  8
Sc.1_5
 62
     9
  6
CONTINUOUS
370
    -2
100
AcDbLine
 10
2399.67905653
 20
-972.68381854
 30
0.0
 11
2399.34528885
 21
-973.90763394
 31
0.0
  0
LINE
  5
347
100
AcDbEntity
  8
Sc.1_5
 62
     9
  6
CONTINUOUS
370
    -2
100
AcDbLine
 10
2399.67905503
 20
-963.35050006
 30
0.0
 11
2399.34528736
 21
-964.57431546
 31
0.0
  0
LINE
  5
348
100
AcDbEntity
  8
Sc.1_5
 62
     9
  6
CONTINUOUS
370
    -2
100
AcDbLine
 10
2399.67905354
 20
-954.01718158
 30
0.0
 11
2399.34528586
 21
-955.24099698
 31
0.0
  0
LINE
  5
349
100
AcDbEntity
  8
Sc.1_5
 62
     9
  6
CONTINUOUS
370
    -2
100
AcDbLine
 10
2372.01287034
 20
-1006.5742483
 30
0.0
 11
2371.67915737
 21
-1005.35063415
 31
0.0
  0
LINE
  5
34A
100
AcDbEntity
  8
Sc.1_5
 62
     9
  6
CONTINUOUS
370
    -2
100
AcDbLine
 10
2372.01287059
 20
-997.24092982
 30
0.0
 11
2371.67914747
 21
-996.01727845
 31
0.0
  0
LINE
  5
34B
100
AcDbEntity
  8
Sc.1_5
 62
     9
  6
CONTINUOUS
370
    -2
100
AcDbLine
 10
2372.01287084
 20
-987.90761134
 30
0.0
 11
2371.67913757
 21
-986.68392275
 31
0.0
  0
LINE
  5
34C
100
AcDbEntity
  8
Sc.1_5
 62
     9
  6
CONTINUOUS
370
    -2
100
AcDbLine
 10
2372.01287109
 20
-978.57429286
 30
0.0
 11
2371.67912767
 21
-977.35056705
 31
0.0
  0
LINE
  5
34D
100
AcDbEntity
  8
Sc.1_5
 62
     9
  6
CONTINUOUS
370
    -2
100
AcDbLine
 10
2372.01287134
 20
-969.24097438
 30
0.0
 11
2371.67911777
 21
-968.01721135
 31
0.0
  0
LINE
  5
34E
100
AcDbEntity
  8
Sc.1_5
 62
     9
  6
CONTINUOUS
370
    -2
100
AcDbLine
 10
2372.01287159
 20
-959.9076559
 30
0.0
 11
2371.67910787
 21
-958.68385565
 31
0.0
  0
LINE
  5
34F
100
AcDbEntity
  8
Sc.1_5
 62
     9
  6
CONTINUOUS
370
    -2
100
AcDbLine
 10
2371.67910654
 20
-957.43392497
 30
0.0
 11
2372.01287009
 21
-956.21012533
 31
0.0
  0
LINE
  5
350
100
AcDbEntity
  8
Sc.1_5
 62
     9
  6
CONTINUOUS
370
    -2
100
AcDbLine
 10
2371.67911644
 20
-966.76720807
 30
0.0
 11
2372.01287034
 21
-965.54344381
 31
0.0
  0
LINE
  5
351
100
AcDbEntity
  8
Sc.1_5
 62
     9
  6
CONTINUOUS
370
    -2
100
AcDbLine
 10
2371.67912634
 20
-976.10049117
 30
0.0
 11
2372.01287059
 21
-974.8767623
 31
0.0
  0
LINE
  5
352
100
AcDbEntity
  8
Sc.1_5
 62
     9
  6
CONTINUOUS
370
    -2
100
AcDbLine
 10
2371.67913624
 20
-985.43377426
 30
0.0
 11
2372.01287084
 21
-984.21008078
 31
0.0
  0
LINE
  5
353
100
AcDbEntity
  8
Sc.1_5
 62
     9
  6
CONTINUOUS
370
    -2
100
AcDbLine
 10
2371.67914614
 20
-994.76705736
 30
0.0
 11
2372.01287109
 21
-993.54339926
 31
0.0
  0
LINE
  5
354
100
AcDbEntity
  8
Sc.1_5
 62
     9
  6
CONTINUOUS
370
    -2
100
AcDbLine
 10
2371.67915604
 20
-1004.10034045
 30
0.0
 11
2372.01287134
 21
-1002.87671774
 31
0.0
  0
LINE
  5
355
100
AcDbEntity
  8
Sc.1_5
 62
     9
  6
CONTINUOUS
370
    -2
100
AcDbLine
 10
2399.34529458
 20
-1007.54337721
 30
0.0
 11
2398.71829826
 21
-1006.49838335
 31
0.0
  0
LINE
  5
356
100
AcDbEntity
  8
Sc.1_5
 62
     9
  6
CONTINUOUS
370
    -2
100
AcDbLine
 10
2399.34529452
 20
-998.21005682
 30
0.0
 11
2398.7182982
 21
-997.16506296
 31
0.0
  0
LINE
  5
357
100
AcDbEntity
  8
Sc.1_5
 62
     9
  6
CONTINUOUS
370
    -2
100
AcDbLine
 10
2399.34529446
 20
-988.87673644
 30
0.0
 11
2398.71829814
 21
-987.83174258
 31
0.0
  0
LINE
  5
358
100
AcDbEntity
  8
Sc.1_5
 62
     9
  6
CONTINUOUS
370
    -2
100
AcDbLine
 10
2399.3452944
 20
-979.54341605
 30
0.0
 11
2398.71829808
 21
-978.49842219
 31
0.0
  0
LINE
  5
359
100
AcDbEntity
  8
Sc.1_5
 62
     9
  6
CONTINUOUS
370
    -2
100
AcDbLine
 10
2399.34529433
 20
-970.21009566
 30
0.0
 11
2398.71829802
 21
-969.1651018
 31
0.0
  0
LINE
  5
35A
100
AcDbEntity
  8
Sc.1_5
 62
     9
  6
CONTINUOUS
370
    -2
100
AcDbLine
 10
2399.34529427
 20
-960.87677528
 30
0.0
 11
2398.71829795
 21
-959.83178142
 31
0.0
  0
LINE
  5
35B
100
AcDbEntity
  8
Sc.1_5
 62
     9
  6
CONTINUOUS
370
    -2
100
AcDbLine
 10
2399.34529527
 20
-1001.91449066
 30
0.0
 11
2398.71829888
 21
-1002.95948448
 31
0.0
  0
LINE
  5
35C
100
AcDbEntity
  8
Sc.1_5
 62
     9
  6
CONTINUOUS
370
    -2
100
AcDbLine
 10
2399.34529595
 20
-992.58117027
 30
0.0
 11
2398.71829956
 21
-993.62616409
 31
0.0
  0
LINE
  5
35D
100
AcDbEntity
  8
Sc.1_5
 62
     9
  6
CONTINUOUS
370
    -2
100
AcDbLine
 10
2399.34529663
 20
-983.24784988
 30
0.0
 11
2398.71830025
 21
-984.2928437
 31
0.0
  0
LINE
  5
35E
100
AcDbEntity
  8
Sc.1_5
 62
     9
  6
CONTINUOUS
370
    -2
100
AcDbLine
 10
2399.34529732
 20
-973.9145295
 30
0.0
 11
2398.71830093
 21
-974.95952332
 31
0.0
  0
LINE
  5
35F
100
AcDbEntity
  8
Sc.1_5
 62
     9
  6
CONTINUOUS
370
    -2
100
AcDbLine
 10
2399.345298
 20
-964.58120911
 30
0.0
 11
2398.71830161
 21
-965.62620293
 31
0.0
  0
LINE
  5
360
100
AcDbEntity
  8
Sc.1_5
 62
     9
  6
CONTINUOUS
370
    -2
100
AcDbLine
 10
2399.34529868
 20
-955.24788872
 30
0.0
 11
2398.7183023
 21
-956.29288254
 31
0.0
  0
LINE
  5
361
100
AcDbEntity
  8
Sc.1_5
 62
     9
  6
CONTINUOUS
370
    -2
100
AcDbLine
 10
2372.63986908
 20
-1007.61924032
 30
0.0
 11
2372.01287276
 21
-1006.57424646
 31
0.0
  0
LINE
  5
362
100
AcDbEntity
  8
Sc.1_5
 62
     9
  6
CONTINUOUS
370
    -2
100
AcDbLine
 10
2372.63986902
 20
-998.28591993
 30
0.0
 11
2372.0128727
 21
-997.24092607
 31
0.0
  0
LINE
  5
363
100
AcDbEntity
  8
Sc.1_5
 62
     9
  6
CONTINUOUS
370
    -2
100
AcDbLine
 10
2372.63986896
 20
-988.95259954
 30
0.0
 11
2372.01287264
 21
-987.90760568
 31
0.0
  0
LINE
  5
364
100
AcDbEntity
  8
Sc.1_5
 62
     9
  6
CONTINUOUS
370
    -2
100
AcDbLine
 10
2372.6398689
 20
-979.61927916
 30
0.0
 11
2372.01287258
 21
-978.5742853
 31
0.0
  0
LINE
  5
365
100
AcDbEntity
  8
Sc.1_5
 62
     9
  6
CONTINUOUS
370
    -2
100
AcDbLine
 10
2372.63986883
 20
-970.28595877
 30
0.0
 11
2372.01287252
 21
-969.24096491
 31
0.0
  0
LINE
  5
366
100
AcDbEntity
  8
Sc.1_5
 62
     9
  6
CONTINUOUS
370
    -2
100
AcDbLine
 10
2372.63986877
 20
-960.95263838
 30
0.0
 11
2372.01287245
 21
-959.90764452
 31
0.0
  0
LINE
  5
367
100
AcDbEntity
  8
Sc.1_5
 62
     9
  6
CONTINUOUS
370
    -2
100
AcDbLine
 10
2372.01287065
 20
-956.21011456
 30
0.0
 11
2372.63986696
 21
-955.16512069
 31
0.0
  0
LINE
  5
368
100
AcDbEntity
  8
Sc.1_5
 62
     9
  6
CONTINUOUS
370
    -2
100
AcDbLine
 10
2372.01287058
 20
-965.54343494
 30
0.0
 11
2372.6398669
 21
-964.49844108
 31
0.0
  0
LINE
  5
369
100
AcDbEntity
  8
Sc.1_5
 62
     9
  6
CONTINUOUS
370
    -2
100
AcDbLine
 10
2372.01287052
 20
-974.87675533
 30
0.0
 11
2372.63986684
 21
-973.83176147
 31
0.0
  0
LINE
  5
36A
100
AcDbEntity
  8
Sc.1_5
 62
     9
  6
CONTINUOUS
370
    -2
100
AcDbLine
 10
2372.01287046
 20
-984.21007572
 30
0.0
 11
2372.63986678
 21
-983.16508185
 31
0.0
  0
LINE
  5
36B
100
AcDbEntity
  8
Sc.1_5
 62
     9
  6
CONTINUOUS
370
    -2
100
AcDbLine
 10
2372.0128704
 20
-993.5433961
 30
0.0
 11
2372.63986672
 21
-992.49840224
 31
0.0
  0
LINE
  5
36C
100
AcDbEntity
  8
Sc.1_5
 62
     9
  6
CONTINUOUS
370
    -2
100
AcDbLine
 10
2372.01287034
 20
-1002.87671649
 30
0.0
 11
2372.63986665
 21
-1001.83172263
 31
0.0
  0
LINE
  5
36D
100
AcDbEntity
  8
Sc.1_5
 62
     9
  6
CONTINUOUS
370
    -2
100
AcDbLine
 10
2398.71829709
 20
-1006.4983852
 30
0.0
 11
2397.98548015
 21
-1005.76556826
 31
0.0
  0
LINE
  5
36E
100
AcDbEntity
  8
Sc.1_5
 62
     9
  6
CONTINUOUS
370
    -2
100
AcDbLine
 10
2398.71829709
 20
-997.16506396
 30
0.0
 11
2397.98548015
 21
-996.43224702
 31
0.0
  0
LINE
  5
36F
100
AcDbEntity
  8
Sc.1_5
 62
     9
  6
CONTINUOUS
370
    -2
100
AcDbLine
 10
2398.71829709
 20
-987.83174273
 30
0.0
 11
2397.98548015
 21
-987.09892579
 31
0.0
  0
LINE
  5
370
100
AcDbEntity
  8
Sc.1_5
 62
     9
  6
CONTINUOUS
370
    -2
100
AcDbLine
 10
2398.71829709
 20
-978.49842149
 30
0.0
 11
2397.98548015
 21
-977.76560455
 31
0.0
  0
LINE
  5
371
100
AcDbEntity
  8
Sc.1_5
 62
     9
  6
CONTINUOUS
370
    -2
100
AcDbLine
 10
2398.71829709
 20
-969.16510026
 30
0.0
 11
2397.98548015
 21
-968.43228332
 31
0.0
  0
LINE
  5
372
100
AcDbEntity
  8
Sc.1_5
 62
     9
  6
CONTINUOUS
370
    -2
100
AcDbLine
 10
2398.71829709
 20
-959.83177902
 30
0.0
 11
2397.98548015
 21
-959.09896208
 31
0.0
  0
LINE
  5
373
100
AcDbEntity
  8
Sc.1_5
 62
     9
  6
CONTINUOUS
370
    -2
100
AcDbLine
 10
2398.71829709
 20
-1002.95257713
 30
0.0
 11
2397.98548015
 21
-1003.68539407
 31
0.0
  0
LINE
  5
374
100
AcDbEntity
  8
Sc.1_5
 62
     9
  6
CONTINUOUS
370
    -2
100
AcDbLine
 10
2398.71829709
 20
-993.6192559
 30
0.0
 11
2397.98548015
 21
-994.35207284
 31
0.0
  0
LINE
  5
375
100
AcDbEntity
  8
Sc.1_5
 62
     9
  6
CONTINUOUS
370
    -2
100
AcDbLine
 10
2398.71829709
 20
-984.28593466
 30
0.0
 11
2397.98548015
 21
-985.0187516
 31
0.0
  0
LINE
  5
376
100
AcDbEntity
  8
Sc.1_5
 62
     9
  6
CONTINUOUS
370
    -2
100
AcDbLine
 10
2398.71829709
 20
-974.95261343
 30
0.0
 11
2397.98548015
 21
-975.68543037
 31
0.0
  0
LINE
  5
377
100
AcDbEntity
  8
Sc.1_5
 62
     9
  6
CONTINUOUS
370
    -2
100
AcDbLine
 10
2398.71829709
 20
-965.61929219
 30
0.0
 11
2397.98548015
 21
-966.35210913
 31
0.0
  0
LINE
  5
378
100
AcDbEntity
  8
Sc.1_5
 62
     9
  6
CONTINUOUS
370
    -2
100
AcDbLine
 10
2398.71829709
 20
-956.28597096
 30
0.0
 11
2397.98548015
 21
-957.0187879
 31
0.0
  0
LINE
  5
379
100
AcDbEntity
  8
Sc.1_5
 62
     9
  6
CONTINUOUS
370
    -2
100
AcDbLine
 10
2373.37268318
 20
-1008.35205533
 30
0.0
 11
2372.63986624
 21
-1007.61923839
 31
0.0
  0
LINE
  5
37A
100
AcDbEntity
  8
Sc.1_5
 62
     9
  6
CONTINUOUS
370
    -2
100
AcDbLine
 10
2373.37268318
 20
-999.0187341
 30
0.0
 11
2372.63986624
 21
-998.28591716
 31
0.0
  0
LINE
  5
37B
100
AcDbEntity
  8
Sc.1_5
 62
     9
  6
CONTINUOUS
370
    -2
100
AcDbLine
 10
2373.37268318
 20
-989.68541286
 30
0.0
 11
2372.63986624
 21
-988.95259592
 31
0.0
  0
LINE
  5
37C
100
AcDbEntity
  8
Sc.1_5
 62
     9
  6
CONTINUOUS
370
    -2
100
AcDbLine
 10
2373.37268318
 20
-980.35209163
 30
0.0
 11
2372.63986624
 21
-979.61927469
 31
0.0
  0
LINE
  5
37D
100
AcDbEntity
  8
Sc.1_5
 62
     9
  6
CONTINUOUS
370
    -2
100
AcDbLine
 10
2373.37268318
 20
-971.01877039
 30
0.0
 11
2372.63986624
 21
-970.28595345
 31
0.0
  0
LINE
  5
37E
100
AcDbEntity
  8
Sc.1_5
 62
     9
  6
CONTINUOUS
370
    -2
100
AcDbLine
 10
2373.37268318
 20
-961.68544916
 30
0.0
 11
2372.63986624
 21
-960.95263222
 31
0.0
  0
LINE
  5
37F
100
AcDbEntity
  8
Sc.1_5
 62
     9
  6
CONTINUOUS
370
    -2
100
AcDbLine
 10
2372.63986908
 20
-955.16511797
 30
0.0
 11
2373.37268602
 21
-954.43230103
 31
0.0
  0
LINE
  5
380
100
AcDbEntity
  8
Sc.1_5
 62
     9
  6
CONTINUOUS
370
    -2
100
AcDbLine
 10
2372.63986908
 20
-964.4984392
 30
0.0
 11
2373.37268602
 21
-963.76562226
 31
0.0
  0
LINE
  5
381
100
AcDbEntity
  8
Sc.1_5
 62
     9
  6
CONTINUOUS
370
    -2
100
AcDbLine
 10
2372.63986908
 20
-973.83176044
 30
0.0
 11
2373.37268602
 21
-973.0989435
 31
0.0
  0
LINE
  5
382
100
AcDbEntity
  8
Sc.1_5
 62
     9
  6
CONTINUOUS
370
    -2
100
AcDbLine
 10
2372.63986908
 20
-983.16508167
 30
0.0
 11
2373.37268602
 21
-982.43226473
 31
0.0
  0
LINE
  5
383
100
AcDbEntity
  8
Sc.1_5
 62
     9
  6
CONTINUOUS
370
    -2
100
AcDbLine
 10
2372.63986908
 20
-992.49840291
 30
0.0
 11
2373.37268602
 21
-991.76558597
 31
0.0
  0
LINE
  5
384
100
AcDbEntity
  8
Sc.1_5
 62
     9
  6
CONTINUOUS
370
    -2
100
AcDbLine
 10
2372.63986908
 20
-1001.83172414
 30
0.0
 11
2373.37268602
 21
-1001.0989072
 31
0.0
  0
LINE
  5
385
100
AcDbEntity
  8
Sc.1_5
 62
     9
  6
CONTINUOUS
370
    -2
100
AcDbLine
 10
2397.98548216
 20
-1005.76556743
 30
0.0
 11
2397.0810105
 21
-1005.16258633
 31
0.0
  0
LINE
  5
386
100
AcDbEntity
  8
Sc.1_5
 62
     9
  6
CONTINUOUS
370
    -2
100
AcDbLine
 10
2397.9854811
 20
-996.43224729
 30
0.0
 11
2397.08100944
 21
-995.82926619
 31
0.0
  0
LINE
  5
387
100
AcDbEntity
  8
Sc.1_5
 62
     9
  6
CONTINUOUS
370
    -2
100
AcDbLine
 10
2397.98548004
 20
-987.09892716
 30
0.0
 11
2397.08100839
 21
-986.49594606
 31
0.0
  0
LINE
  5
388
100
AcDbEntity
  8
Sc.1_5
 62
     9
  6
CONTINUOUS
370
    -2
100
AcDbLine
 10
2397.98547899
 20
-977.76560702
 30
0.0
 11
2397.08100733
 21
-977.16262592
 31
0.0
  0
LINE
  5
389
100
AcDbEntity
  8
Sc.1_5
 62
     9
  6
CONTINUOUS
370
    -2
100
AcDbLine
 10
2397.98547793
 20
-968.43228689
 30
0.0
 11
2397.08100627
 21
-967.82930579
 31
0.0
  0
LINE
  5
38A
100
AcDbEntity
  8
Sc.1_5
 62
     9
  6
CONTINUOUS
370
    -2
100
AcDbLine
 10
2397.98547687
 20
-959.09896675
 30
0.0
 11
2397.08100522
 21
-958.49598565
 31
0.0
  0
LINE
  5
38B
100
AcDbEntity
  8
Sc.1_5
 62
     9
  6
CONTINUOUS
370
    -2
100
AcDbLine
 10
2397.98548383
 20
-1003.685396
 30
0.0
 11
2397.08101214
 21
-1004.28837704
 31
0.0
  0
LINE
  5
38C
100
AcDbEntity
  8
Sc.1_5
 62
     9
  6
CONTINUOUS
370
    -2
100
AcDbLine
 10
2397.98548551
 20
-994.35207587
 30
0.0
 11
2397.08101382
 21
-994.95505691
 31
0.0
  0
LINE
  5
38D
100
AcDbEntity
  8
Sc.1_5
 62
     9
  6
CONTINUOUS
370
    -2
100
AcDbLine
 10
2397.98548719
 20
-985.01875573
 30
0.0
 11
2397.08101549
 21
-985.62173677
 31
0.0
  0
LINE
  5
38E
100
AcDbEntity
  8
Sc.1_5
 62
     9
  6
CONTINUOUS
370
    -2
100
AcDbLine
 10
2397.98548887
 20
-975.6854356
 30
0.0
 11
2397.08101717
 21
-976.28841664
 31
0.0
  0
LINE
  5
38F
100
AcDbEntity
  8
Sc.1_5
 62
     9
  6
CONTINUOUS
370
    -2
100
AcDbLine
 10
2397.98549055
 20
-966.35211546
 30
0.0
 11
2397.08101885
 21
-966.9550965
 31
0.0
  0
LINE
  5
390
100
AcDbEntity
  8
Sc.1_5
 62
     9
  6
CONTINUOUS
370
    -2
100
AcDbLine
 10
2397.98549222
 20
-957.01879533
 30
0.0
 11
2397.08102053
 21
-957.62177637
 31
0.0
  0
LINE
  5
391
100
AcDbEntity
  8
Sc.1_5
 62
     9
  6
CONTINUOUS
370
    -2
100
AcDbLine
 10
2374.27715649
 20
-1008.95503721
 30
0.0
 11
2373.37268484
 21
-1008.35205611
 31
0.0
  0
LINE
  5
392
100
AcDbEntity
  8
Sc.1_5
 62
     9
  6
CONTINUOUS
370
    -2
100
AcDbLine
 10
2374.27715544
 20
-999.62171707
 30
0.0
 11
2373.37268378
 21
-999.01873597
 31
0.0
  0
LINE
  5
393
100
AcDbEntity
  8
Sc.1_5
 62
     9
  6
CONTINUOUS
370
    -2
100
AcDbLine
 10
2374.27715438
 20
-990.28839694
 30
0.0
 11
2373.37268272
 21
-989.68541584
 31
0.0
  0
LINE
  5
394
100
AcDbEntity
  8
Sc.1_5
 62
     9
  6
CONTINUOUS
370
    -2
100
AcDbLine
 10
2374.27715332
 20
-980.9550768
 30
0.0
 11
2373.37268167
 21
-980.3520957
 31
0.0
  0
LINE
  5
395
100
AcDbEntity
  8
Sc.1_5
 62
     9
  6
CONTINUOUS
370
    -2
100
AcDbLine
 10
2374.27715227
 20
-971.62175667
 30
0.0
 11
2373.37268061
 21
-971.01877557
 31
0.0
  0
LINE
  5
396
100
AcDbEntity
  8
Sc.1_5
 62
     9
  6
CONTINUOUS
370
    -2
100
AcDbLine
 10
2374.27715121
 20
-962.28843653
 30
0.0
 11
2373.37267955
 21
-961.68545543
 31
0.0
  0
LINE
  5
397
100
AcDbEntity
  8
Sc.1_5
 62
     9
  6
CONTINUOUS
370
    -2
100
AcDbLine
 10
2373.37268846
 20
-954.43230603
 30
0.0
 11
2374.27716012
 21
-953.82932493
 31
0.0
  0
LINE
  5
398
100
AcDbEntity
  8
Sc.1_5
 62
     9
  6
CONTINUOUS
370
    -2
100
AcDbLine
 10
2373.3726874
 20
-963.76562617
 30
0.0
 11
2374.27715906
 21
-963.16264507
 31
0.0
  0
LINE
  5
399
100
AcDbEntity
  8
Sc.1_5
 62
     9
  6
CONTINUOUS
370
    -2
100
AcDbLine
 10
2373.37268635
 20
-973.0989463
 30
0.0
 11
2374.27715801
 21
-972.4959652
 31
0.0
  0
LINE
  5
39A
100
AcDbEntity
  8
Sc.1_5
 62
     9
  6
CONTINUOUS
370
    -2
100
AcDbLine
 10
2373.37268529
 20
-982.43226644
 30
0.0
 11
2374.27715695
 21
-981.82928534
 31
0.0
  0
LINE
  5
39B
100
AcDbEntity
  8
Sc.1_5
 62
     9
  6
CONTINUOUS
370
    -2
100
AcDbLine
 10
2373.37268423
 20
-991.76558657
 30
0.0
 11
2374.27715589
 21
-991.16260547
 31
0.0
  0
LINE
  5
39C
100
AcDbEntity
  8
Sc.1_5
 62
     9
  6
CONTINUOUS
370
    -2
100
AcDbLine
 10
2373.37268318
 20
-1001.09890671
 30
0.0
 11
2374.27715484
 21
-1000.49592561
 31
0.0
  0
LINE
  5
39D
100
AcDbEntity
  8
Sc.1_5
 62
     9
  6
CONTINUOUS
370
    -2
100
AcDbLine
 10
2397.08101068
 20
-1005.16258555
 30
0.0
 11
2395.76969702
 21
-1004.72548092
 31
0.0
  0
LINE
  5
39E
100
AcDbEntity
  8
Sc.1_5
 62
     9
  6
CONTINUOUS
370
    -2
100
AcDbLine
 10
2397.08101021
 20
-995.82926475
 30
0.0
 11
2395.76969655
 21
-995.39216013
 31
0.0
  0
LINE
  5
39F
100
AcDbEntity
  8
Sc.1_5
 62
     9
  6
CONTINUOUS
370
    -2
100
AcDbLine
 10
2397.08100974
 20
-986.49594396
 30
0.0
 11
2395.76969609
 21
-986.05883933
 31
0.0
  0
LINE
  5
3A0
100
AcDbEntity
  8
Sc.1_5
 62
     9
  6
CONTINUOUS
370
    -2
100
AcDbLine
 10
2397.08100927
 20
-977.16262316
 30
0.0
 11
2395.76969562
 21
-976.72551853
 31
0.0
  0
LINE
  5
3A1
100
AcDbEntity
  8
Sc.1_5
 62
     9
  6
CONTINUOUS
370
    -2
100
AcDbLine
 10
2397.08100881
 20
-967.82930236
 30
0.0
 11
2395.76969515
 21
-967.39219773
 31
0.0
  0
LINE
  5
3A2
100
AcDbEntity
  8
Sc.1_5
 62
     9
  6
CONTINUOUS
370
    -2
100
AcDbLine
 10
2397.08100834
 20
-958.49598156
 30
0.0
 11
2395.76969468
 21
-958.05887694
 31
0.0
  0
LINE
  5
3A3
100
AcDbEntity
  8
Sc.1_5
 62
     9
  6
CONTINUOUS
370
    -2
100
AcDbLine
 10
2397.08101115
 20
-1004.28837722
 30
0.0
 11
2395.76969749
 21
-1004.72548184
 31
0.0
  0
LINE
  5
3A4
100
AcDbEntity
  8
Sc.1_5
 62
     9
  6
CONTINUOUS
370
    -2
100
AcDbLine
 10
2397.08101161
 20
-994.95505642
 30
0.0
 11
2395.76969796
 21
-995.39216105
 31
0.0
  0
LINE
  5
3A5
100
AcDbEntity
  8
Sc.1_5
 62
     9
  6
CONTINUOUS
370
    -2
100
AcDbLine
 10
2397.08101208
 20
-985.62173562
 30
0.0
 11
2395.76969843
 21
-986.05884025
 31
0.0
  0
LINE
  5
3A6
100
AcDbEntity
  8
Sc.1_5
 62
     9
  6
CONTINUOUS
370
    -2
100
AcDbLine
 10
2397.08101255
 20
-976.28841482
 30
0.0
 11
2395.76969889
 21
-976.72551945
 31
0.0
  0
LINE
  5
3A7
100
AcDbEntity
  8
Sc.1_5
 62
     9
  6
CONTINUOUS
370
    -2
100
AcDbLine
 10
2397.08101302
 20
-966.95509403
 30
0.0
 11
2395.76969936
 21
-967.39219865
 31
0.0
  0
LINE
  5
3A8
100
AcDbEntity
  8
Sc.1_5
 62
     9
  6
CONTINUOUS
370
    -2
100
AcDbLine
 10
2397.08101348
 20
-957.62177323
 30
0.0
 11
2395.76969983
 21
-958.05887786
 31
0.0
  0
LINE
  5
3A9
100
AcDbEntity
  8
Sc.1_5
 62
     9
  6
CONTINUOUS
370
    -2
100
AcDbLine
 10
2375.58846897
 20
-1009.39214178
 30
0.0
 11
2374.27715531
 21
-1008.95503716
 31
0.0
  0
LINE
  5
3AA
100
AcDbEntity
  8
Sc.1_5
 62
     9
  6
CONTINUOUS
370
    -2
100
AcDbLine
 10
2375.5884685
 20
-1000.05882099
 30
0.0
 11
2374.27715484
 21
-999.62171636
 31
0.0
  0
LINE
  5
3AB
100
AcDbEntity
  8
Sc.1_5
 62
     9
  6
CONTINUOUS
370
    -2
100
AcDbLine
 10
2375.58846803
 20
-990.72550019
 30
0.0
 11
2374.27715437
 21
-990.28839556
 31
0.0
  0
LINE
  5
3AC
100
AcDbEntity
  8
Sc.1_5
 62
     9
  6
CONTINUOUS
370
    -2
100
AcDbLine
 10
2375.58846756
 20
-981.39217939
 30
0.0
 11
2374.27715391
 21
-980.95507476
 31
0.0
  0
LINE
  5
3AD
100
AcDbEntity
  8
Sc.1_5
 62
     9
  6
CONTINUOUS
370
    -2
100
AcDbLine
 10
2375.58846709
 20
-972.05885859
 30
0.0
 11
2374.27715344
 21
-971.62175397
 31
0.0
  0
LINE
  5
3AE
100
AcDbEntity
  8
Sc.1_5
 62
     9
  6
CONTINUOUS
370
    -2
100
AcDbLine
 10
2375.58846663
 20
-962.7255378
 30
0.0
 11
2374.27715297
 21
-962.28843317
 31
0.0
  0
LINE
  5
3AF
100
AcDbEntity
  8
Sc.1_5
 62
     9
  6
CONTINUOUS
370
    -2
100
AcDbLine
 10
2374.27715883
 20
-953.82932385
 30
0.0
 11
2375.11591855
 21
-953.54973723
 31
0.0
  0
LINE
  5
3B0
100
AcDbEntity
  8
Sc.1_5
 62
     9
  6
CONTINUOUS
370
    -2
100
AcDbLine
 10
2374.27715837
 20
-963.16264464
 30
0.0
 11
2375.58847202
 21
-962.72554002
 31
0.0
  0
LINE
  5
3B1
100
AcDbEntity
  8
Sc.1_5
 62
     9
  6
CONTINUOUS
370
    -2
100
AcDbLine
 10
2374.2771579
 20
-972.49596544
 30
0.0
 11
2375.58847155
 21
-972.05886081
 31
0.0
  0
LINE
  5
3B2
100
AcDbEntity
  8
Sc.1_5
 62
     9
  6
CONTINUOUS
370
    -2
100
AcDbLine
 10
2374.27715743
 20
-981.82928624
 30
0.0
 11
2375.58847109
 21
-981.39218161
 31
0.0
  0
LINE
  5
3B3
100
AcDbEntity
  8
Sc.1_5
 62
     9
  6
CONTINUOUS
370
    -2
100
AcDbLine
 10
2374.27715696
 20
-991.16260704
 30
0.0
 11
2375.58847062
 21
-990.72550241
 31
0.0
  0
LINE
  5
3B4
100
AcDbEntity
  8
Sc.1_5
 62
     9
  6
CONTINUOUS
370
    -2
100
AcDbLine
 10
2374.27715649
 20
-1000.49592783
 30
0.0
 11
2375.58847015
 21
-1000.05882321
 31
0.0
  0
LINE
  5
3B5
100
AcDbEntity
  8
Sc.1_5
 62
     9
  6
CONTINUOUS
370
    -2
100
AcDbLine
 10
2395.01239304
 20
-1004.72548069
 30
0.0
 11
2394.01134167
 21
-1004.61425271
 31
0.0
  0
LINE
  5
3B6
100
AcDbEntity
  8
Sc.1_5
 62
     9
  6
CONTINUOUS
370
    -2
100
AcDbLine
 10
2395.01238163
 20
-995.39216155
 30
0.0
 11
2394.01133027
 21
-995.28093357
 31
0.0
  0
LINE
  5
3B7
100
AcDbEntity
  8
Sc.1_5
 62
     9
  6
CONTINUOUS
370
    -2
100
AcDbLine
 10
2395.01237023
 20
-986.05884241
 30
0.0
 11
2394.01131886
 21
-985.94761443
 31
0.0
  0
LINE
  5
3B8
100
AcDbEntity
  8
Sc.1_5
 62
     9
  6
CONTINUOUS
370
    -2
100
AcDbLine
 10
2395.01235882
 20
-976.72552327
 30
0.0
 11
2394.01130745
 21
-976.61429529
 31
0.0
  0
LINE
  5
3B9
100
AcDbEntity
  8
Sc.1_5
 62
     9
  6
CONTINUOUS
370
    -2
100
AcDbLine
 10
2395.01234742
 20
-967.39220413
 30
0.0
 11
2394.01129605
 21
-967.28097615
 31
0.0
  0
LINE
  5
3BA
100
AcDbEntity
  8
Sc.1_5
 62
     9
  6
CONTINUOUS
370
    -2
100
AcDbLine
 10
2395.01233601
 20
-958.05888499
 30
0.0
 11
2394.01128464
 21
-957.94765701
 31
0.0
  0
LINE
  5
3BB
100
AcDbEntity
  8
Sc.1_5
 62
     9
  6
CONTINUOUS
370
    -2
100
AcDbLine
 10
2395.01240445
 20
-1004.72548373
 30
0.0
 11
2394.01135308
 21
-1004.83671171
 31
0.0
  0
LINE
  5
3BC
100
AcDbEntity
  8
Sc.1_5
 62
     9
  6
CONTINUOUS
370
    -2
100
AcDbLine
 10
2395.01241585
 20
-995.39216459
 30
0.0
 11
2394.01136448
 21
-995.50339257
 31
0.0
  0
LINE
  5
3BD
100
AcDbEntity
  8
Sc.1_5
 62
     9
  6
CONTINUOUS
370
    -2
100
AcDbLine
 10
2395.01242726
 20
-986.05884545
 30
0.0
 11
2394.01137589
 21
-986.17007343
 31
0.0
  0
LINE
  5
3BE
100
AcDbEntity
  8
Sc.1_5
 62
     9
  6
CONTINUOUS
370
    -2
100
AcDbLine
 10
2395.01243866
 20
-976.72552631
 30
0.0
 11
2394.0113873
 21
-976.83675429
 31
0.0
  0
LINE
  5
3BF
100
AcDbEntity
  8
Sc.1_5
 62
     9
  6
CONTINUOUS
370
    -2
100
AcDbLine
 10
2395.01245007
 20
-967.39220717
 30
0.0
 11
2394.0113987
 21
-967.50343515
 31
0.0
  0
LINE
  5
3C0
100
AcDbEntity
  8
Sc.1_5
 62
     9
  6
CONTINUOUS
370
    -2
100
AcDbLine
 10
2395.01246148
 20
-958.05888803
 30
0.0
 11
2394.01141011
 21
-958.17011601
 31
0.0
  0
LINE
  5
3C1
100
AcDbEntity
  8
Sc.1_5
 62
     9
  6
CONTINUOUS
370
    -2
100
AcDbLine
 10
2376.34569477
 20
-962.72554608
 30
0.0
 11
2377.34674617
 21
-962.8367738
 31
0.0
  0
LINE
  5
3C2
100
AcDbEntity
  8
Sc.1_5
 62
     9
  6
CONTINUOUS
370
    -2
100
AcDbLine
 10
2376.34570866
 20
-972.05886522
 30
0.0
 11
2377.34676006
 21
-972.17009294
 31
0.0
  0
LINE
  5
3C3
100
AcDbEntity
  8
Sc.1_5
 62
     9
  6
CONTINUOUS
370
    -2
100
AcDbLine
 10
2376.34572255
 20
-981.39218436
 30
0.0
 11
2377.34677395
 21
-981.50341208
 31
0.0
  0
LINE
  5
3C4
100
AcDbEntity
  8
Sc.1_5
 62
     9
  6
CONTINUOUS
370
    -2
100
AcDbLine
 10
2376.34573644
 20
-990.7255035
 30
0.0
 11
2377.34678784
 21
-990.83673122
 31
0.0
  0
LINE
  5
3C5
100
AcDbEntity
  8
Sc.1_5
 62
     9
  6
CONTINUOUS
370
    -2
100
AcDbLine
 10
2376.34575034
 20
-1000.05882264
 30
0.0
 11
2377.34680173
 21
-1000.17005036
 31
0.0
  0
LINE
  5
3C6
100
AcDbEntity
  8
Sc.1_5
 62
     9
  6
CONTINUOUS
370
    -2
100
AcDbLine
 10
2376.34582126
 20
-962.72554608
 30
0.0
 11
2377.34687262
 21
-962.6143181
 31
0.0
  0
LINE
  5
3C7
100
AcDbEntity
  8
Sc.1_5
 62
     9
  6
CONTINUOUS
370
    -2
100
AcDbLine
 10
2376.34580985
 20
-972.05886522
 30
0.0
 11
2377.34686122
 21
-971.94763724
 31
0.0
  0
LINE
  5
3C8
100
AcDbEntity
  8
Sc.1_5
 62
     9
  6
CONTINUOUS
370
    -2
100
AcDbLine
 10
2376.34579845
 20
-981.39218436
 30
0.0
 11
2377.34684981
 21
-981.28095638
 31
0.0
  0
LINE
  5
3C9
100
AcDbEntity
  8
Sc.1_5
 62
     9
  6
CONTINUOUS
370
    -2
100
AcDbLine
 10
2376.34578704
 20
-990.7255035
 30
0.0
 11
2377.34683841
 21
-990.61427552
 31
0.0
  0
LINE
  5
3CA
100
AcDbEntity
  8
Sc.1_5
 62
     9
  6
CONTINUOUS
370
    -2
100
AcDbLine
 10
2376.34577563
 20
-1000.05882264
 30
0.0
 11
2377.346827
 21
-999.94759466
 31
0.0
  0
LINE
  5
3CB
100
AcDbEntity
  8
Sc.1_5
 62
     9
  6
CONTINUOUS
370
    -2
100
AcDbLine
 10
2376.34576423
 20
-1009.39214178
 30
0.0
 11
2377.3468156
 21
-1009.2809138
 31
0.0
  0
ENDBLK
  5
3CC
100
AcDbEntity
100
AcDbBlockEnd
  0
ENDSEC
  0
SECTION
  2
ENTITIES
  0
LINE
  5
3CD
100
AcDbEntity
  8
Sc.1_5
 62
     7
  6
CONTINUOUS
100
AcDbLine
 10
2383.40773191
 20
-1014.245031
 30
0.0
 11
2383.55484313
 21
-1014.245031
 31
0.0
  0
LINE
  5
3CE
100
AcDbEntity
  8
Sc.1_5
 62
     7
  6
CONTINUOUS
100
AcDbLine
 10
2360.32916219
 20
-934.66663176
 30
0.0
 11
2364.12916219
 21
-933.64842483
 31
0.0
  0
LINE
  5
3CF
100
AcDbEntity
  8
Sc.1_5
 62
     7
  6
CONTINUOUS
100
AcDbLine
 10
2364.12916219
 20
-933.64842483
 30
0.0
 11
2364.12916219
 21
-819.39214222
 31
0.0
  0
LINE
  5
3D0
100
AcDbEntity
  8
Sc.1_5
 62
     7
  6
CONTINUOUS
100
AcDbLine
 10
2360.32916219
 20
-819.39214222
 30
0.0
 11
2360.32916219
 21
-934.66663176
 31
0.0
  0
LINE
  5
3D1
100
AcDbEntity
  8
Sc.1_5
 62
     7
  6
CONTINUOUS
100
AcDbLine
 10
2364.12916219
 20
-936.10264068
 30
0.0
 11
2360.32916219
 21
-937.12084761
 31
0.0
  0
LINE
  5
3D2
100
AcDbEntity
  8
Sc.1_5
 62
     7
  6
CONTINUOUS
100
AcDbLine
 10
2360.32916219
 20
-937.12084761
 30
0.0
 11
2360.32916219
 21
-1009.39214222
 31
0.0
  0
LINE
  5
3D3
100
AcDbEntity
  8
Sc.1_5
 62
     7
  6
CONTINUOUS
100
AcDbLine
 10
2364.12916219
 20
-1009.39214222
 30
0.0
 11
2364.12916219
 21
-936.10264068
 31
0.0
  0
LINE
  5
3D4
100
AcDbEntity
  8
Sc.1_5
 62
     7
  6
CONTINUOUS
100
AcDbLine
 10
2362.22916219
 20
-819.39214222
 30
0.0
 11
2362.22916219
 21
-934.15752829
 31
0.0
  0
LINE
  5
3D5
100
AcDbEntity
  8
Sc.1_5
 62
     7
  6
CONTINUOUS
100
AcDbLine
 10
2369.37916219
 20
-819.39214222
 30
0.0
 11
2369.37916219
 21
-1009.39214222
 31
0.0
  0
LINE
  5
3D6
100
AcDbEntity
  8
Sc.1_5
 62
     7
  6
CONTINUOUS
100
AcDbLine
 10
2371.17916219
 20
-1009.39214222
 30
0.0
 11
2371.17916219
 21
-819.39214222
 31
0.0
  0
LINE
  5
3D7
100
AcDbEntity
  8
Sc.1_5
 62
     7
  6
CONTINUOUS
100
AcDbLine
 10
2402.97908924
 20
-886.34925477
 30
0.0
 11
2402.97908924
 21
-900.44987739
 31
0.0
  0
LINE
  5
3D8
100
AcDbEntity
  8
Sc.1_5
 62
     7
  6
CONTINUOUS
100
AcDbLine
 10
2402.97908924
 20
-900.44987739
 30
0.0
 11
2405.97908924
 21
-900.44987739
 31
0.0
  0
LINE
  5
3D9
100
AcDbEntity
  8
Sc.1_5
 62
     7
  6
CONTINUOUS
100
AcDbLine
 10
2405.97908924
 20
-900.44987739
 30
0.0
 11
2405.97908924
 21
-888.44987739
 31
0.0
  0
LINE
  5
3DA
100
AcDbEntity
  8
Sc.1_5
 62
     7
  6
CONTINUOUS
100
AcDbLine
 10
2405.97908924
 20
-888.44987739
 30
0.0
 11
2402.97908924
 21
-886.34925477
 31
0.0
  0
LINE
  5
3DB
100
AcDbEntity
  8
Sc.1_5
 62
     7
  6
CONTINUOUS
100
AcDbLine
 10
2362.22916219
 20
-936.61174415
 30
0.0
 11
2362.22916219
 21
-1009.39214222
 31
0.0
  0
LINE
  5
3DC
100
AcDbEntity
  8
Sc.1_5
 62
     7
  6
CONTINUOUS
100
AcDbLine
 10
2359.82916219
 20
-936.87115872
 30
0.0
 11
2369.05416218
 21
-934.39932742
 31
0.0
  0
LINE
  5
3DD
100
AcDbEntity
  8
Sc.1_5
 62
     7
  6
CONTINUOUS
100
AcDbLine
 10
2369.05416218
 20
-934.39932742
 30
0.0
 11
2369.05416218
 21
-924.31224393
 31
0.0
  0
LINE
  5
3DE
100
AcDbEntity
  8
Sc.1_5
 62
     7
  6
CONTINUOUS
100
AcDbLine
 10
2359.82916219
 20
-936.87115872
 30
0.0
 11
2359.82916219
 21
-942.12084761
 31
0.0
  0
LINE
  5
3DF
100
AcDbEntity
  8
Sc.1_5
 62
     7
  6
CONTINUOUS
100
AcDbLine
 10
2359.82916219
 20
-942.12084761
 30
0.0
 11
2359.43249141
 21
-942.80790155
 31
0.0
  0
LINE
  5
3E0
100
AcDbEntity
  8
Sc.1_5
 62
     7
  6
CONTINUOUS
100
AcDbLine
 10
2359.43249141
 20
-942.80790155
 30
0.0
 11
2359.82916219
 21
-943.20457233
 31
0.0
  0
LINE
  5
3E1
100
AcDbEntity
  8
Sc.1_5
 62
     7
  6
DASHED
370
    25
100
AcDbLine
 10
2380.17910284
 20
-904.94987739
 30
0.0
 11
2400.17910284
 21
-904.94987739
 31
0.0
  0
LINE
  5
3E2
100
AcDbEntity
  8
Sc.1_5
 62
     7
  6
DASHED
370
    25
100
AcDbLine
 10
2400.17910284
 20
-904.94987739
 30
0.0
 11
2400.17910284
 21
-819.39214222
 31
0.0
  0
LINE
  5
3E3
100
AcDbEntity
  8
Sc.1_5
 62
     7
  6
DASHED
370
    25
100
AcDbLine
 10
2380.17910284
 20
-934.54973738
 30
0.0
 11
2380.17910284
 21
-904.94987739
 31
0.0
  0
LINE
  5
3E4
100
AcDbEntity
  8
Sc.1_5
 62
     7
  6
DASHED
370
    25
100
AcDbLine
 10
2380.17910284
 20
-934.54973738
 30
0.0
 11
2400.17910284
 21
-934.54973738
 31
0.0
  0
LINE
  5
3E5
100
AcDbEntity
  8
Sc.1_5
 62
     7
  6
DASHED
370
    25
100
AcDbLine
 10
2400.17910284
 20
-934.54973738
 30
0.0
 11
2400.17910284
 21
-1009.39214222
 31
0.0
  0
LINE
  5
3E6
100
AcDbEntity
  8
Sc.1_5
 62
     7
  6
CONTINUOUS
100
AcDbLine
 10
2476.67875505
 20
-917.24982564
 30
0.0
 11
2481.67875515
 21
-919.74982561
 31
0.0
  0
LINE
  5
3E7
100
AcDbEntity
  8
Sc.1_5
 62
     7
  6
CONTINUOUS
100
AcDbLine
 10
2481.67875515
 20
-919.74982561
 30
0.0
 11
2471.67875506
 21
-924.74982581
 31
0.0
  0
LINE
  5
3E8
100
AcDbEntity
  8
Sc.1_5
 62
     7
  6
CONTINUOUS
100
AcDbLine
 10
2471.67875506
 20
-924.74982581
 30
0.0
 11
2476.67875517
 21
-927.24982579
 31
0.0
  0
LINE
  5
3E9
100
AcDbEntity
  8
Sc.1_5
 62
     7
  6
CONTINUOUS
100
AcDbLine
 10
2476.67875517
 20
-927.24982579
 30
0.0
 11
2476.6787554
 21
-946.95165806
 31
0.0
  0
LINE
  5
3EA
100
AcDbEntity
  8
Sc.1_5
 62
     7
  6
CONTINUOUS
100
AcDbLine
 10
2476.67875482
 20
-897.95299932
 30
0.0
 11
2476.67875505
 21
-917.24982564
 31
0.0
  0
LINE
  5
3EB
100
AcDbEntity
  8
Sc.1_5
 62
     7
  6
CONTINUOUS
100
AcDbLine
 10
2385.98128759
 20
-1009.39214178
 30
0.0
 11
2383.48128799
 21
-1014.39214208
 31
0.0
  0
LINE
  5
3EC
100
AcDbEntity
  8
Sc.1_5
 62
     7
  6
CONTINUOUS
100
AcDbLine
 10
2383.48128799
 20
-1014.39214208
 30
0.0
 11
2378.48128704
 21
-1004.39214236
 31
0.0
  0
LINE
  5
3ED
100
AcDbEntity
  8
Sc.1_5
 62
     7
  6
CONTINUOUS
100
AcDbLine
 10
2378.48128704
 20
-1004.39214236
 30
0.0
 11
2375.98128744
 21
-1009.39214266
 31
0.0
  0
LINE
  5
3EE
100
AcDbEntity
  8
Sc.1_5
 62
     7
  6
CONTINUOUS
100
AcDbLine
 10
2375.98128744
 20
-1009.39214266
 30
0.0
 11
2357.25349252
 21
-1009.39214429
 31
0.0
  0
LINE
  5
3EF
100
AcDbEntity
  8
Sc.1_5
 62
     7
  6
CONTINUOUS
100
AcDbLine
 10
2405.31211734
 20
-1009.39214009
 30
0.0
 11
2385.98128759
 21
-1009.39214178
 31
0.0
  0
LWPOLYLINE
  5
3F0
102
{ACAD_REACTORS
330
3F1
102
}
100
AcDbEntity
  8
Sc.1_5
 62
     7
  6
CONTINUOUS
100
AcDbPolyline
 90
        4
 70
     1
 43
0.0
 10
2400.67908924
 20
-819.39214222
 10
2400.67908924
 20
-904.9498784
 10
2402.47908924
 20
-904.9498784
 10
2402.47908924
 20
-819.39214222
  0
HATCH
  5
3F1
100
AcDbEntity
  8
Sc.1_5
 62
     9
  6
CONTINUOUS
100
AcDbHatch
 10
0.0
 20
0.0
 30
0.0
210
0.0
220
0.0
230
1.0
  2
CDWK12A
 70
     0
 71
     1
 91
        1
 92
        7
 72
     0
 73
     1
 93
        4
 10
2400.67908924
 20
-819.39214222
 10
2400.67908924
 20
-904.9498784
 10
2402.47908924
 20
-904.9498784
 10
2402.47908924
 20
-819.39214222
 97
        1
330
3F0
 75
     0
 76
     2
 52
0.0
 41
1.0
 77
     0
 78
    15
 53
0.0
 43
0.0
 44
0.0
 45
2.70000005
 46
4.9000001
 79
     2
 49
0.0
 49
-3.70000005
 53
0.0
 43
0.0
 44
0.0
 45
4.4000001
 46
4.80000019
 79
     2
 49
0.0
 49
-5.4000001
 53
0.0
 43
0.0
 44
0.0
 45
1.39999998
 46
4.5999999
 79
     2
 49
0.0
 49
-2.4000001
 53
0.0
 43
0.0
 44
0.0
 45
2.20000005
 46
4.19999981
 79
     2
 49
0.0
 49
-3.20000005
 53
0.0
 43
0.0
 44
0.0
 45
3.79999995
 46
4.0
 79
     2
 49
0.0
 49
-4.80000019
 53
0.0
 43
0.0
 44
0.0
 45
1.20000005
 46
3.79999995
 79
     2
 49
0.0
 49
-2.20000005
 53
0.0
 43
0.0
 44
0.0
 45
2.9000001
 46
3.5
 79
     2
 49
0.0
 49
-3.9000001
 53
0.0
 43
0.0
 44
0.0
 45
4.5999999
 46
3.4000001
 79
     2
 49
0.0
 49
-5.5999999
 53
0.0
 43
0.0
 44
0.0
 45
1.89999998
 46
2.9000001
 79
     2
 49
0.0
 49
-2.9000001
 53
0.0
 43
0.0
 44
0.0
 45
3.20000005
 46
2.79999995
 79
     2
 49
0.0
 49
-4.19999981
 53
0.0
 43
0.0
 44
0.0
 45
3.9000001
 46
2.4000001
 79
     2
 49
0.0
 49
-4.9000001
 53
0.0
 43
0.0
 44
0.0
 45
2.4000001
 46
2.0999999
 79
     2
 49
0.0
 49
-3.4000001
 53
0.0
 43
0.0
 44
0.0
 45
4.9000001
 46
2.0999999
 79
     2
 49
0.0
 49
-5.9000001
 53
0.0
 43
0.0
 44
0.0
 45
3.5999999
 46
1.5
 79
     2
 49
0.0
 49
-4.5999999
 53
0.0
 43
0.0
 44
0.0
 45
1.60000002
 46
1.39999998
 79
     2
 49
0.0
 49
-2.5999999
 47
0.775229
 98
        1
 10
0.0
 20
0.0
  0
LWPOLYLINE
  5
3F2
100
AcDbEntity
  8
Sc.1_5
 62
     7
  6
CONTINUOUS
100
AcDbPolyline
 90
        4
 70
     1
 43
0.0
 10
2476.67875511
 20
-900.94987739
 10
2402.97908924
 20
-900.94987739
 10
2402.97908924
 20
-904.94987739
 10
2476.67875511
 20
-904.94987739
  0
LWPOLYLINE
  5
3F3
102
{ACAD_REACTORS
330
3F4
102
}
100
AcDbEntity
  8
Sc.1_5
 62
     7
  6
CONTINUOUS
100
AcDbPolyline
 90
        4
 70
     1
 43
0.0
 10
2476.67875511
 20
-905.44987739
 10
2380.67910284
 20
-905.44987739
 10
2380.67910284
 20
-934.04977404
 10
2476.67875511
 20
-934.04977404
  0
HATCH
  5
3F4
100
AcDbEntity
  8
Sc.1_5
 62
     9
  6
CONTINUOUS
100
AcDbHatch
 10
0.0
 20
0.0
 30
0.0
210
0.0
220
0.0
230
1.0
  2
Wood
 70
     0
 71
     1
 91
        1
 92
        7
 72
     0
 73
     1
 93
        4
 10
2476.67875511
 20
-905.44987739
 10
2380.67910284
 20
-905.44987739
 10
2380.67910284
 20
-934.04977404
 10
2476.67875511
 20
-934.04977404
 97
        1
330
3F3
 75
     0
 76
     2
 52
0.0
 41
1.0
 77
     0
 78
    66
 53
0.0
 43
0.0
 44
0.0
 45
0.0
 46
41.23109818
 79
     4
 49
8.24619961
 49
-12.36929989
 49
4.1230998
 49
-16.49239922
 53
0.0
 43
28.86170006
 44
1.03079998
 45
0.0
 46
41.23109818
 79
     2
 49
8.24619961
 49
-32.98479843
 53
0.0
 43
24.73859978
 44
3.09229994
 45
0.0
 46
41.23109818
 79
     2
 49
4.1230998
 49
-37.10800171
 53
0.0
 43
2.06159997
 44
4.1230998
 45
0.0
 46
41.23109818
 79
     4
 49
2.06159997
 49
-28.86170006
 49
2.06159997
 49
-8.24619961
 53
0.0
 43
16.49239922
 44
6.18470001
 45
0.0
 46
41.23109818
 79
     4
 49
8.24619961
 49
-12.36929989
 49
2.06159997
 49
-18.55400085
 53
0.0
 43
6.18470001
 44
7.21540022
 45
0.0
 46
41.23109818
 79
     2
 49
6.18470001
 49
-35.04639816
 53
0.0
 43
16.49239922
 44
8.24619961
 45
0.0
 46
41.23109818
 79
     2
 49
12.36929989
 49
-28.86170006
 53
0.0
 43
4.1230998
 44
9.27700043
 45
0.0
 46
41.23109818
 79
     2
 49
8.24619961
 49
-32.98479843
 53
0.0
 43
20.6154995
 44
10.30780029
 45
0.0
 46
41.23109818
 79
     2
 49
20.6154995
 49
-20.6154995
 53
0.0
 43
8.24619961
 44
12.36929989
 45
0.0
 46
41.23109818
 79
     4
 49
4.1230998
 49
-12.36929989
 49
8.24619961
 49
-16.49239922
 53
0.0
 43
37.10800171
 44
13.40009975
 45
0.0
 46
41.23109818
 79
     2
 49
8.24619961
 49
-32.98479843
 53
0.0
 43
28.86170006
 44
14.43089962
 45
0.0
 46
41.23109818
 79
     2
 49
4.1230998
 49
-37.10800171
 53
0.0
 43
20.6154995
 44
15.4616003
 45
0.0
 46
41.23109818
 79
     2
 49
4.1230998
 49
-37.10800171
 53
0.0
 43
0.0
 44
16.49239922
 45
0.0
 46
41.23109818
 79
     2
 49
8.24619961
 49
-32.98479843
 53
0.0
 43
20.6154995
 44
17.52319908
 45
0.0
 46
41.23109818
 79
     2
 49
8.24619961
 49
-32.98479843
 53
0.0
 43
20.6154995
 44
19.58480072
 45
0.0
 46
41.23109818
 79
     4
 49
8.24619961
 49
-8.24619961
 49
8.24619961
 49
-16.49239922
 53
0.0
 43
12.36929989
 44
21.64629936
 45
0.0
 46
41.23109818
 79
     4
 49
4.1230998
 49
-20.6154995
 49
8.24619961
 49
-8.24619961
 53
0.0
 43
20.6154995
 44
22.67709923
 45
0.0
 46
41.23109818
 79
     2
 49
12.36929989
 49
-28.86170006
 53
0.0
 43
20.6154995
 44
24.73859978
 45
0.0
 46
41.23109818
 79
     2
 49
8.24619961
 49
-32.98479843
 53
0.0
 43
4.1230998
 44
25.76939964
 45
0.0
 46
41.23109818
 79
     4
 49
12.36929989
 49
-16.49239922
 49
4.1230998
 49
-8.24619961
 53
0.0
 43
4.1230998
 44
27.83099937
 45
0.0
 46
41.23109818
 79
     2
 49
20.6154995
 49
-20.6154995
 53
0.0
 43
28.86170006
 44
28.86170006
 45
0.0
 46
41.23109818
 79
     2
 49
4.1230998
 49
-37.10800171
 53
0.0
 43
16.49239922
 44
29.89249992
 45
0.0
 46
41.23109818
 79
     2
 49
8.24619961
 49
-32.98479843
 53
0.0
 43
8.24619961
 44
30.92329979
 45
0.0
 46
41.23109818
 79
     4
 49
4.1230998
 49
-16.49239922
 49
4.1230998
 49
-16.49239922
 53
0.0
 43
4.1230998
 44
31.95409966
 45
0.0
 46
41.23109818
 79
     4
 49
4.1230998
 49
-12.36929989
 49
8.24619961
 49
-16.49239922
 53
0.0
 43
12.36929989
 44
32.98479843
 45
0.0
 46
41.23109818
 79
     4
 49
4.1230998
 49
-20.6154995
 49
4.1230998
 49
-12.36929989
 53
0.0
 43
20.6154995
 44
34.0155983
 45
0.0
 46
41.23109818
 79
     2
 49
12.36929989
 49
-28.86170006
 53
0.0
 43
4.1230998
 44
36.07720184
 45
0.0
 46
41.23109818
 79
     2
 49
8.24619961
 49
-32.98479843
 53
0.0
 43
24.73859978
 44
37.10800171
 45
0.0
 46
41.23109818
 79
     2
 49
4.1230998
 49
-37.10800171
 53
0.0
 43
32.98479843
 44
38.13869858
 45
0.0
 46
41.23109818
 79
     2
 49
4.1230998
 49
-37.10800171
 53
14.03619957
 43
28.86170006
 44
3.09229994
 45
-41.23105626
 46
3.1589938600973E-05
 79
     2
 49
4.24679995
 49
-165.75320435
 53
14.03619957
 43
32.98479843
 44
12.36929989
 45
-41.23105626
 46
3.1589938600973E-05
 79
     2
 49
4.24679995
 49
-165.75320435
 53
14.03619957
 43
28.86170006
 44
37.10800171
 45
-41.23105626
 46
3.1589938600973E-05
 79
     2
 49
4.24679995
 49
-165.75320435
 53
14.03619957
 43
16.49239922
 44
21.64629936
 45
-41.23105626
 46
3.1589938600973E-05
 79
     2
 49
4.24679995
 49
-165.75320435
 53
14.03619957
 43
24.73859978
 44
27.83099937
 45
-41.23105626
 46
3.1589938600973E-05
 79
     2
 49
4.24679995
 49
-165.75320435
 53
14.03619957
 43
28.86170006
 44
24.73859978
 45
-41.23105626
 46
3.1589938600973E-05
 79
     2
 49
4.24679995
 49
-165.75320435
 53
14.03619957
 43
8.24619961
 44
31.95409966
 45
-41.23105626
 46
3.1589938600973E-05
 79
     2
 49
4.24679995
 49
-165.75320435
 53
14.03619957
 43
24.73859978
 44
29.89249992
 45
-41.23105626
 46
3.1589938600973E-05
 79
     2
 49
4.24679995
 49
-165.75320435
 53
14.03619957
 43
32.98479843
 44
14.43089962
 45
-41.23105626
 46
3.1589938600973E-05
 79
     2
 49
8.49359989
 49
-161.50639343
 53
14.03619957
 43
28.86170006
 44
17.52319908
 45
-41.23105626
 46
3.1589938600973E-05
 79
     2
 49
8.49359989
 49
-161.50639343
 53
14.03619957
 43
28.86170006
 44
19.58480072
 45
-41.23105626
 46
3.1589938600973E-05
 79
     2
 49
8.49359989
 49
-161.50639343
 53
165.96380615
 43
16.49239922
 44
6.18470001
 45
-41.23105626
 46
-3.5707624025605E-05
 79
     4
 49
4.24679995
 49
-8.49359989
 49
4.24679995
 49
-153.01280212
 53
165.96380615
 43
8.24619961
 44
12.36929989
 45
-41.23105626
 46
-3.5707624025605E-05
 79
     2
 49
4.24679995
 49
-165.75320435
 53
165.96380615
 43
8.24619961
 44
30.92329979
 45
-41.23105626
 46
-3.5707624025605E-05
 79
     2
 49
8.49359989
 49
-161.50639343
 53
194.03619385
 43
28.86170006
 44
1.03079998
 45
41.23105626
 46
-3.5707624036263E-05
 79
     2
 49
4.24679995
 49
-165.75320435
 53
345.9637146
 43
37.10800171
 44
1.03079998
 45
41.23105626
 46
-3.0175342796923E-05
 79
     2
 49
4.24679995
 49
-165.75320435
 53
345.9637146
 43
24.73859978
 44
15.4616003
 45
41.23105626
 46
-3.0175342796923E-05
 79
     2
 49
4.24679995
 49
-165.75320435
 53
345.9637146
 43
32.98479843
 44
22.67709923
 45
41.23105626
 46
-3.0175342796923E-05
 79
     2
 49
4.24679995
 49
-165.75320435
 53
345.9637146
 43
16.49239922
 44
25.76939964
 45
41.23105626
 46
-3.0175342796923E-05
 79
     2
 49
4.24679995
 49
-165.75320435
 53
345.9637146
 43
12.36929989
 44
30.92329979
 45
41.23105626
 46
-3.0175342796923E-05
 79
     2
 49
4.24679995
 49
-165.75320435
 53
345.9637146
 43
16.49239922
 44
32.98479843
 45
41.23105626
 46
-3.0175342796923E-05
 79
     2
 49
4.24679995
 49
-165.75320435
 53
345.9637146
 43
16.49239922
 44
25.76939964
 45
41.23105626
 46
-3.0175342796923E-05
 79
     2
 49
4.24679995
 49
-165.75320435
 53
345.9637146
 43
28.86170006
 44
31.95409966
 45
41.23105626
 46
-3.0175342796923E-05
 79
     2
 49
16.98719978
 49
-153.01280212
 53
345.9637146
 43
4.1230998
 44
4.1230998
 45
41.23105626
 46
-3.0175342796923E-05
 79
     2
 49
16.98719978
 49
-153.01280212
 53
345.9637146
 43
8.24619961
 44
7.21540022
 45
41.23105626
 46
-3.0175342796923E-05
 79
     2
 49
16.98719978
 49
-153.01280212
 53
345.9637146
 43
12.36929989
 44
9.27700043
 45
41.23105626
 46
-3.0175342796923E-05
 79
     4
 49
4.24679995
 49
-8.49359989
 49
8.49359989
 49
-148.76600647
 53
345.9637146
 43
12.36929989
 44
12.36929989
 45
41.23105626
 46
-3.0175342796923E-05
 79
     4
 49
8.49359989
 49
-8.49359989
 49
8.49359989
 49
-144.51919556
 53
345.9637146
 43
8.24619961
 44
16.49239922
 45
41.23105626
 46
-3.0175342796923E-05
 79
     2
 49
16.98719978
 49
-153.01280212
 53
345.9637146
 43
4.1230998
 44
19.58480072
 45
41.23105626
 46
-3.0175342796923E-05
 79
     2
 49
16.98719978
 49
-153.01280212
 53
345.9637146
 43
4.1230998
 44
21.64629936
 45
41.23105626
 46
-3.0175342796923E-05
 79
     2
 49
16.98719978
 49
-153.01280212
 53
345.9637146
 43
32.98479843
 44
34.0155983
 45
41.23105626
 46
-3.0175342796923E-05
 79
     2
 49
4.24679995
 49
-165.75320435
 53
345.96380615
 43
37.10800171
 44
38.13869858
 45
41.23105626
 46
3.5707624002512E-05
 79
     2
 49
8.49359989
 49
-161.50639343
 53
345.96380615
 43
12.36929989
 44
36.07720184
 45
41.23105626
 46
3.5707624002512E-05
 79
     2
 49
8.49359989
 49
-161.50639343
 53
345.9637146
 43
8.24619961
 44
0.0
 45
41.23105626
 46
-3.0175342796923E-05
 79
     2
 49
16.98719978
 49
-153.01280212
 53
345.9637146
 43
32.98479843
 44
28.86170006
 45
41.23105626
 46
-3.0175342796923E-05
 79
     2
 49
12.74040031
 49
-157.25959778
 53
345.9637146
 43
37.10800171
 44
25.76939964
 45
41.23105626
 46
-3.0175342796923E-05
 79
     2
 49
25.48080063
 49
-144.51919556
 47
0.775229
 98
        1
 10
0.0
 20
0.0
  0
LWPOLYLINE
  5
3F5
102
{ACAD_REACTORS
330
3F6
102
}
100
AcDbEntity
  8
Sc.1_5
 62
     7
  6
CONTINUOUS
100
AcDbPolyline
 90
        4
 70
     1
 43
0.0
 10
2371.67910284
 20
-904.94987739
 10
2371.67910284
 20
-934.54973738
 10
2379.67910284
 20
-934.54973738
 10
2379.67910284
 20
-904.94987739
  0
HATCH
  5
3F6
100
AcDbEntity
  8
Sc.1_5
 62
     9
  6
CONTINUOUS
100
AcDbHatch
 10
0.0
 20
0.0
 30
0.0
210
0.0
220
0.0
230
1.0
  2
ANSI37
 70
     0
 71
     1
 91
        1
 92
        7
 72
     0
 73
     1
 93
        4
 10
2371.67910284
 20
-904.94987739
 10
2371.67910284
 20
-934.54973738
 10
2379.67910284
 20
-934.54973738
 10
2379.67910284
 20
-904.94987739
 97
        1
330
3F5
 75
     0
 76
     2
 52
0.0
 41
1.25984254
 77
     0
 78
     2
 53
45.0
 43
0.0
 44
0.0
 45
2.82842712
 46
-2.82842712
 79
     0
 53
-45.0
 43
0.0
 44
0.0
 45
2.82842712
 46
2.82842712
 79
     0
 47
0.775229
 98
        1
 10
0.0
 20
0.0
  0
LWPOLYLINE
  5
3F7
102
{ACAD_REACTORS
330
3F8
102
}
100
AcDbEntity
  8
Sc.1_5
 62
     7
  6
CONTINUOUS
100
AcDbPolyline
 90
        4
 70
     1
 43
0.0
 10
2402.4790625
 20
-1009.39214222
 10
2402.4790625
 20
-944.54973724
 10
2400.6790625
 20
-944.54973724
 10
2400.6790625
 20
-1009.39214222
  0
HATCH
  5
3F8
100
AcDbEntity
  8
Sc.1_5
 62
     9
  6
CONTINUOUS
100
AcDbHatch
 10
0.0
 20
0.0
 30
0.0
210
0.0
220
0.0
230
1.0
  2
CDWK12A
 70
     0
 71
     1
 91
        1
 92
        7
 72
     0
 73
     1
 93
        4
 10
2402.4790625
 20
-1009.39214222
 10
2402.4790625
 20
-944.54973724
 10
2400.6790625
 20
-944.54973724
 10
2400.6790625
 20
-1009.39214222
 97
        1
330
3F7
 75
     0
 76
     2
 52
0.0
 41
1.0
 77
     0
 78
    15
 53
0.0
 43
0.0
 44
0.0
 45
2.70000005
 46
4.9000001
 79
     2
 49
0.0
 49
-3.70000005
 53
0.0
 43
0.0
 44
0.0
 45
4.4000001
 46
4.80000019
 79
     2
 49
0.0
 49
-5.4000001
 53
0.0
 43
0.0
 44
0.0
 45
1.39999998
 46
4.5999999
 79
     2
 49
0.0
 49
-2.4000001
 53
0.0
 43
0.0
 44
0.0
 45
2.20000005
 46
4.19999981
 79
     2
 49
0.0
 49
-3.20000005
 53
0.0
 43
0.0
 44
0.0
 45
3.79999995
 46
4.0
 79
     2
 49
0.0
 49
-4.80000019
 53
0.0
 43
0.0
 44
0.0
 45
1.20000005
 46
3.79999995
 79
     2
 49
0.0
 49
-2.20000005
 53
0.0
 43
0.0
 44
0.0
 45
2.9000001
 46
3.5
 79
     2
 49
0.0
 49
-3.9000001
 53
0.0
 43
0.0
 44
0.0
 45
4.5999999
 46
3.4000001
 79
     2
 49
0.0
 49
-5.5999999
 53
0.0
 43
0.0
 44
0.0
 45
1.89999998
 46
2.9000001
 79
     2
 49
0.0
 49
-2.9000001
 53
0.0
 43
0.0
 44
0.0
 45
3.20000005
 46
2.79999995
 79
     2
 49
0.0
 49
-4.19999981
 53
0.0
 43
0.0
 44
0.0
 45
3.9000001
 46
2.4000001
 79
     2
 49
0.0
 49
-4.9000001
 53
0.0
 43
0.0
 44
0.0
 45
2.4000001
 46
2.0999999
 79
     2
 49
0.0
 49
-3.4000001
 53
0.0
 43
0.0
 44
0.0
 45
4.9000001
 46
2.0999999
 79
     2
 49
0.0
 49
-5.9000001
 53
0.0
 43
0.0
 44
0.0
 45
3.5999999
 46
1.5
 79
     2
 49
0.0
 49
-4.5999999
 53
0.0
 43
0.0
 44
0.0
 45
1.60000002
 46
1.39999998
 79
     2
 49
0.0
 49
-2.5999999
 47
0.775229
 98
        1
 10
0.0
 20
0.0
  0
LWPOLYLINE
  5
3F9
102
{ACAD_REACTORS
330
3FA
102
}
100
AcDbEntity
  8
Sc.1_5
 62
     7
  6
CONTINUOUS
100
AcDbPolyline
 90
        4
 70
     1
 43
0.0
 10
2476.67875511
 20
-942.04973738
 10
2400.67906258
 20
-942.04973738
 10
2400.67906258
 20
-943.84973738
 10
2476.67875511
 20
-943.84973738
  0
HATCH
  5
3FA
100
AcDbEntity
  8
Sc.1_5
 62
     9
  6
CONTINUOUS
100
AcDbHatch
 10
0.0
 20
0.0
 30
0.0
210
0.0
220
0.0
230
1.0
  2
CDWK12A
 70
     0
 71
     1
 91
        1
 92
        7
 72
     0
 73
     1
 93
        4
 10
2476.67875511
 20
-942.04973738
 10
2400.67906258
 20
-942.04973738
 10
2400.67906258
 20
-943.84973738
 10
2476.67875511
 20
-943.84973738
 97
        1
330
3F9
 75
     0
 76
     2
 52
0.0
 41
1.0
 77
     0
 78
    15
 53
0.0
 43
0.0
 44
0.0
 45
2.70000005
 46
4.9000001
 79
     2
 49
0.0
 49
-3.70000005
 53
0.0
 43
0.0
 44
0.0
 45
4.4000001
 46
4.80000019
 79
     2
 49
0.0
 49
-5.4000001
 53
0.0
 43
0.0
 44
0.0
 45
1.39999998
 46
4.5999999
 79
     2
 49
0.0
 49
-2.4000001
 53
0.0
 43
0.0
 44
0.0
 45
2.20000005
 46
4.19999981
 79
     2
 49
0.0
 49
-3.20000005
 53
0.0
 43
0.0
 44
0.0
 45
3.79999995
 46
4.0
 79
     2
 49
0.0
 49
-4.80000019
 53
0.0
 43
0.0
 44
0.0
 45
1.20000005
 46
3.79999995
 79
     2
 49
0.0
 49
-2.20000005
 53
0.0
 43
0.0
 44
0.0
 45
2.9000001
 46
3.5
 79
     2
 49
0.0
 49
-3.9000001
 53
0.0
 43
0.0
 44
0.0
 45
4.5999999
 46
3.4000001
 79
     2
 49
0.0
 49
-5.5999999
 53
0.0
 43
0.0
 44
0.0
 45
1.89999998
 46
2.9000001
 79
     2
 49
0.0
 49
-2.9000001
 53
0.0
 43
0.0
 44
0.0
 45
3.20000005
 46
2.79999995
 79
     2
 49
0.0
 49
-4.19999981
 53
0.0
 43
0.0
 44
0.0
 45
3.9000001
 46
2.4000001
 79
     2
 49
0.0
 49
-4.9000001
 53
0.0
 43
0.0
 44
0.0
 45
2.4000001
 46
2.0999999
 79
     2
 49
0.0
 49
-3.4000001
 53
0.0
 43
0.0
 44
0.0
 45
4.9000001
 46
2.0999999
 79
     2
 49
0.0
 49
-5.9000001
 53
0.0
 43
0.0
 44
0.0
 45
3.5999999
 46
1.5
 79
     2
 49
0.0
 49
-4.5999999
 53
0.0
 43
0.0
 44
0.0
 45
1.60000002
 46
1.39999998
 79
     2
 49
0.0
 49
-2.5999999
 47
0.775229
 98
        1
 10
0.0
 20
0.0
  0
LWPOLYLINE
  5
3FB
102
{ACAD_REACTORS
330
3FC
102
}
100
AcDbEntity
  8
Sc.1_5
 62
     7
  6
CONTINUOUS
100
AcDbPolyline
 90
        4
 70
     1
 43
0.0
 10
2371.17916219
 20
-904.94987962
 10
2371.17916219
 20
-819.39214222
 10
2369.37916219
 20
-819.39214222
 10
2369.37916219
 20
-904.94987962
  0
HATCH
  5
3FC
100
AcDbEntity
  8
Sc.1_5
 62
     9
  6
CONTINUOUS
100
AcDbHatch
 10
0.0
 20
0.0
 30
0.0
210
0.0
220
0.0
230
1.0
  2
ANSI31
 70
     0
 71
     1
 91
        1
 92
        7
 72
     0
 73
     1
 93
        4
 10
2371.17916219
 20
-904.94987962
 10
2371.17916219
 20
-819.39214222
 10
2369.37916219
 20
-819.39214222
 10
2369.37916219
 20
-904.94987962
 97
        1
330
3FB
 75
     0
 76
     2
 52
0.0
 41
0.3149626
 77
     0
 78
     1
 53
45.0
 43
0.0
 44
0.0
 45
0.70710678
 46
-0.70710678
 79
     0
 47
0.775229
 98
        1
 10
0.0
 20
0.0
  0
LWPOLYLINE
  5
3FD
102
{ACAD_REACTORS
330
3FE
102
}
100
AcDbEntity
  8
Sc.1_5
 62
     7
  6
CONTINUOUS
100
AcDbPolyline
 90
        4
 70
     1
 43
0.0
 10
2371.17916219
 20
-934.04977404
 10
2371.17916219
 20
-905.44987739
 10
2369.37916219
 20
-905.44987739
 10
2369.37916219
 20
-934.04977404
  0
HATCH
  5
3FE
100
AcDbEntity
  8
Sc.1_5
 62
     9
  6
CONTINUOUS
100
AcDbHatch
 10
0.0
 20
0.0
 30
0.0
210
0.0
220
0.0
230
1.0
  2
ANSI31
 70
     0
 71
     1
 91
        1
 92
        7
 72
     0
 73
     1
 93
        4
 10
2371.17916219
 20
-934.04977404
 10
2371.17916219
 20
-905.44987739
 10
2369.37916219
 20
-905.44987739
 10
2369.37916219
 20
-934.04977404
 97
        1
330
3FD
 75
     0
 76
     2
 52
0.0
 41
0.3149626
 77
     0
 78
     1
 53
45.0
 43
0.0
 44
0.0
 45
0.70710678
 46
-0.70710678
 79
     0
 47
0.775229
 98
        1
 10
0.0
 20
0.0
  0
LWPOLYLINE
  5
3FF
102
{ACAD_REACTORS
330
400
102
}
100
AcDbEntity
  8
Sc.1_5
 62
     7
  6
CONTINUOUS
100
AcDbPolyline
 90
        4
 70
     1
 43
0.0
 10
2371.17916219
 20
-1009.39214429
 10
2371.17916219
 20
-934.54973847
 10
2369.37916219
 20
-934.54973847
 10
2369.37916219
 20
-1009.39214429
  0
HATCH
  5
400
100
AcDbEntity
  8
Sc.1_5
 62
     9
  6
CONTINUOUS
100
AcDbHatch
 10
0.0
 20
0.0
 30
0.0
210
0.0
220
0.0
230
1.0
  2
ANSI31
 70
     0
 71
     1
 91
        1
 92
        7
 72
     0
 73
     1
 93
        4
 10
2371.17916219
 20
-1009.39214429
 10
2371.17916219
 20
-934.54973847
 10
2369.37916219
 20
-934.54973847
 10
2369.37916219
 20
-1009.39214429
 97
        1
330
3FF
 75
     0
 76
     2
 52
0.0
 41
0.3149626
 77
     0
 78
     1
 53
45.0
 43
0.0
 44
0.0
 45
0.70710678
 46
-0.70710678
 79
     0
 47
0.775229
 98
        1
 10
0.0
 20
0.0
  0
LWPOLYLINE
  5
401
100
AcDbEntity
  8
Sc.1_1
 62
     7
  6
DASHDOT
370
     5
100
AcDbPolyline
 90
        4
 70
     1
 43
0.0
 10
2330.78530917
 20
-1064.11666848
 10
2362.68838128
 20
-1064.11666848
 10
2362.68838128
 20
-1048.11966148
 10
2330.78530917
 20
-1048.11966148
  0
LWPOLYLINE
  5
402
100
AcDbEntity
  8
LEGEND
 62
     5
  6
CONTINUOUS
370
    -3
100
AcDbPolyline
 90
        4
 70
     1
 43
0.0
 10
2362.37060564
 20
-1064.75031721
 10
2420.18595988
 20
-1064.75031721
 10
2420.18595988
 20
-1047.48795572
 10
2362.37060564
 20
-1047.48795572
  0
LWPOLYLINE
  5
403
100
AcDbEntity
  8
LEGEND
 62
     5
  6
CONTINUOUS
370
    -3
100
AcDbPolyline
 90
        4
 70
     1
 43
0.0
 10
2420.18595988
 20
-1064.75031721
 10
2493.57811143
 20
-1064.75031721
 10
2493.57811143
 20
-1047.48795572
 10
2420.18595988
 20
-1047.48795572
  0
LWPOLYLINE
  5
404
100
AcDbEntity
  8
LEGEND
 62
     5
  6
CONTINUOUS
370
    -3
100
AcDbPolyline
 90
        4
 70
     1
 43
0.0
 10
2493.57811143
 20
-1064.75031721
 10
2528.10211056
 20
-1064.75031721
 10
2528.10211056
 20
-1056.11913647
 10
2493.57811143
 20
-1056.11913647
  0
LWPOLYLINE
  5
405
100
AcDbEntity
  8
LEGEND
 62
     5
  6
CONTINUOUS
370
    -3
100
AcDbPolyline
 90
        4
 70
     1
 43
0.0
 10
2493.57811143
 20
-1056.11913647
 10
2508.4863601
 20
-1056.11913647
 10
2508.4863601
 20
-1047.48795572
 10
2493.57811143
 20
-1047.48795572
  0
LWPOLYLINE
  5
406
100
AcDbEntity
  8
LEGEND
 62
     5
  6
CONTINUOUS
370
    -3
100
AcDbPolyline
 90
        4
 70
     1
 43
0.0
 10
2331.10211056
 20
-1064.75031721
 10
2528.10211056
 20
-1064.75031721
 10
2528.10211056
 20
-793.75031721
 10
2331.10211056
 20
-793.75031721
  0
LWPOLYLINE
  5
407
100
AcDbEntity
  8
LEGEND
 62
     5
  6
CONTINUOUS
370
    -3
100
AcDbPolyline
 90
        4
 70
     1
 43
0.0
 10
2508.4863601
 20
-1056.11913647
 10
2528.10211056
 20
-1056.11913647
 10
2528.10211056
 20
-1047.48795572
 10
2508.4863601
 20
-1047.48795572
  0
LWPOLYLINE
  5
408
100
AcDbEntity
  8
LEGEND
 62
     5
  6
CONTINUOUS
370
    -3
100
AcDbPolyline
 90
        4
 70
     1
 43
0.0
 10
2331.10211056
 20
-1064.75031721
 10
2362.37060564
 20
-1064.75031721
 10
2362.37060564
 20
-1047.48795572
 10
2331.10211056
 20
-1047.48795572
  0
3DFACE
  5
409
100
AcDbEntity
  8
Sc.1_5
 62
     7
  6
CONTINUOUS
370
    20
100
AcDbFace
 70
     0
 10
2364.67916148
 20
-936.11174438
 30
548.63999023
 11
2368.67916154
 21
-936.11174403
 31
548.63999023
 12
2368.67916224
 22
-944.11174415
 32
548.63999023
 13
2364.67916218
 23
-944.1117445
 33
548.63999023
  0
INSERT
  5
40A
100
AcDbEntity
  8
Sc.1_5
 62
     0
370
    20
100
AcDbBlockReference
  2
*X2006
 10
0.0
 20
0.0
 30
0.0
  0
3DFACE
  5
40B
100
AcDbEntity
  8
Sc.1_5
 62
     7
  6
CONTINUOUS
370
    20
100
AcDbFace
 70
     0
 10
2364.67916148
 20
-921.89214245
 30
548.63999023
 11
2368.67916154
 21
-921.8921421
 31
548.63999023
 12
2368.67916224
 22
-929.89214222
 32
548.63999023
 13
2364.67916218
 23
-929.89214257
 33
548.63999023
  0
INSERT
  5
40C
100
AcDbEntity
  8
Sc.1_5
 62
     0
370
    20
100
AcDbBlockReference
  2
*X2007
 10
0.0
 20
0.0
 30
0.0
  0
3DFACE
  5
40D
100
AcDbEntity
  8
Sc.1_5
 62
     7
  6
CONTINUOUS
370
    20
100
AcDbFace
 70
     0
 10
2371.67910242
 20
-895.4498784
 30
914.4
 11
2371.67916219
 21
-819.39214222
 31
914.4
 12
2399.67910284
 22
-819.39214222
 32
914.4
 13
2399.67910284
 23
-895.4498784
 33
914.4
  0
INSERT
  5
40E
100
AcDbEntity
  8
Sc.1_5
 62
     0
370
    20
100
AcDbBlockReference
  2
*X2171
 10
0.0
 20
0.0
 30
0.0
  0
3DFACE
  5
40F
100
AcDbEntity
  8
Sc.1_5
 62
     7
  6
CONTINUOUS
370
    20
100
AcDbFace
 70
     0
 10
2399.6790625
 20
-1009.39214178
 30
914.4
 11
2399.6790625
 21
-953.54973615
 31
914.4
 12
2371.67910242
 22
-953.54973738
 32
914.4
 13
2371.67916166
 23
-1009.39214178
 33
914.4
  0
INSERT
  5
410
100
AcDbEntity
  8
Sc.1_5
 62
     0
370
    20
100
AcDbBlockReference
  2
*X2173
 10
0.0
 20
0.0
 30
0.0
  0
3DFACE
  5
411
100
AcDbEntity
  8
Sc.1_5
 62
     7
  6
CONTINUOUS
370
    20
100
AcDbFace
 70
     0
 10
2371.67910203
 20
-895.44987962
 30
548.63999023
 11
2371.67910242
 21
-904.44987976
 31
548.63999023
 12
2399.67910284
 22
-904.44987853
 32
548.63999023
 13
2399.67910244
 23
-895.4498784
 33
548.63999023
  0
INSERT
  5
412
100
AcDbEntity
  8
Sc.1_5
 62
     0
370
    20
100
AcDbBlockReference
  2
*X2093
 10
0.0
 20
0.0
 30
0.0
  0
3DFACE
  5
413
100
AcDbEntity
  8
Sc.1_5
 62
     7
  6
CONTINUOUS
370
    20
100
AcDbFace
 70
     0
 10
2371.67910203
 20
-935.04973724
 30
548.63999023
 11
2371.67916219
 21
-944.04973615
 31
548.63999023
 12
2399.67910284
 22
-944.04973615
 32
548.63999023
 13
2399.67910244
 23
-935.04973602
 33
548.63999023
  0
INSERT
  5
414
100
AcDbEntity
  8
Sc.1_5
 62
     0
370
    20
100
AcDbBlockReference
  2
*X2094
 10
0.0
 20
0.0
 30
0.0
  0
3DFACE
  5
415
100
AcDbEntity
  8
Sc.1_5
 62
     7
  6
CONTINUOUS
370
    20
100
AcDbFace
 70
     0
 10
2400.6790625
 20
-934.54973738
 30
548.63999023
 11
2400.67906258
 21
-941.54973748
 31
548.63999023
 12
2414.67906279
 22
-941.54973731
 32
548.63999023
 13
2414.67906271
 23
-934.54973721
 33
548.63999023
  0
INSERT
  5
416
100
AcDbEntity
  8
Sc.1_5
 62
     0
370
    20
100
AcDbBlockReference
  2
*X2095
 10
0.0
 20
0.0
 30
0.0
  0
3DFACE
  5
417
100
AcDbEntity
  8
Sc.1_5
 62
     7
  6
CONTINUOUS
370
    20
100
AcDbFace
 70
     0
 10
2371.67916219
 20
-944.54973615
 30
548.63999023
 11
2371.67910242
 21
-953.54973738
 31
548.63999023
 12
2399.6790625
 22
-953.54973615
 32
548.63999023
 13
2399.67910244
 23
-944.54973602
 33
548.63999023
  0
INSERT
  5
418
100
AcDbEntity
  8
Sc.1_5
 62
     0
370
    20
100
AcDbBlockReference
  2
*X2096
 10
0.0
 20
0.0
 30
0.0
  0
3DFACE
  5
419
100
AcDbEntity
  8
Sc.1_5
 62
     9
  6
CONTINUOUS
370
    20
100
AcDbFace
 70
     0
 10
2388.20969159
 20
-896.9513305
 30
548.63999023
 11
2387.20969159
 21
-896.9513305
 31
548.63999023
 12
2387.20969159
 22
-915.01543634
 32
548.63999023
 13
2388.20969159
 23
-914.81966287
 33
548.63999023
  0
LWPOLYLINE
  5
41A
100
AcDbEntity
  8
Sc.1_5
 62
     9
  6
CONTINUOUS
370
    20
100
AcDbPolyline
 90
        8
 70
     1
 43
0.0
 38
510.0
 39
-510.0
 10
2388.70969159
 20
-913.6970063
 10
2388.20969159
 20
-914.03005477
 10
2387.20969159
 20
-914.2910805
 10
2386.70969159
 20
-914.35408149
 10
2387.20969159
 20
-914.02103301
 10
2388.20969159
 20
-913.76000729
 10
2388.70969159
 20
-913.6970063
 10
2386.70969159
 20
-914.35408149
  0
LWPOLYLINE
  5
41B
100
AcDbEntity
  8
Sc.1_5
 62
     9
  6
CONTINUOUS
370
    20
100
AcDbPolyline
 90
        8
 70
     1
 43
0.0
 38
510.0
 39
-510.0
 10
2388.70969159
 20
-912.45976868
 10
2388.20969159
 20
-912.79281716
 10
2387.20969159
 20
-913.05384289
 10
2386.70969159
 20
-913.11684388
 10
2387.20969159
 20
-912.7837954
 10
2388.20969159
 20
-912.52276968
 10
2388.70969159
 20
-912.45976868
 10
2386.70969159
 20
-913.11684388
  0
3DFACE
  5
41C
100
AcDbEntity
  8
Sc.1_5
 62
     9
  6
CONTINUOUS
370
    20
100
AcDbFace
 70
     0
 10
2385.90969159
 20
-895.6498784
 30
510.0
 11
2387.21041769
 21
-896.95060449
 31
510.0
 12
2388.20896554
 22
-896.95060443
 32
510.0
 13
2389.50969159
 23
-895.6498784
 33
510.0
  0
3DFACE
  5
41D
100
AcDbEntity
  8
Sc.1_5
 62
     9
  6
CONTINUOUS
370
    20
100
AcDbFace
 70
     0
 10
2385.90969159
 20
-895.6498784
 30
510.0
 11
2385.90969159
 21
-895.4498784
 31
510.0
 12
2389.50969159
 22
-895.4498784
 32
510.0
 13
2389.50969159
 23
-895.6498784
 33
510.0
  0
LWPOLYLINE
  5
41E
100
AcDbEntity
  8
Sc.1_5
 62
     9
  6
CADWORK_13
370
    -3
100
AcDbPolyline
 90
        4
 70
     0
 43
0.0
 38
510.0
 10
2388.20969159
 20
-895.4498784
 10
2388.00969159
 20
-896.27827344
 10
2387.40969159
 20
-896.27827344
 10
2387.20969159
 20
-895.4498784
  0
LINE
  5
41F
100
AcDbEntity
  8
Sc.1_5
 62
     9
  6
CADWORK_13
370
    -3
100
AcDbLine
 10
2387.70969159
 20
-896.27827344
 30
510.0
 11
2387.70969159
 21
-895.4498784
 31
510.0
  0
LWPOLYLINE
  5
420
100
AcDbEntity
  8
Sc.1_5
 62
     9
  6
CONTINUOUS
370
    20
100
AcDbPolyline
 90
        8
 70
     1
 43
0.0
 38
510.0
 39
-510.0
 10
2388.70969159
 20
-911.22253107
 10
2388.20969159
 20
-911.55557955
 10
2387.20969159
 20
-911.81660528
 10
2386.70969159
 20
-911.87960627
 10
2387.20969159
 20
-911.54655779
 10
2388.20969159
 20
-911.28553206
 10
2388.70969159
 20
-911.22253107
 10
2386.70969159
 20
-911.87960627
  0
LWPOLYLINE
  5
421
100
AcDbEntity
  8
Sc.1_5
 62
     9
  6
CONTINUOUS
370
    20
100
AcDbPolyline
 90
        8
 70
     1
 43
0.0
 38
510.0
 39
-510.0
 10
2388.70969159
 20
-909.98529346
 10
2388.20969159
 20
-910.31834194
 10
2387.20969159
 20
-910.57936767
 10
2386.70969159
 20
-910.64236866
 10
2387.20969159
 20
-910.30932018
 10
2388.20969159
 20
-910.04829445
 10
2388.70969159
 20
-909.98529346
 10
2386.70969159
 20
-910.64236866
  0
LWPOLYLINE
  5
422
100
AcDbEntity
  8
Sc.1_5
 62
     9
  6
CONTINUOUS
370
    20
100
AcDbPolyline
 90
        8
 70
     1
 43
0.0
 38
510.0
 39
-510.0
 10
2388.70969159
 20
-908.74805585
 10
2388.20969159
 20
-909.08110433
 10
2387.20969159
 20
-909.34213005
 10
2386.70969159
 20
-909.40513105
 10
2387.20969159
 20
-909.07208257
 10
2388.20969159
 20
-908.81105684
 10
2388.70969159
 20
-908.74805585
 10
2386.70969159
 20
-909.40513105
  0
LWPOLYLINE
  5
423
100
AcDbEntity
  8
Sc.1_5
 62
     9
  6
CONTINUOUS
370
    20
100
AcDbPolyline
 90
        8
 70
     1
 43
0.0
 38
510.0
 39
-510.0
 10
2388.70969159
 20
-907.51081824
 10
2388.20969159
 20
-907.84386672
 10
2387.20969159
 20
-908.10489244
 10
2386.70969159
 20
-908.16789343
 10
2387.20969159
 20
-907.83484496
 10
2388.20969159
 20
-907.57381923
 10
2388.70969159
 20
-907.51081824
 10
2386.70969159
 20
-908.16789343
  0
LWPOLYLINE
  5
424
100
AcDbEntity
  8
Sc.1_5
 62
     9
  6
CONTINUOUS
370
    20
100
AcDbPolyline
 90
        8
 70
     1
 43
0.0
 38
510.0
 39
-510.0
 10
2388.70969159
 20
-906.27358063
 10
2388.20969159
 20
-906.6066291
 10
2387.20969159
 20
-906.86765483
 10
2386.70969159
 20
-906.93065582
 10
2387.20969159
 20
-906.59760734
 10
2388.20969159
 20
-906.33658162
 10
2388.70969159
 20
-906.27358063
 10
2386.70969159
 20
-906.93065582
  0
LWPOLYLINE
  5
425
100
AcDbEntity
  8
Sc.1_5
 62
     9
  6
CONTINUOUS
370
    20
100
AcDbPolyline
 90
        8
 70
     1
 43
0.0
 38
510.0
 39
-510.0
 10
2388.70969159
 20
-905.03634301
 10
2388.20969159
 20
-905.36939149
 10
2387.20969159
 20
-905.63041722
 10
2386.70969159
 20
-905.69341821
 10
2387.20969159
 20
-905.36036973
 10
2388.20969159
 20
-905.09934401
 10
2388.70969159
 20
-905.03634301
 10
2386.70969159
 20
-905.69341821
  0
LWPOLYLINE
  5
426
100
AcDbEntity
  8
Sc.1_5
 62
     9
  6
CONTINUOUS
370
    20
100
AcDbPolyline
 90
        8
 70
     1
 43
0.0
 38
510.0
 39
-510.0
 10
2388.70969159
 20
-903.7991054
 10
2388.20969159
 20
-904.13215388
 10
2387.20969159
 20
-904.39317961
 10
2386.70969159
 20
-904.4561806
 10
2387.20969159
 20
-904.12313212
 10
2388.20969159
 20
-903.86210639
 10
2388.70969159
 20
-903.7991054
 10
2386.70969159
 20
-904.4561806
  0
LWPOLYLINE
  5
427
100
AcDbEntity
  8
Sc.1_5
 62
     9
  6
CONTINUOUS
370
    20
100
AcDbPolyline
 90
        8
 70
     1
 43
0.0
 38
510.0
 39
-510.0
 10
2388.70969159
 20
-902.56186779
 10
2388.20969159
 20
-902.89491627
 10
2387.20969159
 20
-903.155942
 10
2386.70969159
 20
-903.21894299
 10
2387.20969159
 20
-902.88589451
 10
2388.20969159
 20
-902.62486878
 10
2388.70969159
 20
-902.56186779
 10
2386.70969159
 20
-903.21894299
  0
LWPOLYLINE
  5
428
100
AcDbEntity
  8
Sc.1_5
 62
     9
  6
CONTINUOUS
370
    20
100
AcDbPolyline
 90
        8
 70
     1
 43
0.0
 38
510.0
 39
-510.0
 10
2388.70969159
 20
-901.32463018
 10
2388.20969159
 20
-901.65767866
 10
2387.20969159
 20
-901.91870438
 10
2386.70969159
 20
-901.98170538
 10
2387.20969159
 20
-901.6486569
 10
2388.20969159
 20
-901.38763117
 10
2388.70969159
 20
-901.32463018
 10
2386.70969159
 20
-901.98170538
  0
LWPOLYLINE
  5
429
100
AcDbEntity
  8
Sc.1_5
 62
     9
  6
CONTINUOUS
370
    20
100
AcDbPolyline
 90
        8
 70
     1
 43
0.0
 38
510.0
 39
-510.0
 10
2388.70969159
 20
-900.08739257
 10
2388.20969159
 20
-900.42044105
 10
2387.20969159
 20
-900.68146677
 10
2386.70969159
 20
-900.74446776
 10
2387.20969159
 20
-900.41141929
 10
2388.20969159
 20
-900.15039356
 10
2388.70969159
 20
-900.08739257
 10
2386.70969159
 20
-900.74446776
  0
LWPOLYLINE
  5
42A
100
AcDbEntity
  8
Sc.1_5
 62
     9
  6
CONTINUOUS
370
    20
100
AcDbPolyline
 90
        8
 70
     1
 43
0.0
 38
510.0
 39
-510.0
 10
2388.70969159
 20
-898.85015496
 10
2388.20969159
 20
-899.18320343
 10
2387.20969159
 20
-899.44422916
 10
2386.70969159
 20
-899.50723015
 10
2387.20969159
 20
-899.17418167
 10
2388.20969159
 20
-898.91315595
 10
2388.70969159
 20
-898.85015496
 10
2386.70969159
 20
-899.50723015
  0
LWPOLYLINE
  5
42B
100
AcDbEntity
  8
Sc.1_5
 62
     9
  6
CONTINUOUS
370
    20
100
AcDbPolyline
 90
        8
 70
     1
 43
0.0
 38
510.0
 39
-510.0
 10
2388.70969159
 20
-897.61291734
 10
2388.20969159
 20
-897.94596582
 10
2387.20969159
 20
-898.20699155
 10
2386.70969159
 20
-898.26999254
 10
2387.20969159
 20
-897.93694406
 10
2388.20969159
 20
-897.67591834
 10
2388.70969159
 20
-897.61291734
 10
2386.70969159
 20
-898.26999254
  0
LWPOLYLINE
  5
42C
100
AcDbEntity
  8
Sc.1_5
 62
     9
  6
CONTINUOUS
370
    20
100
AcDbPolyline
 90
        6
 70
     1
 43
0.0
 38
548.63999023
 39
-548.63999023
 10
2387.20969159
 20
-915.01543634
 10
2386.84361588
 20
-915.22201652
 10
2387.20969159
 20
-915.28957977
 10
2388.20969159
 20
-915.02455273
 10
2388.57161595
 20
-914.81660245
 10
2388.20969159
 20
-914.81966287
  0
LWPOLYLINE
  5
42D
100
AcDbEntity
  8
Sc.1_5
 62
     9
  6
CONTINUOUS
370
    20
100
AcDbPolyline
 90
        6
 70
     1
 43
0.0
 38
548.63999023
 39
-548.63999023
 10
2387.29126995
 20
-916.03289655
 10
2387.01676183
 20
-916.16798845
 10
2387.33669945
 20
-916.22495788
 10
2388.09943533
 20
-916.05061825
 10
2388.39846999
 20
-915.89763168
 10
2388.12396188
 20
-915.89763168
  0
LINE
  5
42E
100
AcDbEntity
  8
Sc.1_5
 62
     9
  6
CONTINUOUS
370
    -3
100
AcDbLine
 10
2386.84361588
 20
-915.22201652
 30
0.0
 11
2388.57161595
 21
-914.81660245
 31
0.0
  0
LINE
  5
42F
100
AcDbEntity
  8
Sc.1_5
 62
     9
  6
CONTINUOUS
370
    -3
100
AcDbLine
 10
2387.01676183
 20
-916.16798845
 30
0.0
 11
2388.39846999
 21
-915.89763168
 31
0.0
  0
3DFACE
  5
430
100
AcDbEntity
  8
Sc.1_5
 62
     9
  6
CONTINUOUS
370
    20
100
AcDbFace
 70
     0
 10
2387.33669945
 20
-916.22495788
 30
548.63999023
 11
2387.70969159
 21
-917.11397768
 31
548.63999023
 12
2388.09943533
 22
-916.05061825
 32
548.63999023
 13
2388.09943533
 23
-916.05061825
 33
548.63999023
  0
3DFACE
  5
431
100
AcDbEntity
  8
Sc.1_5
 62
     9
  6
CONTINUOUS
370
    20
100
AcDbFace
 70
     0
 10
2387.20969159
 20
-915.28957977
 30
548.63999023
 11
2388.20969159
 21
-915.02455273
 31
548.63999023
 12
2388.12396188
 22
-915.89763168
 32
548.63999023
 13
2387.29126995
 23
-916.03289655
 33
548.63999023
  0
LWPOLYLINE
  5
432
100
AcDbEntity
  8
Sc.1_5
 62
     9
  6
CONTINUOUS
370
    20
100
AcDbPolyline
 90
       11
 70
     1
 43
0.0
 38
548.63999023
 39
-548.63999023
 10
2390.58851392
 20
-906.95132949
 10
2390.58851392
 20
-950.95119674
 10
2390.58851392
 20
-951.22534017
 10
2390.67009228
 20
-951.96865695
 10
2390.71552178
 20
-952.16071828
 10
2391.08851392
 20
-953.04973808
 10
2391.47825766
 20
-951.98637865
 10
2391.5027842
 20
-951.83339208
 10
2391.58851392
 20
-950.96031313
 10
2391.58851392
 20
-950.75542327
 10
2391.58851392
 20
-906.95060342
  0
LWPOLYLINE
  5
433
100
AcDbEntity
  8
Sc.1_5
 62
     9
  6
CONTINUOUS
370
    20
100
AcDbPolyline
 90
        8
 70
     1
 43
0.0
 38
548.63999023
 39
-548.63999023
 10
2392.08851392
 20
-949.6327667
 10
2391.58851392
 20
-949.96581518
 10
2390.58851392
 20
-950.2268409
 10
2390.08851392
 20
-950.28984189
 10
2390.58851392
 20
-949.95679342
 10
2391.58851392
 20
-949.69576769
 10
2392.08851392
 20
-949.6327667
 10
2390.08851392
 20
-950.28984189
  0
LWPOLYLINE
  5
434
100
AcDbEntity
  8
Sc.1_5
 62
     9
  6
CONTINUOUS
370
    20
100
AcDbPolyline
 90
        8
 70
     1
 43
0.0
 38
548.63999023
 39
-548.63999023
 10
2392.08851392
 20
-948.39552909
 10
2391.58851392
 20
-948.72857756
 10
2390.58851392
 20
-948.98960329
 10
2390.08851392
 20
-949.05260428
 10
2390.58851392
 20
-948.7195558
 10
2391.58851392
 20
-948.45853008
 10
2392.08851392
 20
-948.39552909
 10
2390.08851392
 20
-949.05260428
  0
3DFACE
  5
435
100
AcDbEntity
  8
Sc.1_5
 62
     9
  6
CONTINUOUS
370
    20
100
AcDbFace
 70
     0
 10
2389.28851392
 20
-905.64987739
 30
548.63999023
 11
2390.58924002
 21
-906.95060348
 31
548.63999023
 12
2391.58778787
 22
-906.95060342
 32
548.63999023
 13
2392.88851392
 23
-905.64987739
 33
548.63999023
  0
3DFACE
  5
436
100
AcDbEntity
  8
Sc.1_5
 62
     9
  6
CONTINUOUS
370
    20
100
AcDbFace
 70
     0
 10
2389.28851392
 20
-905.64987739
 30
548.63999023
 11
2389.28851392
 21
-905.44987739
 31
548.63999023
 12
2392.88851392
 22
-905.44987739
 32
548.63999023
 13
2392.88851392
 23
-905.64987739
 33
548.63999023
  0
LWPOLYLINE
  5
437
100
AcDbEntity
  8
Sc.1_5
 62
     9
  6
CADWORK_13
370
    -3
100
AcDbPolyline
 90
        4
 70
     0
 43
0.0
 38
510.0
 10
2391.58851392
 20
-905.44987739
 10
2391.38851392
 20
-906.27827243
 10
2390.78851392
 20
-906.27827243
 10
2390.58851392
 20
-905.44987739
  0
LINE
  5
438
100
AcDbEntity
  8
Sc.1_5
 62
     9
  6
CADWORK_13
370
    -3
100
AcDbLine
 10
2391.08851392
 20
-906.27827243
 30
510.0
 11
2391.08851392
 21
-905.44987739
 31
510.0
  0
LWPOLYLINE
  5
439
100
AcDbEntity
  8
Sc.1_5
 62
     9
  6
CONTINUOUS
370
    20
100
AcDbPolyline
 90
        8
 70
     1
 43
0.0
 38
548.63999023
 39
-548.63999023
 10
2392.08851392
 20
-947.15829147
 10
2391.58851392
 20
-947.49133995
 10
2390.58851392
 20
-947.75236568
 10
2390.08851392
 20
-947.81536667
 10
2390.58851392
 20
-947.48231819
 10
2391.58851392
 20
-947.22129247
 10
2392.08851392
 20
-947.15829147
 10
2390.08851392
 20
-947.81536667
  0
LWPOLYLINE
  5
43A
100
AcDbEntity
  8
Sc.1_5
 62
     9
  6
CONTINUOUS
370
    20
100
AcDbPolyline
 90
        8
 70
     1
 43
0.0
 38
548.63999023
 39
-548.63999023
 10
2392.08851392
 20
-945.92105386
 10
2391.58851392
 20
-946.25410234
 10
2390.58851392
 20
-946.51512807
 10
2390.08851392
 20
-946.57812906
 10
2390.58851392
 20
-946.24508058
 10
2391.58851392
 20
-945.98405485
 10
2392.08851392
 20
-945.92105386
 10
2390.08851392
 20
-946.57812906
  0
LWPOLYLINE
  5
43B
100
AcDbEntity
  8
Sc.1_5
 62
     9
  6
CONTINUOUS
370
    20
100
AcDbPolyline
 90
        8
 70
     1
 43
0.0
 38
548.63999023
 39
-548.63999023
 10
2392.08851392
 20
-944.68381625
 10
2391.58851392
 20
-945.01686473
 10
2390.58851392
 20
-945.27789046
 10
2390.08851392
 20
-945.34089145
 10
2390.58851392
 20
-945.00784297
 10
2391.58851392
 20
-944.74681724
 10
2392.08851392
 20
-944.68381625
 10
2390.08851392
 20
-945.34089145
  0
LWPOLYLINE
  5
43C
100
AcDbEntity
  8
Sc.1_5
 62
     9
  6
CONTINUOUS
370
    20
100
AcDbPolyline
 90
        8
 70
     1
 43
0.0
 38
548.63999023
 39
-548.63999023
 10
2392.08851392
 20
-943.44657864
 10
2391.58851392
 20
-943.77962712
 10
2390.58851392
 20
-944.04065284
 10
2390.08851392
 20
-944.10365384
 10
2390.58851392
 20
-943.77060536
 10
2391.58851392
 20
-943.50957963
 10
2392.08851392
 20
-943.44657864
 10
2390.08851392
 20
-944.10365384
  0
LWPOLYLINE
  5
43D
100
AcDbEntity
  8
Sc.1_5
 62
     9
  6
CONTINUOUS
370
    20
100
AcDbPolyline
 90
        8
 70
     1
 43
0.0
 38
548.63999023
 39
-548.63999023
 10
2392.08851392
 20
-942.20934103
 10
2391.58851392
 20
-942.5423895
 10
2390.58851392
 20
-942.80341523
 10
2390.08851392
 20
-942.86641622
 10
2390.58851392
 20
-942.53336775
 10
2391.58851392
 20
-942.27234202
 10
2392.08851392
 20
-942.20934103
 10
2390.08851392
 20
-942.86641622
  0
LWPOLYLINE
  5
43E
100
AcDbEntity
  8
Sc.1_5
 62
     9
  6
CONTINUOUS
370
    20
100
AcDbPolyline
 90
        8
 70
     1
 43
0.0
 38
548.63999023
 39
-548.63999023
 10
2392.08851392
 20
-940.97210342
 10
2391.58851392
 20
-941.30515189
 10
2390.58851392
 20
-941.56617762
 10
2390.08851392
 20
-941.62917861
 10
2390.58851392
 20
-941.29613013
 10
2391.58851392
 20
-941.03510441
 10
2392.08851392
 20
-940.97210342
 10
2390.08851392
 20
-941.62917861
  0
LWPOLYLINE
  5
43F
100
AcDbEntity
  8
Sc.1_5
 62
     9
  6
CONTINUOUS
370
    20
100
AcDbPolyline
 90
        8
 70
     1
 43
0.0
 38
548.63999023
 39
-548.63999023
 10
2392.08851392
 20
-939.7348658
 10
2391.58851392
 20
-940.06791428
 10
2390.58851392
 20
-940.32894001
 10
2390.08851392
 20
-940.391941
 10
2390.58851392
 20
-940.05889252
 10
2391.58851392
 20
-939.7978668
 10
2392.08851392
 20
-939.7348658
 10
2390.08851392
 20
-940.391941
  0
LWPOLYLINE
  5
440
100
AcDbEntity
  8
Sc.1_5
 62
     9
  6
CONTINUOUS
370
    20
100
AcDbPolyline
 90
        8
 70
     1
 43
0.0
 38
548.63999023
 39
-548.63999023
 10
2392.08851392
 20
-938.49762819
 10
2391.58851392
 20
-938.83067667
 10
2390.58851392
 20
-939.0917024
 10
2390.08851392
 20
-939.15470339
 10
2390.58851392
 20
-938.82165491
 10
2391.58851392
 20
-938.56062918
 10
2392.08851392
 20
-938.49762819
 10
2390.08851392
 20
-939.15470339
  0
LWPOLYLINE
  5
441
100
AcDbEntity
  8
Sc.1_5
 62
     9
  6
CONTINUOUS
370
    20
100
AcDbPolyline
 90
        8
 70
     1
 43
0.0
 38
548.63999023
 39
-548.63999023
 10
2392.08851392
 20
-937.26039058
 10
2391.58851392
 20
-937.59343906
 10
2390.58851392
 20
-937.85446478
 10
2390.08851392
 20
-937.91746578
 10
2390.58851392
 20
-937.5844173
 10
2391.58851392
 20
-937.32339157
 10
2392.08851392
 20
-937.26039058
 10
2390.08851392
 20
-937.91746578
  0
LWPOLYLINE
  5
442
100
AcDbEntity
  8
Sc.1_5
 62
     9
  6
CONTINUOUS
370
    20
100
AcDbPolyline
 90
        8
 70
     1
 43
0.0
 38
548.63999023
 39
-548.63999023
 10
2392.08851392
 20
-936.02315297
 10
2391.58851392
 20
-936.35620145
 10
2390.58851392
 20
-936.61722717
 10
2390.08851392
 20
-936.68022817
 10
2390.58851392
 20
-936.34717969
 10
2391.58851392
 20
-936.08615396
 10
2392.08851392
 20
-936.02315297
 10
2390.08851392
 20
-936.68022817
  0
LWPOLYLINE
  5
443
100
AcDbEntity
  8
Sc.1_5
 62
     9
  6
CONTINUOUS
370
    20
100
AcDbPolyline
 90
        8
 70
     1
 43
0.0
 38
548.63999023
 39
-548.63999023
 10
2392.08851392
 20
-934.78591536
 10
2391.58851392
 20
-935.11896383
 10
2390.58851392
 20
-935.37998956
 10
2390.08851392
 20
-935.44299055
 10
2390.58851392
 20
-935.10994208
 10
2391.58851392
 20
-934.84891635
 10
2392.08851392
 20
-934.78591536
 10
2390.08851392
 20
-935.44299055
  0
LWPOLYLINE
  5
444
100
AcDbEntity
  8
Sc.1_5
 62
     9
  6
CONTINUOUS
370
    20
100
AcDbPolyline
 90
        8
 70
     1
 43
0.0
 38
548.63999023
 39
-548.63999023
 10
2392.08851392
 20
-933.54867775
 10
2391.58851392
 20
-933.88172622
 10
2390.58851392
 20
-934.14275195
 10
2390.08851392
 20
-934.20575294
 10
2390.58851392
 20
-933.87270446
 10
2391.58851392
 20
-933.61167874
 10
2392.08851392
 20
-933.54867775
 10
2390.08851392
 20
-934.20575294
  0
LWPOLYLINE
  5
445
100
AcDbEntity
  8
Sc.1_5
 62
     9
  6
CONTINUOUS
370
    20
100
AcDbPolyline
 90
        8
 70
     1
 43
0.0
 38
548.63999023
 39
-548.63999023
 10
2392.08851392
 20
-932.31144013
 10
2391.58851392
 20
-932.64448861
 10
2390.58851392
 20
-932.90551434
 10
2390.08851392
 20
-932.96851533
 10
2390.58851392
 20
-932.63546685
 10
2391.58851392
 20
-932.37444113
 10
2392.08851392
 20
-932.31144013
 10
2390.08851392
 20
-932.96851533
  0
LWPOLYLINE
  5
446
100
AcDbEntity
  8
Sc.1_5
 62
     9
  6
CONTINUOUS
370
    20
100
AcDbPolyline
 90
        8
 70
     1
 43
0.0
 38
548.63999023
 39
-548.63999023
 10
2392.08851392
 20
-931.07420252
 10
2391.58851392
 20
-931.407251
 10
2390.58851392
 20
-931.66827673
 10
2390.08851392
 20
-931.73127772
 10
2390.58851392
 20
-931.39822924
 10
2391.58851392
 20
-931.13720351
 10
2392.08851392
 20
-931.07420252
 10
2390.08851392
 20
-931.73127772
  0
LWPOLYLINE
  5
447
100
AcDbEntity
  8
Sc.1_5
 62
     9
  6
CONTINUOUS
370
    20
100
AcDbPolyline
 90
        8
 70
     1
 43
0.0
 38
548.63999023
 39
-548.63999023
 10
2392.08851392
 20
-929.83696491
 10
2391.58851392
 20
-930.17001339
 10
2390.58851392
 20
-930.43103911
 10
2390.08851392
 20
-930.49404011
 10
2390.58851392
 20
-930.16099163
 10
2391.58851392
 20
-929.8999659
 10
2392.08851392
 20
-929.83696491
 10
2390.08851392
 20
-930.49404011
  0
LWPOLYLINE
  5
448
100
AcDbEntity
  8
Sc.1_5
 62
     9
  6
CONTINUOUS
370
    20
100
AcDbPolyline
 90
        8
 70
     1
 43
0.0
 38
548.63999023
 39
-548.63999023
 10
2392.08851392
 20
-928.5997273
 10
2391.58851392
 20
-928.93277578
 10
2390.58851392
 20
-929.1938015
 10
2390.08851392
 20
-929.25680249
 10
2390.58851392
 20
-928.92375402
 10
2391.58851392
 20
-928.66272829
 10
2392.08851392
 20
-928.5997273
 10
2390.08851392
 20
-929.25680249
  0
LWPOLYLINE
  5
449
100
AcDbEntity
  8
Sc.1_5
 62
     9
  6
CONTINUOUS
370
    20
100
AcDbPolyline
 90
        8
 70
     1
 43
0.0
 38
548.63999023
 39
-548.63999023
 10
2392.08851392
 20
-927.36248969
 10
2391.58851392
 20
-927.69553816
 10
2390.58851392
 20
-927.95656389
 10
2390.08851392
 20
-928.01956488
 10
2390.58851392
 20
-927.68651641
 10
2391.58851392
 20
-927.42549068
 10
2392.08851392
 20
-927.36248969
 10
2390.08851392
 20
-928.01956488
  0
LWPOLYLINE
  5
44A
100
AcDbEntity
  8
Sc.1_5
 62
     9
  6
CONTINUOUS
370
    20
100
AcDbPolyline
 90
        8
 70
     1
 43
0.0
 38
548.63999023
 39
-548.63999023
 10
2392.08851392
 20
-926.12525208
 10
2391.58851392
 20
-926.45830055
 10
2390.58851392
 20
-926.71932628
 10
2390.08851392
 20
-926.78232727
 10
2390.58851392
 20
-926.44927879
 10
2391.58851392
 20
-926.18825307
 10
2392.08851392
 20
-926.12525208
 10
2390.08851392
 20
-926.78232727
  0
LWPOLYLINE
  5
44B
100
AcDbEntity
  8
Sc.1_5
 62
     9
  6
CONTINUOUS
370
    20
100
AcDbPolyline
 90
        8
 70
     1
 43
0.0
 38
548.63999023
 39
-548.63999023
 10
2392.08851392
 20
-924.88801446
 10
2391.58851392
 20
-925.22106294
 10
2390.58851392
 20
-925.48208867
 10
2390.08851392
 20
-925.54508966
 10
2390.58851392
 20
-925.21204118
 10
2391.58851392
 20
-924.95101546
 10
2392.08851392
 20
-924.88801446
 10
2390.08851392
 20
-925.54508966
  0
LWPOLYLINE
  5
44C
100
AcDbEntity
  8
Sc.1_5
 62
     9
  6
CONTINUOUS
370
    20
100
AcDbPolyline
 90
        8
 70
     1
 43
0.0
 38
548.63999023
 39
-548.63999023
 10
2392.08851392
 20
-923.65077685
 10
2391.58851392
 20
-923.98382533
 10
2390.58851392
 20
-924.24485106
 10
2390.08851392
 20
-924.30785205
 10
2390.58851392
 20
-923.97480357
 10
2391.58851392
 20
-923.71377784
 10
2392.08851392
 20
-923.65077685
 10
2390.08851392
 20
-924.30785205
  0
LWPOLYLINE
  5
44D
100
AcDbEntity
  8
Sc.1_5
 62
     9
  6
CONTINUOUS
370
    20
100
AcDbPolyline
 90
        8
 70
     1
 43
0.0
 38
548.63999023
 39
-548.63999023
 10
2392.08851392
 20
-922.41353924
 10
2391.58851392
 20
-922.74658772
 10
2390.58851392
 20
-923.00761344
 10
2390.08851392
 20
-923.07061444
 10
2390.58851392
 20
-922.73756596
 10
2391.58851392
 20
-922.47654023
 10
2392.08851392
 20
-922.41353924
 10
2390.08851392
 20
-923.07061444
  0
LWPOLYLINE
  5
44E
100
AcDbEntity
  8
Sc.1_5
 62
     9
  6
CONTINUOUS
370
    20
100
AcDbPolyline
 90
        8
 70
     1
 43
0.0
 38
548.63999023
 39
-548.63999023
 10
2392.08851392
 20
-921.17630163
 10
2391.58851392
 20
-921.50935011
 10
2390.58851392
 20
-921.77037583
 10
2390.08851392
 20
-921.83337682
 10
2390.58851392
 20
-921.50032835
 10
2391.58851392
 20
-921.23930262
 10
2392.08851392
 20
-921.17630163
 10
2390.08851392
 20
-921.83337682
  0
LWPOLYLINE
  5
44F
100
AcDbEntity
  8
Sc.1_5
 62
     9
  6
CONTINUOUS
370
    20
100
AcDbPolyline
 90
        8
 70
     1
 43
0.0
 38
548.63999023
 39
-548.63999023
 10
2392.08851392
 20
-919.93906402
 10
2391.58851392
 20
-920.27211249
 10
2390.58851392
 20
-920.53313822
 10
2390.08851392
 20
-920.59613921
 10
2390.58851392
 20
-920.26309074
 10
2391.58851392
 20
-920.00206501
 10
2392.08851392
 20
-919.93906402
 10
2390.08851392
 20
-920.59613921
  0
LWPOLYLINE
  5
450
100
AcDbEntity
  8
Sc.1_5
 62
     9
  6
CONTINUOUS
370
    20
100
AcDbPolyline
 90
        8
 70
     1
 43
0.0
 38
548.63999023
 39
-548.63999023
 10
2392.08851392
 20
-918.7018264
 10
2391.58851392
 20
-919.03487488
 10
2390.58851392
 20
-919.29590061
 10
2390.08851392
 20
-919.3589016
 10
2390.58851392
 20
-919.02585312
 10
2391.58851392
 20
-918.7648274
 10
2392.08851392
 20
-918.7018264
 10
2390.08851392
 20
-919.3589016
  0
LWPOLYLINE
  5
451
100
AcDbEntity
  8
Sc.1_5
 62
     9
  6
CONTINUOUS
370
    20
100
AcDbPolyline
 90
        8
 70
     1
 43
0.0
 38
548.63999023
 39
-548.63999023
 10
2392.08851392
 20
-917.46458879
 10
2391.58851392
 20
-917.79763727
 10
2390.58851392
 20
-918.058663
 10
2390.08851392
 20
-918.12166399
 10
2390.58851392
 20
-917.78861551
 10
2391.58851392
 20
-917.52758979
 10
2392.08851392
 20
-917.46458879
 10
2390.08851392
 20
-918.12166399
  0
LWPOLYLINE
  5
452
100
AcDbEntity
  8
Sc.1_5
 62
     9
  6
CONTINUOUS
370
    20
100
AcDbPolyline
 90
        8
 70
     1
 43
0.0
 38
548.63999023
 39
-548.63999023
 10
2392.08851392
 20
-916.22735118
 10
2391.58851392
 20
-916.56039966
 10
2390.58851392
 20
-916.82142539
 10
2390.08851392
 20
-916.88442638
 10
2390.58851392
 20
-916.5513779
 10
2391.58851392
 20
-916.29035217
 10
2392.08851392
 20
-916.22735118
 10
2390.08851392
 20
-916.88442638
  0
LWPOLYLINE
  5
453
100
AcDbEntity
  8
Sc.1_5
 62
     9
  6
CONTINUOUS
370
    20
100
AcDbPolyline
 90
        8
 70
     1
 43
0.0
 38
548.63999023
 39
-548.63999023
 10
2392.08851392
 20
-914.99011357
 10
2391.58851392
 20
-915.32316205
 10
2390.58851392
 20
-915.58418777
 10
2390.08851392
 20
-915.64718877
 10
2390.58851392
 20
-915.31414029
 10
2391.58851392
 20
-915.05311456
 10
2392.08851392
 20
-914.99011357
 10
2390.08851392
 20
-915.64718877
  0
LWPOLYLINE
  5
454
100
AcDbEntity
  8
Sc.1_5
 62
     9
  6
CONTINUOUS
370
    20
100
AcDbPolyline
 90
        8
 70
     1
 43
0.0
 38
548.63999023
 39
-548.63999023
 10
2392.08851392
 20
-913.75287596
 10
2391.58851392
 20
-914.08592444
 10
2390.58851392
 20
-914.34695016
 10
2390.08851392
 20
-914.40995115
 10
2390.58851392
 20
-914.07690268
 10
2391.58851392
 20
-913.81587695
 10
2392.08851392
 20
-913.75287596
 10
2390.08851392
 20
-914.40995115
  0
LWPOLYLINE
  5
455
100
AcDbEntity
  8
Sc.1_5
 62
     9
  6
CONTINUOUS
370
    20
100
AcDbPolyline
 90
        8
 70
     1
 43
0.0
 38
548.63999023
 39
-548.63999023
 10
2392.08851392
 20
-912.51563835
 10
2391.58851392
 20
-912.84868682
 10
2390.58851392
 20
-913.10971255
 10
2390.08851392
 20
-913.17271354
 10
2390.58851392
 20
-912.83966506
 10
2391.58851392
 20
-912.57863934
 10
2392.08851392
 20
-912.51563835
 10
2390.08851392
 20
-913.17271354
  0
LWPOLYLINE
  5
456
100
AcDbEntity
  8
Sc.1_5
 62
     9
  6
CONTINUOUS
370
    20
100
AcDbPolyline
 90
        8
 70
     1
 43
0.0
 38
548.63999023
 39
-548.63999023
 10
2392.08851392
 20
-911.27840073
 10
2391.58851392
 20
-911.61144921
 10
2390.58851392
 20
-911.87247494
 10
2390.08851392
 20
-911.93547593
 10
2390.58851392
 20
-911.60242745
 10
2391.58851392
 20
-911.34140173
 10
2392.08851392
 20
-911.27840073
 10
2390.08851392
 20
-911.93547593
  0
LWPOLYLINE
  5
457
100
AcDbEntity
  8
Sc.1_5
 62
     9
  6
CONTINUOUS
370
    20
100
AcDbPolyline
 90
        8
 70
     1
 43
0.0
 38
548.63999023
 39
-548.63999023
 10
2392.08851392
 20
-910.04116312
 10
2391.58851392
 20
-910.3742116
 10
2390.58851392
 20
-910.63523733
 10
2390.08851392
 20
-910.69823832
 10
2390.58851392
 20
-910.36518984
 10
2391.58851392
 20
-910.10416411
 10
2392.08851392
 20
-910.04116312
 10
2390.08851392
 20
-910.69823832
  0
LWPOLYLINE
  5
458
100
AcDbEntity
  8
Sc.1_5
 62
     9
  6
CONTINUOUS
370
    20
100
AcDbPolyline
 90
        8
 70
     1
 43
0.0
 38
548.63999023
 39
-548.63999023
 10
2392.08851392
 20
-908.80392551
 10
2391.58851392
 20
-909.13697399
 10
2390.58851392
 20
-909.39799972
 10
2390.08851392
 20
-909.46100071
 10
2390.58851392
 20
-909.12795223
 10
2391.58851392
 20
-908.8669265
 10
2392.08851392
 20
-908.80392551
 10
2390.08851392
 20
-909.46100071
  0
LWPOLYLINE
  5
459
100
AcDbEntity
  8
Sc.1_5
 62
     9
  6
CONTINUOUS
370
    20
100
AcDbPolyline
 90
        8
 70
     1
 43
0.0
 38
548.63999023
 39
-548.63999023
 10
2392.08851392
 20
-907.5666879
 10
2391.58851392
 20
-907.89973638
 10
2390.58851392
 20
-908.1607621
 10
2390.08851392
 20
-908.2237631
 10
2390.58851392
 20
-907.89071462
 10
2391.58851392
 20
-907.62968889
 10
2392.08851392
 20
-907.5666879
 10
2390.08851392
 20
-908.2237631
  0
LWPOLYLINE
  5
45A
100
AcDbEntity
  8
Sc.1_5
 62
     9
  6
CONTINUOUS
370
    20
100
AcDbPolyline
 90
        6
 70
     1
 43
0.0
 38
548.63999023
 39
-548.63999023
 10
2390.22243821
 20
-951.15777692
 10
2390.58851392
 20
-950.95119674
 10
2391.58851392
 20
-950.75542327
 10
2391.95043827
 20
-950.75236285
 10
2391.58851392
 20
-950.96031313
 10
2390.58851392
 20
-951.22534017
  0
LINE
  5
45B
100
AcDbEntity
  8
Sc.1_5
 62
     9
  6
CONTINUOUS
 48
0.25
370
    20
100
AcDbLine
 10
2390.22243821
 20
-951.15777692
 30
548.63999023
 11
2391.95043827
 21
-950.75236285
 31
548.63999023
  0
LWPOLYLINE
  5
45C
100
AcDbEntity
  8
Sc.1_5
 62
     9
  6
CONTINUOUS
370
    20
100
AcDbPolyline
 90
        6
 70
     1
 43
0.0
 38
548.63999023
 39
-548.63999023
 10
2390.39558416
 20
-952.10374885
 10
2390.67009228
 20
-951.96865695
 10
2391.5027842
 20
-951.83339208
 10
2391.77729232
 20
-951.83339208
 10
2391.47825766
 20
-951.98637865
 10
2390.71552178
 20
-952.16071828
  0
LINE
  5
45D
100
AcDbEntity
  8
Sc.1_5
 62
     9
  6
CONTINUOUS
 48
0.25
370
    20
100
AcDbLine
 10
2390.39558416
 20
-952.10374885
 30
548.63999023
 11
2391.77729232
 21
-951.83339208
 31
548.63999023
  0
LINE
  5
45E
100
AcDbEntity
  8
Sc.1_5
 62
     7
  6
CONTINUOUS
100
AcDbLine
 10
2386.42908928
 20
-824.3921423
 30
0.0
 11
2388.92908931
 21
-819.39214222
 31
0.0
  0
LINE
  5
45F
100
AcDbEntity
  8
Sc.1_5
 62
     7
  6
CONTINUOUS
100
AcDbLine
 10
2388.92908931
 20
-819.39214222
 30
0.0
 11
2405.55522565
 21
-819.39214222
 31
0.0
  0
LINE
  5
460
100
AcDbEntity
  8
Sc.1_5
 62
     7
  6
CONTINUOUS
100
AcDbLine
 10
2357.35594953
 20
-819.39214222
 30
0.0
 11
2378.92908916
 21
-819.39214222
 31
0.0
  0
LINE
  5
461
100
AcDbEntity
  8
Sc.1_5
 62
     7
  6
CONTINUOUS
100
AcDbLine
 10
2378.92908916
 20
-819.39214222
 30
0.0
 11
2381.4290892
 21
-814.39214215
 31
0.0
  0
LINE
  5
462
100
AcDbEntity
  8
Sc.1_5
 62
     7
  6
CONTINUOUS
100
AcDbLine
 10
2381.4290892
 20
-814.39214215
 30
0.0
 11
2386.42908928
 21
-824.3921423
 31
0.0
  0
LINE
  5
463
100
AcDbEntity
  8
Sc.1_5
 62
     7
  6
CONTINUOUS
 48
0.5
370
    -3
100
AcDbLine
 10
2432.82628186
 20
-845.54285606
 30
500.0
 11
2390.74727092
 21
-845.54285606
 31
500.0
  0
INSERT
  5
464
100
AcDbEntity
  8
Sc.1_5
 62
     7
  6
CONTINUOUS
370
    -3
100
AcDbBlockReference
  2
CDWK_EXTR_2
 10
2390.74727092
 20
-845.54285606
 30
500.0
 41
1.0
 42
1.0
 43
1.0
  0
LINE
  5
465
100
AcDbEntity
  8
Sc.1_5
 62
     7
  6
CONTINUOUS
 48
0.5
370
    -3
100
AcDbLine
 10
2433.54218575
 20
-953.51435311
 30
500.0
 11
2425.58811954
 21
-943.61330035
 31
500.0
  0
INSERT
  5
466
100
AcDbEntity
  8
Sc.1_5
 62
     7
  6
CONTINUOUS
370
    -3
100
AcDbBlockReference
  2
CDWK_EXTR_2
 10
2425.58811954
 20
-943.61330035
 30
500.0
 41
1.0
 42
1.0
 43
1.0
 50
308.77684939
  0
LINE
  5
467
100
AcDbEntity
  8
Sc.1_5
 62
     7
  6
CONTINUOUS
 48
0.5
370
    -3
100
AcDbLine
 10
2432.82628186
 20
-894.1562596
 30
500.0
 11
2410.55949219
 21
-909.04727808
 31
500.0
  0
INSERT
  5
468
100
AcDbEntity
  8
Sc.1_5
 62
     7
  6
CONTINUOUS
370
    -3
100
AcDbBlockReference
  2
CDWK_EXTR_2
 10
2410.55949219
 20
-909.04727808
 30
500.0
 41
1.0
 42
1.0
 43
1.0
 50
33.77280916
  0
LINE
  5
469
100
AcDbEntity
  8
Sc.1_5
 62
     7
  6
CONTINUOUS
 48
0.5
370
    -3
100
AcDbLine
 10
2432.82628186
 20
-981.27612086
 30
500.0
 11
2390.74727092
 21
-981.27612086
 31
500.0
  0
INSERT
  5
46A
100
AcDbEntity
  8
Sc.1_5
 62
     7
  6
CONTINUOUS
370
    -3
100
AcDbBlockReference
  2
CDWK_EXTR_2
 10
2390.74727092
 20
-981.27612086
 30
500.0
 41
1.0
 42
1.0
 43
1.0
  0
LINE
  5
46B
100
AcDbEntity
  8
Sc.1_5
 62
     7
  6
CONTINUOUS
 48
0.5
370
    -3
100
AcDbLine
 10
2433.24248457
 20
-883.82684592
 30
500.0
 11
2378.22050293
 21
-925.30715016
 31
500.0
  0
INSERT
  5
46C
100
AcDbEntity
  8
Sc.1_5
 62
     7
  6
CONTINUOUS
370
    -3
100
AcDbBlockReference
  2
CDWK_EXTR_2
 10
2378.22050293
 20
-925.30715016
 30
500.0
 41
1.0
 42
1.0
 43
1.0
 50
37.01213066
  0
LINE
  5
46D
100
AcDbEntity
  8
Sc.1_5
 62
     7
  6
CONTINUOUS
 48
0.5
370
    -3
100
AcDbLine
 10
2433.39443765
 20
-861.46183392
 30
500.0
 11
2400.23214673
 21
-886.45924264
 31
500.0
  0
INSERT
  5
46E
100
AcDbEntity
  8
Sc.1_5
 62
     7
  6
CONTINUOUS
370
    -3
100
AcDbBlockReference
  2
CDWK_EXTR_2
 10
2400.23214673
 20
-886.45924264
 30
500.0
 41
1.0
 42
1.0
 43
1.0
 50
37.00862766
  0
TEXT
  5
46F
100
AcDbEntity
  8
Sc.1_5
 62
     7
370
    18
100
AcDbText
 10
2433.82805052
 20
-846.79285606
 30
0.0
 40
2.5
  1
Stud frame wall to NZS3604:2011
  7
TAHOMA
 50
0.0
 41
0.8
 51
0.0
100
AcDbText
  0
TEXT
  5
470
100
AcDbEntity
  8
Sc.1_5
 62
     7
370
    35
100
AcDbText
 10
2433.82805052
 20
-895.4062596
 30
0.0
 40
2.5
  1
Woodspan PLT floor panel
  7
TAHOMA
 50
0.0
 41
0.8
 51
0.0
100
AcDbText
  0
TEXT
  5
471
100
AcDbEntity
  8
Sc.1_5
 62
     7
370
    18
100
AcDbText
 10
2433.82805052
 20
-898.9062596
 30
0.0
 40
2.5
  1
fixings as per engineer's details
  7
TAHOMA
 50
0.0
 41
0.8
 51
0.0
100
AcDbText
  0
TEXT
  5
472
100
AcDbEntity
  8
Sc.1_5
 62
     7
370
    18
100
AcDbText
 10
2433.82805052
 20
-954.74498301
 30
0.0
 40
2.5
  1
Ceiling, depending on aesthetic and
  7
TAHOMA
 50
0.0
 41
0.8
 51
0.0
100
AcDbText
  0
TEXT
  5
473
100
AcDbEntity
  8
Sc.1_5
 62
     7
370
    18
100
AcDbText
 10
2433.82805052
 20
-958.24498301
 30
0.0
 40
2.5
  1
acoustic requirements
  7
TAHOMA
 50
0.0
 41
0.8
 51
0.0
100
AcDbText
  0
TEXT
  5
474
100
AcDbEntity
  8
Sc.1_5
 62
     7
370
    18
100
AcDbText
 10
2433.82805052
 20
-982.52612086
 30
0.0
 40
2.5
  1
Stud frame wall to NZS3604:2011
  7
TAHOMA
 50
0.0
 41
0.8
 51
0.0
100
AcDbText
  0
TEXT
  5
475
100
AcDbEntity
  8
Sc.1_5
 62
     7
370
    18
100
AcDbText
 10
2433.82805052
 20
-883.04048925
 30
0.0
 40
2.5
  1
Insulation to reduce thermal bridging and
  7
TAHOMA
 50
0.0
 41
0.8
 51
0.0
100
AcDbText
  0
TEXT
  5
476
100
AcDbEntity
  8
Sc.1_5
 62
     7
370
    18
100
AcDbText
 10
2433.82805052
 20
-886.54048925
 30
0.0
 40
2.5
  1
allow continuous internal vapour barrier
  7
TAHOMA
 50
0.0
 41
0.8
 51
0.0
100
AcDbText
  0
TEXT
  5
477
100
AcDbEntity
  8
Sc.1_5
 62
     7
370
    18
100
AcDbText
 10
2433.82805052
 20
-861.4199341
 30
0.0
 40
2.5
  1
Continuous vapour barrier
  7
TAHOMA
 50
0.0
 41
0.8
 51
0.0
100
AcDbText
  0
TEXT
  5
478
100
AcDbEntity
  8
Sc.1_5
 62
     7
370
    18
100
AcDbText
 10
2433.82805052
 20
-864.9199341
 30
0.0
 40
2.5
  1
(only if required)
  7
TAHOMA
 50
0.0
 41
0.8
 51
0.0
100
AcDbText
  0
TEXT
  5
479
100
AcDbEntity
  8
LEGEND
 62
     7
370
    -3
100
AcDbText
 10
2509.4863601
 20
-1050.08795572
 30
0.0
 40
1.60000002
  1
Date
  7
TAHOMA
 50
0.0
 41
1.0
 51
0.0
100
AcDbText
  0
TEXT
  5
47A
100
AcDbEntity
  8
LEGEND
 62
     7
370
    -3
100
AcDbText
 10
2494.57811143
 20
-1058.71913647
 30
0.0
 40
1.60000002
  1
Detail
  7
TAHOMA
 50
0.0
 41
1.0
 51
0.0
100
AcDbText
  0
TEXT
  5
47B
100
AcDbEntity
  8
LEGEND
 62
     7
370
    18
100
AcDbText
 10
2498.00572667
 20
-1054.52910833
 30
0.0
 40
2.79999995
  1
1.0
  7
TAHOMA
 50
0.0
 41
1.0
 51
0.0
100
AcDbText
  0
TEXT
  5
47C
100
AcDbEntity
  8
LEGEND
 62
     7
370
    -3
100
AcDbText
 10
2494.57811143
 20
-1050.08795572
 30
0.0
 40
1.60000002
  1
Version
  7
TAHOMA
 50
0.0
 41
1.0
 51
0.0
100
AcDbText
  0
TEXT
  5
47D
100
AcDbEntity
  8
LEGEND
 62
     7
370
    -3
100
AcDbText
 10
2363.63732012
 20
-1050.08795572
 30
0.0
 40
1.60000002
  1
Phone:
  7
TAHOMA
 50
0.0
 41
1.0
 51
0.0
100
AcDbText
  0
TEXT
  5
47E
100
AcDbEntity
  8
LEGEND
 62
     7
370
    -3
100
AcDbText
 10
2363.63732012
 20
-1054.20874289
 30
0.0
 40
1.60000002
  1
Email:
  7
TAHOMA
 50
0.0
 41
1.0
 51
0.0
100
AcDbText
  0
TEXT
  5
47F
100
AcDbEntity
  8
LEGEND
 62
     7
370
    -3
100
AcDbText
 10
2363.63732012
 20
-1058.32953005
 30
0.0
 40
1.60000002
  1
Web:
  7
TAHOMA
 50
0.0
 41
1.0
 51
0.0
100
AcDbText
  0
TEXT
  5
480
100
AcDbEntity
  8
LEGEND
 62
     7
370
    18
100
AcDbText
 10
2373.53930109
 20
-1050.88795572
 30
0.0
 40
2.4000001
  1
06 755 9000
  7
TAHOMA
 50
0.0
 41
1.0
 51
0.0
100
AcDbText
  0
TEXT
  5
481
100
AcDbEntity
  8
LEGEND
 62
     7
370
    18
100
AcDbText
 10
2373.53930109
 20
-1055.00874289
 30
0.0
 40
2.4000001
  1
info@woodspan.co.nz
  7
TAHOMA
 50
0.0
 41
1.0
 51
0.0
100
AcDbText
  0
TEXT
  5
482
100
AcDbEntity
  8
LEGEND
 62
     7
370
    18
100
AcDbText
 10
2373.53930109
 20
-1059.12953005
 30
0.0
 40
2.4000001
  1
www.woodspan.co.nz
  7
TAHOMA
 50
0.0
 41
1.0
 51
0.0
100
AcDbText
  0
TEXT
  5
483
100
AcDbEntity
  8
LEGEND
 62
     7
370
    18
100
AcDbText
 10
2363.58968584
 20
-1063.25031721
 30
0.0
 40
2.4000001
  1
Connett Road, Bell Block, New Plymouth
  7
TAHOMA
 50
0.0
 41
1.0
 51
0.0
100
AcDbText
  0
TEXT
  5
484
100
AcDbEntity
  8
LEGEND
 62
     7
370
    18
100
AcDbText
 10
2510.57200957
 20
-1054.32910833
 30
0.0
 40
2.4000001
  1
11.07.2019
  7
TAHOMA
 50
0.0
 41
1.0
 51
0.0
100
AcDbText
  0
TEXT
  5
485
100
AcDbEntity
  8
LEGEND
 62
     7
370
    18
100
AcDbText
 10
2502.6053878
 20
-1062.26246302
 30
0.0
 40
4.0
  1

  7
TAHOMA
 50
0.0
 41
0.95
 51
0.0
100
AcDbText
  0
TEXT
  5
486
100
AcDbEntity
  8
LEGEND
 62
     7
370
    18
100
AcDbText
 10
2503.37109103
 20
-1062.58554495
 30
0.0
 40
4.0
  1
PLT 2.4
  7
TAHOMA
 50
0.0
 41
0.95
 51
0.0
100
AcDbText
  0
TEXT
  5
487
100
AcDbEntity
  8
LEGEND
 62
     7
370
    18
100
AcDbText
 10
2422.58118466
 20
-1054.66228266
 30
0.0
 40
4.0
  1
PLT mid floor
  7
TAHOMA
 50
0.0
 41
0.95
 51
0.0
100
AcDbText
  0
TEXT
  5
488
100
AcDbEntity
  8
LEGEND
 62
     7
370
    18
100
AcDbText
 10
2422.58118466
 20
-1061.42145705
 30
0.0
 40
4.0
  1
Platform Framing - Option 2
  7
TAHOMA
 50
0.0
 41
0.95
 51
0.0
100
AcDbText
  0
TEXT
  5
489
100
AcDbEntity
  8
LEGEND
 62
     7
370
    18
100
AcDbText
 10
2415.21254509
 20
-1045.12756884
 30
0.0
 40
2.4000001
  1
Indicative details only
  7
TAHOMA
 50
0.0
 41
1.0
 51
0.0
100
AcDbText
  0
ENDSEC
  0
SECTION
  2
OBJECTS
  0
DICTIONARY
  5
1
100
AcDbDictionary
  3
ACAD_GROUP
350
2
  3
ACAD_MLINESTYLE
350
3
  0
DICTIONARY
  5
2
102
{CDWK_REACTORS
330
1
102
}
100
AcDbDictionary
  0
DICTIONARY
  5
3
102
{CDWK_REACTORS
330
1
102
}
100
AcDbDictionary
  3
STANDARD
350
4
  0
MLINESTYLE
  5
4
102
{CDWK_REACTORS
330
3
102
}
100
AcDbMlineStyle
  2
STANDARD
 70
     0
  3

 62
     0
 51
90.0
 52
90.0
 71
     2
 49
0.5
 62
   256
  6
BYLAYER
 49
-0.5
 62
   256
  6
BYLAYER
  0
ENDSEC
  0
EOF
