  0
SECTION
  2
HEADER
  9
$ACADVER
  1
AC1014
  9
$DWGCODEPAGE
  3
ANSI_1252
  9
$INSBASE
 10
0.0
 20
0.0
 30
0.0
  9
$EXTMIN
 10
1604.1442253
 20
-1942.22101287
  9
$EXTMAX
 10
1801.46102669
 20
-1671.22101287
  9
$LIMMIN
 10
1604.1442253
 20
-1942.22101287
  9
$LIMMAX
 10
1801.46102669
 20
-1671.22101287
  9
$ORTHOMODE
 70
     0
  9
$REGENMODE
 70
     1
  9
$FILLMODE
 70
     1
  9
$QTEXTMODE
 70
     0
  9
$MIRRTEXT
 70
     1
  9
$DRAGMODE
 70
     2
  9
$LTSCALE
 40
1.0
  9
$OSMODE
 70
     0
  9
$ATTMODE
 70
     1
  9
$TEXTSIZE
 40
3.5
  9
$TRACEWID
 40
1.0
  9
$TEXTSTYLE
  7
STANDARD
  9
$CLAYER
  8
0
  9
$CELTYPE
  6
BYLAYER
  9
$CECOLOR
 62
   256
  9
$DIMSCALE
 40
1.0
  9
$DIMASZ
 40
2.0
  9
$DIMEXO
 40
5.0
  9
$DIMDLI
 40
10.0
  9
$DIMRND
 40
0.0
  9
$DIMDLE
 40
2.0
  9
$DIMEXE
 40
2.0
  9
$DIMTP
 40
0.0
  9
$DIMTM
 40
0.0
  9
$DIMTXT
 40
2.1
  9
$DIMCEN
 40
1.5
  9
$DIMTSZ
 40
0.0
  9
$DIMTOL
 70
     0
  9
$DIMLIM
 70
     0
  9
$DIMTIH
 70
     1
  9
$DIMTOH
 70
     0
  9
$DIMSE1
 70
     0
  9
$DIMSE2
 70
     0
  9
$DIMTAD
 70
     1
  9
$DIMZIN
 70
     8
  9
$DIMBLK
  1

  9
$DIMASO
 70
     1
  9
$DIMSHO
 70
     1
  9
$DIMPOST
  1

  9
$DIMAPOST
  1

  9
$DIMALT
 70
     0
  9
$DIMALTD
 70
     2
  9
$DIMALTF
 40
25.4
  9
$DIMLFAC
 40
1.0
  9
$DIMTOFL
 70
     0
  9
$DIMTVP
 40
0.0
  9
$DIMTIX
 70
     0
  9
$DIMSOXD
 70
     0
  9
$DIMSAH
 70
     0
  9
$DIMBLK1
  1

  9
$DIMBLK2
  1

  9
$DIMSTYLE
  2
*UNNAMED
  9
$DIMCLRD
 70
     5
  9
$DIMCLRE
 70
     5
  9
$DIMCLRT
 70
     5
  9
$DIMTFAC
 40
1.0
  9
$DIMGAP
 40
0.09
  9
$DIMUNIT
 70
     2
  9
$LUNITS
 70
     2
  9
$LUPREC
 70
     6
  9
$AXISMODE
 70
     0
  9
$AXISUNIT
 10
0.0
 20
0.0
  9
$SKETCHINC
 40
0.1
  9
$FILLETRAD
 40
0.0
  9
$AUNITS
 70
     0
  9
$AUPREC
 70
     0
  9
$MENU
  1
ACAD
  9
$ELEVATION
 40
0.0
  9
$PELEVATION
 40
0.0
  9
$THICKNESS
 40
0.0
  9
$LIMCHECK
 70
     0
  9
$BLIPMODE
 70
     1
  9
$CHAMFERA
 40
0.0
  9
$CHAMFERB
 40
0.0
  9
$SKPOLY
 70
     1
  9
$TDCREATE
 40
2458675.0000000000
  9
$TDUPDATE
 40
2458675.0000000000
  9
$TDINDWG
 40
0.0
  9
$TDUSRTIMER
 40
0.0
  9
$USRTIMER
 70
     1
  9
$ANGBASE
 50
0.0
  9
$ANGDIR
 70
     0
  9
$PDMODE
 70
     0
  9
$PDSIZE
 40
0.0
  9
$PLINEWID
 40
0.0
  9
$COORDS
 70
     2
  9
$SPLFRAME
 70
     0
  9
$SPLINETYPE
 70
     6
  9
$SPLINESEGS
 70
     8
  9
$ATTDIA
 70
     1
  9
$ATTREQ
 70
     1
  9
$HANDLING
 70
     1
  9
$HANDSEED
  5
     577
  9
$SURFTAB1
 70
     6
  9
$SURFTAB2
 70
     6
  9
$SURFTYPE
 70
     6
  9
$SURFU
 70
     6
  9
$SURFV
 70
     6
  9
$UCSNAME
  2

  9
$UCSORG
 10
0.0
 20
0.0
 30
0.0
  9
$UCSXDIR
 10
1.0
 20
0.0
 30
0.0
  9
$UCSYDIR
 10
0.0
 20
1.0
 30
0.0
  9
$PUCSNAME
  2

  9
$PUCSORG
 10
0.0
 20
0.0
 30
0.0
  9
$PUCSXDIR
 10
1.0
 20
0.0
 30
0.0
  9
$PUCSYDIR
 10
0.0
 20
1.0
 30
0.0
  9
$USERI1
 70
     0
  9
$USERI2
 70
     0
  9
$USERI3
 70
     0
  9
$USERI4
 70
     0
  9
$USERI5
 70
     0
  9
$USERR1
 40
0.0
  9
$USERR2
 40
0.0
  9
$USERR3
 40
0.0
  9
$USERR4
 40
0.0
  9
$USERR5
 40
0.0
  9
$WORLDVIEW
 70
     1
  9
$SHADEDGE
 70
     3
  9
$SHADEDIF
 70
    70
  9
$TILEMODE
 70
     1
  9
$MAXACTVP
 70
    16
  9
$PINSBASE
 10
0.0
 20
0.0
 30
0.0
  9
$PLIMCHECK
 70
     0
  9
$PEXTMIN
 10
1.0000000000000E+20
 20
1.0000000000000E+20
 30
1.0000000000000E+20
  9
$PEXTMAX
 10
-1.0000000000000E+20
 20
-1.0000000000000E+20
 30
-1.0000000000000E+20
  9
$PLIMMIN
 10
0.0
 20
0.0
  9
$UNITMODE
 70
     0
  9
$VISRETAIN
 70
     0
  9
$MEASUREMENT
 70
     1
  0
ENDSEC
  0
SECTION
  2
TABLES
  0
TABLE
  2
VPORT
  5
1B2
100
AcDbSymbolTable
 70
     1
  0
ENDTAB
  0
TABLE
  2
STYLE
  5
1B3
100
AcDbSymbolTable
 70
     3
  0
STYLE
  5
1B4
100
AcDbSymbolTableRecord
100
AcDbTextStyleTableRecord
  2
STANDARD
 70
     0
 40
0.0
 41
1.0
 50
0.0
 71
     0
 42
3.5
  3
MONOTXT
  4

  0
STYLE
  5
1B5
100
AcDbSymbolTableRecord
100
AcDbTextStyleTableRecord
  2
SYMAP
 70
     0
 40
0.0
 41
1.0
 50
0.0
 71
     0
 42
3.5
  3
SYMAP
  4

  0
STYLE
  5
1B6
100
AcDbSymbolTableRecord
100
AcDbTextStyleTableRecord
  2
CADWORK1
 70
     0
 40
0.0
 41
1.0
 50
0.0
 71
     0
 42
3.5
  3
MONOTXT
  4

  0
STYLE
  5
1B7
100
AcDbSymbolTableRecord
100
AcDbTextStyleTableRecord
  2
MONOTXT
 70
     0
 40
0.0
 41
1.0
 50
0.0
 71
     0
 42
3.5
  3
MONOTXT
  4

  0
STYLE
  5
1B8
100
AcDbSymbolTableRecord
100
AcDbTextStyleTableRecord
  2
TAHOMA
 70
     0
 40
0.0
 41
1.0
 50
0.0
 71
     0
 42
3.5
  3

  4

1001
ACAD
1000
Tahoma
1071
        0
  0
ENDTAB
  0
TABLE
  2
LTYPE
  5
1B9
100
AcDbSymbolTable
 70
    15
  0
LTYPE
  5
1BA
100
AcDbSymbolTableRecord
100
AcDbLinetypeTableRecord
  2
BYBLOCK
 70
    64
  3

 72
    65
 73
     0
 40
0.0
  0
LTYPE
  5
1BB
100
AcDbSymbolTableRecord
100
AcDbLinetypeTableRecord
  2
BYLAYER
 70
    64
  3

 72
    65
 73
     0
 40
0.0
  0
LTYPE
  5
1BC
100
AcDbSymbolTableRecord
100
AcDbLinetypeTableRecord
  2
CONTINUOUS
 70
    64
  3
Solid line
 72
    65
 73
     0
 40
0.0
  0
LTYPE
  5
1BD
100
AcDbSymbolTableRecord
100
AcDbLinetypeTableRecord
  2
DOT2
 70
    64
  3
...............................................
 72
    65
 73
     2
 40
1.25
 49
0.0
 74
     0
 49
-1.25
 74
     0
  0
LTYPE
  5
1BE
100
AcDbSymbolTableRecord
100
AcDbLinetypeTableRecord
  2
CADWORK_13
 70
    64
  3
13 =======================================
 72
    65
 73
     2
 40
4.0
 49
2.0
 74
     0
 49
-2.0
 74
     0
  0
LTYPE
  5
1BF
100
AcDbSymbolTableRecord
100
AcDbLinetypeTableRecord
  2
DASHED
 70
    64
  3
__ __ __ __ __ __ __ __ __ __ __ __ __ __ __ __
 72
    65
 73
     2
 40
7.5
 49
5.0
 74
     0
 49
-2.5
 74
     0
  0
LTYPE
  5
1C0
100
AcDbSymbolTableRecord
100
AcDbLinetypeTableRecord
  2
DASHDOT
 70
    64
  3
 __ . __ . __ . __ . __ . __ . __ . __ . __ . __
 72
    65
 73
     4
 40
10.0
 49
5.0
 74
     0
 49
-2.5
 74
     0
 49
0.0
 74
     0
 49
-2.5
 74
     0
  0
LTYPE
  5
1C1
100
AcDbSymbolTableRecord
100
AcDbLinetypeTableRecord
  2
CADWORK_16
 70
    64
  3
--´\,----´\,----´\,----´\,----´\,----´\,----´\,--
 72
    65
 73
     5
 40
17.0
 49
2.0
 74
     0
 49
0.0
 74
     2
 75
     0
340
1B4
 46
6.0
 50
170.0
 44
3.01999998
 45
5.57999992
  9
|
 49
-2.0999999
 74
     2
 75
     0
340
1B4
 46
12.0
 50
10.0
 44
-2.9000001
 45
-6.5999999
  9
|
 49
-2.0999999
 74
     2
 75
     0
340
1B4
 46
6.0
 50
170.0
 44
1.96000004
 45
-0.36000001
  9
|
 49
10.80000019
 74
     0
  0
LTYPE
  5
1C2
100
AcDbSymbolTableRecord
100
AcDbLinetypeTableRecord
  2
CADWORK_15
 70
    64
  3
15 =======================================
 72
    65
 73
     0
 40
0.0
  0
LTYPE
  5
1C3
100
AcDbSymbolTableRecord
100
AcDbLinetypeTableRecord
  2
DAL
 70
    64
  3
Solid line (for MAPS)
 72
    65
 73
     0
 40
0.0
  0
LTYPE
  5
1C4
100
AcDbSymbolTableRecord
100
AcDbLinetypeTableRecord
  2
MUR
 70
    64
  3
Solid line (for MAPS)
 72
    65
 73
     0
 40
0.0
  0
LTYPE
  5
1C5
100
AcDbSymbolTableRecord
100
AcDbLinetypeTableRecord
  2
SOM
 70
    64
  3
Solid line (for MAPS)
 72
    65
 73
     0
 40
0.0
  0
LTYPE
  5
1C6
100
AcDbSymbolTableRecord
100
AcDbLinetypeTableRecord
  2
COL
 70
    64
  3
Solid line (for MAPS)
 72
    65
 73
     0
 40
0.0
  0
LTYPE
  5
1C7
100
AcDbSymbolTableRecord
100
AcDbLinetypeTableRecord
  2
LGN
 70
    64
  3
Solid line (for MAPS)
 72
    65
 73
     0
 40
0.0
  0
LTYPE
  5
1C8
100
AcDbSymbolTableRecord
100
AcDbLinetypeTableRecord
  2
PNT
 70
    64
  3
Solid line (for MAPS)
 72
    65
 73
     0
 40
0.0
  0
ENDTAB
  0
TABLE
  2
LAYER
  5
1C9
100
AcDbSymbolTable
 70
    16
  0
LAYER
  5
1CA
100
AcDbSymbolTableRecord
100
AcDbLayerTableRecord
  2
0
 70
     0
 62
     1
  6
CONTINUOUS
370
    -3
  0
LAYER
  5
1CB
100
AcDbSymbolTableRecord
100
AcDbLayerTableRecord
  2
Standard
 70
     0
 62
     7
  6
CONTINUOUS
370
    -3
  0
LAYER
  5
1CC
100
AcDbSymbolTableRecord
100
AcDbLayerTableRecord
  2
Sc.1_1
 70
     0
 62
     7
  6
CONTINUOUS
370
    -3
  0
LAYER
  5
1CD
100
AcDbSymbolTableRecord
100
AcDbLayerTableRecord
  2
Sc.1_2
 70
     0
 62
     7
  6
CONTINUOUS
370
    -3
  0
LAYER
  5
1CE
100
AcDbSymbolTableRecord
100
AcDbLayerTableRecord
  2
Sc.1_5
 70
     0
 62
     7
  6
CONTINUOUS
370
    -3
  0
LAYER
  5
1CF
100
AcDbSymbolTableRecord
100
AcDbLayerTableRecord
  2
Sc.1_10
 70
     0
 62
     7
  6
CONTINUOUS
370
    -3
  0
LAYER
  5
1D0
100
AcDbSymbolTableRecord
100
AcDbLayerTableRecord
  2
Sc.1_20
 70
     0
 62
     7
  6
CONTINUOUS
370
    -3
  0
LAYER
  5
1D1
100
AcDbSymbolTableRecord
100
AcDbLayerTableRecord
  2
Sc.1_25
 70
     0
 62
     7
  6
CONTINUOUS
370
    -3
  0
LAYER
  5
1D2
100
AcDbSymbolTableRecord
100
AcDbLayerTableRecord
  2
Sc.1_33
 70
     0
 62
     7
  6
CONTINUOUS
370
    -3
  0
LAYER
  5
1D3
100
AcDbSymbolTableRecord
100
AcDbLayerTableRecord
  2
Sc.1_50
 70
     0
 62
     7
  6
CONTINUOUS
370
    -3
  0
LAYER
  5
1D4
100
AcDbSymbolTableRecord
100
AcDbLayerTableRecord
  2
Sc.1_75
 70
     0
 62
     7
  6
CONTINUOUS
370
    -3
  0
LAYER
  5
1D5
100
AcDbSymbolTableRecord
100
AcDbLayerTableRecord
  2
Sc.1_100
 70
     0
 62
     7
  6
CONTINUOUS
370
    -3
  0
LAYER
  5
1D6
100
AcDbSymbolTableRecord
100
AcDbLayerTableRecord
  2
Sc.1_200
 70
     0
 62
     7
  6
CONTINUOUS
370
    -3
  0
LAYER
  5
1D7
100
AcDbSymbolTableRecord
100
AcDbLayerTableRecord
  2
Sc.1_500
 70
     0
 62
     7
  6
CONTINUOUS
370
    -3
  0
LAYER
  5
1D8
100
AcDbSymbolTableRecord
100
AcDbLayerTableRecord
  2
Sc.1_1000
 70
     0
 62
     7
  6
CONTINUOUS
370
    -3
  0
LAYER
  5
1D9
100
AcDbSymbolTableRecord
100
AcDbLayerTableRecord
  2
Laser frames
 70
     0
 62
     7
  6
CONTINUOUS
370
    18
  0
LAYER
  5
1DA
100
AcDbSymbolTableRecord
100
AcDbLayerTableRecord
  2
LEGEND
 70
     0
 62
     7
  6
CONTINUOUS
370
    -3
  0
ENDTAB
  0
TABLE
  2
VIEW
  5
1DB
100
AcDbSymbolTable
 70
     0
  0
ENDTAB
  0
TABLE
  2
UCS
  5
1DC
100
AcDbSymbolTable
 70
     0
  0
ENDTAB
  0
TABLE
  2
APPID
  5
1DD
100
AcDbSymbolTable
 70
     1
  0
APPID
  5
1DE
100
AcDbSymbolTableRecord
100
AcDbRegAppTableRecord
  2
ACAD
 70
     0
  0
ENDTAB
  0
TABLE
  2
DIMSTYLE
  5
1DF
100
AcDbSymbolTable
 70
     0
  0
ENDTAB
  0
TABLE
  2
BLOCK_RECORD
  5
1E0
100
AcDbSymbolTable
 70
     0
  0
BLOCK_RECORD
  5
1E1
100
AcDbSymbolTableRecord
100
AcDbBlockTableRecord
  2
*MODEL_SPACE
  0
BLOCK_RECORD
  5
1E2
100
AcDbSymbolTableRecord
100
AcDbBlockTableRecord
  2
*PAPER_SPACE
  0
BLOCK_RECORD
  5
1E3
100
AcDbSymbolTableRecord
100
AcDbBlockTableRecord
  2
CDWK_EXTR_0
  0
BLOCK_RECORD
  5
1E4
100
AcDbSymbolTableRecord
100
AcDbBlockTableRecord
  2
CDWK_EXTR_1D
  0
BLOCK_RECORD
  5
1E5
100
AcDbSymbolTableRecord
100
AcDbBlockTableRecord
  2
CDWK_EXTR_1G
  0
BLOCK_RECORD
  5
1E6
100
AcDbSymbolTableRecord
100
AcDbBlockTableRecord
  2
CDWK_EXTR_2
  0
BLOCK_RECORD
  5
1E7
100
AcDbSymbolTableRecord
100
AcDbBlockTableRecord
  2
CDWK_EXTR_3
  0
BLOCK_RECORD
  5
1E8
100
AcDbSymbolTableRecord
100
AcDbBlockTableRecord
  2
CDWK_EXTR_4
  0
BLOCK_RECORD
  5
1E9
100
AcDbSymbolTableRecord
100
AcDbBlockTableRecord
  2
CDWK_PTTYP0
  0
BLOCK_RECORD
  5
1EA
100
AcDbSymbolTableRecord
100
AcDbBlockTableRecord
  2
*X1217
  0
BLOCK_RECORD
  5
1EB
100
AcDbSymbolTableRecord
100
AcDbBlockTableRecord
  2
*X1218
  0
BLOCK_RECORD
  5
1EC
100
AcDbSymbolTableRecord
100
AcDbBlockTableRecord
  2
*X1220
  0
BLOCK_RECORD
  5
1ED
100
AcDbSymbolTableRecord
100
AcDbBlockTableRecord
  2
*X1221
  0
BLOCK_RECORD
  5
1EE
100
AcDbSymbolTableRecord
100
AcDbBlockTableRecord
  2
*X2008
  0
BLOCK_RECORD
  5
1EF
100
AcDbSymbolTableRecord
100
AcDbBlockTableRecord
  2
*X2234
  0
BLOCK_RECORD
  5
1F0
100
AcDbSymbolTableRecord
100
AcDbBlockTableRecord
  2
*X2235
  0
BLOCK_RECORD
  5
1F1
100
AcDbSymbolTableRecord
100
AcDbBlockTableRecord
  2
*X2240
  0
BLOCK_RECORD
  5
1F2
100
AcDbSymbolTableRecord
100
AcDbBlockTableRecord
  2
*X2293
  0
BLOCK_RECORD
  5
1F3
100
AcDbSymbolTableRecord
100
AcDbBlockTableRecord
  2
*X2294
  0
BLOCK_RECORD
  5
1F4
100
AcDbSymbolTableRecord
100
AcDbBlockTableRecord
  2
*X2295
  0
BLOCK_RECORD
  5
1F5
100
AcDbSymbolTableRecord
100
AcDbBlockTableRecord
  2
*X2296
  0
ENDTAB
  0
ENDSEC
  0
SECTION
  2
BLOCKS
  0
BLOCK
  5
1F6
100
AcDbEntity
  8
0
100
AcDbBlockBegin
  2
*MODEL_SPACE
 70
     0
 10
0.0
 20
0.0
 30
0.0
  3
*MODEL_SPACE
  1

  0
ENDBLK
  5
1F7
100
AcDbEntity
100
AcDbBlockEnd
  0
BLOCK
  5
1F8
100
AcDbEntity
  8
0
100
AcDbBlockBegin
  2
*PAPER_SPACE
 70
     0
 10
0.0
 20
0.0
 30
0.0
  3
*PAPER_SPACE
  1

  0
ENDBLK
  5
1F9
100
AcDbEntity
100
AcDbBlockEnd
  0
BLOCK
  5
1FA
100
AcDbEntity
  8
0
100
AcDbBlockBegin
  2
CDWK_EXTR_0
 70
     0
 10
0.0
 20
0.0
 30
0.0
  3
CDWK_EXTR_0
  1

  4
Cadwork line-extremity
  0
LINE
  5
1FB
100
AcDbEntity
  8
0
 62
     0
370
    -2
100
AcDbLine
 10
0.0
 20
0.0
 30
0.0
 11
2.0
 21
0.5
 31
0.0
  0
LINE
  5
1FC
100
AcDbEntity
  8
0
 62
     0
370
    -2
100
AcDbLine
 10
0.0
 20
0.0
 30
0.0
 11
2.0
 21
-0.5
 31
0.0
  0
LINE
  5
1FD
100
AcDbEntity
  8
0
 62
     0
370
    -2
100
AcDbLine
 10
2.0
 20
0.5
 30
0.0
 11
2.0
 21
-0.5
 31
0.0
  0
ENDBLK
  5
1FE
100
AcDbEntity
100
AcDbBlockEnd
  0
BLOCK
  5
1FF
100
AcDbEntity
  8
0
100
AcDbBlockBegin
  2
CDWK_EXTR_1D
 70
     0
 10
0.0
 20
0.0
 30
0.0
  3
CDWK_EXTR_1D
  1

  4
Cadwork line-extremity
  0
LINE
  5
200
100
AcDbEntity
  8
0
 62
     0
370
    -2
100
AcDbLine
 10
0.0
 20
0.0
 30
0.0
 11
0.0
 21
1.0
 31
0.0
  0
LINE
  5
201
100
AcDbEntity
  8
0
 62
     0
370
    -2
100
AcDbLine
 10
0.0
 20
1.0
 30
0.0
 11
0.5
 21
1.5
 31
0.0
  0
LINE
  5
202
100
AcDbEntity
  8
0
 62
     0
370
    -2
100
AcDbLine
 10
0.5
 20
1.5
 30
0.0
 11
1.5
 21
1.5
 31
0.0
  0
ENDBLK
  5
203
100
AcDbEntity
100
AcDbBlockEnd
  0
BLOCK
  5
204
100
AcDbEntity
  8
0
100
AcDbBlockBegin
  2
CDWK_EXTR_1G
 70
     0
 10
0.0
 20
0.0
 30
0.0
  3
CDWK_EXTR_1G
  1

  4
Cadwork line-extremity
  0
LINE
  5
205
100
AcDbEntity
  8
0
 62
     0
370
    -2
100
AcDbLine
 10
0.0
 20
0.0
 30
0.0
 11
0.0
 21
-1.0
 31
0.0
  0
LINE
  5
206
100
AcDbEntity
  8
0
 62
     0
370
    -2
100
AcDbLine
 10
0.0
 20
-1.0
 30
0.0
 11
0.5
 21
-1.5
 31
0.0
  0
LINE
  5
207
100
AcDbEntity
  8
0
 62
     0
370
    -2
100
AcDbLine
 10
0.5
 20
-1.5
 30
0.0
 11
1.5
 21
-1.5
 31
0.0
  0
ENDBLK
  5
208
100
AcDbEntity
100
AcDbBlockEnd
  0
BLOCK
  5
209
100
AcDbEntity
  8
0
100
AcDbBlockBegin
  2
CDWK_EXTR_2
 70
     0
 10
0.0
 20
0.0
 30
0.0
  3
CDWK_EXTR_2
  1

  4
Cadwork line-extremity
  0
SOLID
  5
20A
100
AcDbEntity
  8
0
 62
     0
100
AcDbTrace
 10
0.0
 20
0.0
 11
2.0
 21
0.5
 12
2.0
 22
-0.5
 13
2.0
 23
-0.5
  0
ENDBLK
  5
20B
100
AcDbEntity
100
AcDbBlockEnd
  0
BLOCK
  5
20C
100
AcDbEntity
  8
0
100
AcDbBlockBegin
  2
CDWK_EXTR_3
 70
     0
 10
0.0
 20
0.0
 30
0.0
  3
CDWK_EXTR_3
  1

  4
Cadwork line-extremity
  0
SOLID
  5
20D
100
AcDbEntity
  8
0
 62
     0
100
AcDbTrace
 10
0.0
 20
0.0
 11
2.0
 21
0.5
 12
2.0
 22
-0.5
 13
2.0
 23
-0.5
  0
LINE
  5
20E
100
AcDbEntity
  8
0
 62
     0
370
    -2
100
AcDbLine
 10
0.0
 20
1.0
 30
0.0
 11
0.0
 21
-1.0
 31
0.0
  0
ENDBLK
  5
20F
100
AcDbEntity
100
AcDbBlockEnd
  0
BLOCK
  5
210
100
AcDbEntity
  8
0
100
AcDbBlockBegin
  2
CDWK_EXTR_4
 70
     0
 10
0.0
 20
0.0
 30
0.0
  3
CDWK_EXTR_4
  1

  4
Cadwork line-extremity
  0
HATCH
  5
211
100
AcDbEntity
  8
0
 62
     0
370
    -2
100
AcDbHatch
 10
0.0
 20
0.0
 30
0.0
210
0.0
220
0.0
230
1.0
  2
SOLID
 70
     1
 71
     0
 91
        1
 92
        1
 93
        1
 72
     2
 10
0.0
 20
0.0
 40
0.5
 50
0.0
 51
360.0
 73
     1
 97
        0
 75
     0
 76
     1
 98
        1
 10
0.0
 20
0.0
  0
ENDBLK
  5
212
100
AcDbEntity
100
AcDbBlockEnd
  0
BLOCK
  5
213
100
AcDbEntity
  8
0
100
AcDbBlockBegin
  2
CDWK_PTTYP0
 70
     0
 10
0.0
 20
0.0
 30
0.0
  3
CDWK_PTTYP0
  1

  4
Cadwork point
  0
POINT
  5
214
100
AcDbEntity
  8
0
 62
     0
100
AcDbPoint
 10
0.0
 20
0.0
 30
0.0
  0
ENDBLK
  5
215
100
AcDbEntity
100
AcDbBlockEnd
  0
BLOCK
  5
216
100
AcDbEntity
  8
Sc.1_5
100
AcDbBlockBegin
  2
*X1217
 70
     1
 10
0.0
 20
0.0
 30
0.0
  3
*X1217
  1

  4
Cadwork hatch
  0
LINE
  5
217
100
AcDbEntity
  8
Sc.1_5
 62
     9
  6
CONTINUOUS
370
    -2
100
AcDbLine
 10
1678.61949954
 20
-1784.60449723
 30
0.0
 11
1686.41373701
 21
-1780.10458462
 31
0.0
  0
LINE
  5
218
100
AcDbEntity
  8
Sc.1_5
 62
     9
  6
CONTINUOUS
370
    -2
100
AcDbLine
 10
1688.41369817
 20
-1783.56855844
 30
0.0
 11
1680.6194607
 21
-1788.06860277
 31
0.0
  0
ENDBLK
  5
219
100
AcDbEntity
100
AcDbBlockEnd
  0
BLOCK
  5
21A
100
AcDbEntity
  8
Sc.1_5
100
AcDbBlockBegin
  2
*X1218
 70
     1
 10
0.0
 20
0.0
 30
0.0
  3
*X1218
  1

  4
Cadwork hatch
  0
LINE
  5
21B
100
AcDbEntity
  8
Sc.1_5
 62
     9
  6
CONTINUOUS
370
    -2
100
AcDbLine
 10
1669.6195426
 20
-1769.01615401
 30
0.0
 11
1677.41378007
 21
-1764.51610968
 31
0.0
  0
LINE
  5
21C
100
AcDbEntity
  8
Sc.1_5
 62
     9
  6
CONTINUOUS
370
    -2
100
AcDbLine
 10
1679.41374123
 20
-1767.98021522
 30
0.0
 11
1671.61950376
 21
-1772.48012783
 31
0.0
  0
ENDBLK
  5
21D
100
AcDbEntity
100
AcDbBlockEnd
  0
BLOCK
  5
21E
100
AcDbEntity
  8
Sc.1_5
100
AcDbBlockBegin
  2
*X1220
 70
     1
 10
0.0
 20
0.0
 30
0.0
  3
*X1220
  1

  4
Cadwork hatch
  0
LINE
  5
21F
100
AcDbEntity
  8
Sc.1_5
 62
     9
  6
CONTINUOUS
370
    -2
100
AcDbLine
 10
1762.78817586
 20
-1740.62853353
 30
0.0
 11
1754.99393839
 21
-1745.12857786
 31
0.0
  0
LINE
  5
220
100
AcDbEntity
  8
Sc.1_5
 62
     9
  6
CONTINUOUS
370
    -2
100
AcDbLine
 10
1760.7882147
 20
-1737.16442799
 30
0.0
 11
1762.78817586
 21
-1740.62853353
 31
0.0
  0
ENDBLK
  5
221
100
AcDbEntity
100
AcDbBlockEnd
  0
BLOCK
  5
222
100
AcDbEntity
  8
Sc.1_5
100
AcDbBlockBegin
  2
*X1221
 70
     1
 10
0.0
 20
0.0
 30
0.0
  3
*X1221
  1

  4
Cadwork hatch
  0
LINE
  5
223
100
AcDbEntity
  8
Sc.1_5
 62
     9
  6
CONTINUOUS
370
    -2
100
AcDbLine
 10
1743.99402029
 20
-1726.07599738
 30
0.0
 11
1751.78825776
 21
-1721.57608477
 31
0.0
  0
LINE
  5
224
100
AcDbEntity
  8
Sc.1_5
 62
     9
  6
CONTINUOUS
370
    -2
100
AcDbLine
 10
1753.78821892
 20
-1725.04005859
 30
0.0
 11
1745.99398145
 21
-1729.54010292
 31
0.0
  0
ENDBLK
  5
225
100
AcDbEntity
100
AcDbBlockEnd
  0
BLOCK
  5
226
100
AcDbEntity
  8
Sc.1_5
100
AcDbBlockBegin
  2
*X2008
 70
     1
 10
0.0
 20
0.0
 30
0.0
  3
*X2008
  1

  4
Cadwork hatch
  0
LINE
  5
227
100
AcDbEntity
  8
Sc.1_5
 62
     9
  6
CONTINUOUS
370
    -2
100
AcDbLine
 10
1673.50513627
 20
-1788.06860277
 30
0.0
 11
1677.50505859
 21
-1796.06857913
 31
0.0
  0
LINE
  5
228
100
AcDbEntity
  8
Sc.1_5
 62
     9
  6
CONTINUOUS
370
    -2
100
AcDbLine
 10
1677.50505859
 20
-1788.06860277
 30
0.0
 11
1673.50513627
 21
-1796.06857913
 31
0.0
  0
ENDBLK
  5
229
100
AcDbEntity
100
AcDbBlockEnd
  0
BLOCK
  5
22A
100
AcDbEntity
  8
Sc.1_5
100
AcDbBlockBegin
  2
*X2234
 70
     1
 10
0.0
 20
0.0
 30
0.0
  3
*X2234
  1

  4
Cadwork hatch
  0
LINE
  5
22B
100
AcDbEntity
  8
Sc.1_5
 62
     9
  6
CONTINUOUS
370
    -2
100
AcDbLine
 10
1680.36959727
 20
-1800.25975169
 30
0.0
 11
1708.36958039
 21
-1809.25984035
 31
0.0
  0
LINE
  5
22C
100
AcDbEntity
  8
Sc.1_5
 62
     9
  6
CONTINUOUS
370
    -2
100
AcDbLine
 10
1680.36959727
 20
-1809.25984035
 30
0.0
 11
1708.36958039
 21
-1800.25975169
 31
0.0
  0
ENDBLK
  5
22D
100
AcDbEntity
100
AcDbBlockEnd
  0
BLOCK
  5
22E
100
AcDbEntity
  8
Sc.1_5
100
AcDbBlockBegin
  2
*X2235
 70
     1
 10
0.0
 20
0.0
 30
0.0
  3
*X2235
  1

  4
Cadwork hatch
  0
LINE
  5
22F
100
AcDbEntity
  8
Sc.1_5
 62
     9
  6
CONTINUOUS
370
    -2
100
AcDbLine
 10
1680.36959727
 20
-1809.25984035
 30
0.0
 11
1708.36958039
 21
-1818.25979729
 31
0.0
  0
LINE
  5
230
100
AcDbEntity
  8
Sc.1_5
 62
     9
  6
CONTINUOUS
370
    -2
100
AcDbLine
 10
1680.36959727
 20
-1818.25979729
 30
0.0
 11
1708.36958039
 21
-1809.25984035
 31
0.0
  0
ENDBLK
  5
231
100
AcDbEntity
100
AcDbBlockEnd
  0
BLOCK
  5
232
100
AcDbEntity
  8
Sc.1_5
100
AcDbBlockBegin
  2
*X2240
 70
     1
 10
0.0
 20
0.0
 30
0.0
  3
*X2240
  1

  4
Cadwork hatch
  0
LINE
  5
233
100
AcDbEntity
  8
Sc.1_5
 62
     9
  6
CONTINUOUS
370
    -2
100
AcDbLine
 10
1708.3695891
 20
-1818.25980393
 30
0.0
 11
1708.3695891
 21
-1818.88475328
 31
0.0
  0
LINE
  5
234
100
AcDbEntity
  8
Sc.1_5
 62
     9
  6
CONTINUOUS
370
    -2
100
AcDbLine
 10
1708.3695891
 20
-1822.30150545
 30
0.0
 11
1708.3695891
 21
-1823.55140415
 31
0.0
  0
LINE
  5
235
100
AcDbEntity
  8
Sc.1_5
 62
     9
  6
CONTINUOUS
370
    -2
100
AcDbLine
 10
1708.3695891
 20
-1826.96815632
 30
0.0
 11
1708.3695891
 21
-1828.21805502
 31
0.0
  0
LINE
  5
236
100
AcDbEntity
  8
Sc.1_5
 62
     9
  6
CONTINUOUS
370
    -2
100
AcDbLine
 10
1708.3695891
 20
-1831.63480719
 30
0.0
 11
1708.3695891
 21
-1832.88470589
 31
0.0
  0
LINE
  5
237
100
AcDbEntity
  8
Sc.1_5
 62
     9
  6
CONTINUOUS
370
    -2
100
AcDbLine
 10
1708.3695891
 20
-1836.30145806
 30
0.0
 11
1708.3695891
 21
-1837.55135676
 31
0.0
  0
LINE
  5
238
100
AcDbEntity
  8
Sc.1_5
 62
     9
  6
CONTINUOUS
370
    -2
100
AcDbLine
 10
1708.3695891
 20
-1840.96810893
 30
0.0
 11
1708.3695891
 21
-1842.21800763
 31
0.0
  0
LINE
  5
239
100
AcDbEntity
  8
Sc.1_5
 62
     9
  6
CONTINUOUS
370
    -2
100
AcDbLine
 10
1708.3695891
 20
-1845.63475981
 30
0.0
 11
1708.3695891
 21
-1846.88465851
 31
0.0
  0
LINE
  5
23A
100
AcDbEntity
  8
Sc.1_5
 62
     9
  6
CONTINUOUS
370
    -2
100
AcDbLine
 10
1708.3695891
 20
-1850.30141068
 30
0.0
 11
1708.3695891
 21
-1851.55130938
 31
0.0
  0
LINE
  5
23B
100
AcDbEntity
  8
Sc.1_5
 62
     9
  6
CONTINUOUS
370
    -2
100
AcDbLine
 10
1708.3695891
 20
-1854.96806155
 30
0.0
 11
1708.3695891
 21
-1856.21796025
 31
0.0
  0
LINE
  5
23C
100
AcDbEntity
  8
Sc.1_5
 62
     9
  6
CONTINUOUS
370
    -2
100
AcDbLine
 10
1708.3695891
 20
-1859.63471242
 30
0.0
 11
1708.3695891
 21
-1860.88461112
 31
0.0
  0
LINE
  5
23D
100
AcDbEntity
  8
Sc.1_5
 62
     9
  6
CONTINUOUS
370
    -2
100
AcDbLine
 10
1708.3695891
 20
-1864.30136329
 30
0.0
 11
1708.3695891
 21
-1865.55126199
 31
0.0
  0
LINE
  5
23E
100
AcDbEntity
  8
Sc.1_5
 62
     9
  6
CONTINUOUS
370
    -2
100
AcDbLine
 10
1708.3695891
 20
-1868.96801416
 30
0.0
 11
1708.3695891
 21
-1870.21791286
 31
0.0
  0
LINE
  5
23F
100
AcDbEntity
  8
Sc.1_5
 62
     9
  6
CONTINUOUS
370
    -2
100
AcDbLine
 10
1708.3695891
 20
-1873.63466503
 30
0.0
 11
1708.3695891
 21
-1874.88456373
 31
0.0
  0
LINE
  5
240
100
AcDbEntity
  8
Sc.1_5
 62
     9
  6
CONTINUOUS
370
    -2
100
AcDbLine
 10
1684.27904786
 20
-1822.92645472
 30
0.0
 11
1685.03634151
 21
-1822.92645472
 31
0.0
  0
LINE
  5
241
100
AcDbEntity
  8
Sc.1_5
 62
     9
  6
CONTINUOUS
370
    -2
100
AcDbLine
 10
1684.27904786
 20
-1832.25975362
 30
0.0
 11
1685.03634151
 21
-1832.25975362
 31
0.0
  0
LINE
  5
242
100
AcDbEntity
  8
Sc.1_5
 62
     9
  6
CONTINUOUS
370
    -2
100
AcDbLine
 10
1684.27904786
 20
-1841.59305253
 30
0.0
 11
1685.03634151
 21
-1841.59305253
 31
0.0
  0
LINE
  5
243
100
AcDbEntity
  8
Sc.1_5
 62
     9
  6
CONTINUOUS
370
    -2
100
AcDbLine
 10
1684.27904786
 20
-1850.92635143
 30
0.0
 11
1685.03634151
 21
-1850.92635143
 31
0.0
  0
LINE
  5
244
100
AcDbEntity
  8
Sc.1_5
 62
     9
  6
CONTINUOUS
370
    -2
100
AcDbLine
 10
1684.27904786
 20
-1860.25965034
 30
0.0
 11
1685.03634151
 21
-1860.25965034
 31
0.0
  0
LINE
  5
245
100
AcDbEntity
  8
Sc.1_5
 62
     9
  6
CONTINUOUS
370
    -2
100
AcDbLine
 10
1684.27904786
 20
-1869.59294924
 30
0.0
 11
1685.03634151
 21
-1869.59294924
 31
0.0
  0
LINE
  5
246
100
AcDbEntity
  8
Sc.1_5
 62
     9
  6
CONTINUOUS
370
    -2
100
AcDbLine
 10
1703.70293932
 20
-1818.25980493
 30
0.0
 11
1704.46023297
 21
-1818.25980493
 31
0.0
  0
LINE
  5
247
100
AcDbEntity
  8
Sc.1_5
 62
     9
  6
CONTINUOUS
370
    -2
100
AcDbLine
 10
1703.70293932
 20
-1827.59310383
 30
0.0
 11
1704.46023297
 21
-1827.59310383
 31
0.0
  0
LINE
  5
248
100
AcDbEntity
  8
Sc.1_5
 62
     9
  6
CONTINUOUS
370
    -2
100
AcDbLine
 10
1703.70293932
 20
-1836.92640274
 30
0.0
 11
1704.46023297
 21
-1836.92640274
 31
0.0
  0
LINE
  5
249
100
AcDbEntity
  8
Sc.1_5
 62
     9
  6
CONTINUOUS
370
    -2
100
AcDbLine
 10
1703.70293932
 20
-1846.25970164
 30
0.0
 11
1704.46023297
 21
-1846.25970164
 31
0.0
  0
LINE
  5
24A
100
AcDbEntity
  8
Sc.1_5
 62
     9
  6
CONTINUOUS
370
    -2
100
AcDbLine
 10
1703.70293932
 20
-1855.59300055
 30
0.0
 11
1704.46023297
 21
-1855.59300055
 31
0.0
  0
LINE
  5
24B
100
AcDbEntity
  8
Sc.1_5
 62
     9
  6
CONTINUOUS
370
    -2
100
AcDbLine
 10
1703.70293932
 20
-1864.92629946
 30
0.0
 11
1704.46023297
 21
-1864.92629946
 31
0.0
  0
LINE
  5
24C
100
AcDbEntity
  8
Sc.1_5
 62
     9
  6
CONTINUOUS
370
    -2
100
AcDbLine
 10
1703.70293932
 20
-1874.25959836
 30
0.0
 11
1704.46023297
 21
-1874.25959836
 31
0.0
  0
LINE
  5
24D
100
AcDbEntity
  8
Sc.1_5
 62
     9
  6
CONTINUOUS
370
    -2
100
AcDbLine
 10
1686.03753845
 20
-1822.81573911
 30
0.0
 11
1702.70204058
 21
-1818.37154556
 31
0.0
  0
LINE
  5
24E
100
AcDbEntity
  8
Sc.1_5
 62
     9
  6
CONTINUOUS
370
    -2
100
AcDbLine
 10
1686.03752245
 20
-1832.14903611
 30
0.0
 11
1702.70202457
 21
-1827.70484257
 31
0.0
  0
LINE
  5
24F
100
AcDbEntity
  8
Sc.1_5
 62
     9
  6
CONTINUOUS
370
    -2
100
AcDbLine
 10
1686.03750644
 20
-1841.48233312
 30
0.0
 11
1702.70200857
 21
-1837.03813958
 31
0.0
  0
LINE
  5
250
100
AcDbEntity
  8
Sc.1_5
 62
     9
  6
CONTINUOUS
370
    -2
100
AcDbLine
 10
1686.03749043
 20
-1850.81563012
 30
0.0
 11
1702.70199256
 21
-1846.37143658
 31
0.0
  0
LINE
  5
251
100
AcDbEntity
  8
Sc.1_5
 62
     9
  6
CONTINUOUS
370
    -2
100
AcDbLine
 10
1686.03747443
 20
-1860.14892713
 30
0.0
 11
1702.70197655
 21
-1855.70473359
 31
0.0
  0
LINE
  5
252
100
AcDbEntity
  8
Sc.1_5
 62
     9
  6
CONTINUOUS
370
    -2
100
AcDbLine
 10
1686.03745842
 20
-1869.48222414
 30
0.0
 11
1702.70196055
 21
-1865.03803059
 31
0.0
  0
LINE
  5
253
100
AcDbEntity
  8
Sc.1_5
 62
     9
  6
CONTINUOUS
370
    -2
100
AcDbLine
 10
1694.94666362
 20
-1876.43955437
 30
0.0
 11
1702.70194454
 21
-1874.3713276
 31
0.0
  0
LINE
  5
254
100
AcDbEntity
  8
Sc.1_5
 62
     9
  6
CONTINUOUS
370
    -2
100
AcDbLine
 10
1686.03753845
 20
-1823.03716765
 30
0.0
 11
1702.70204058
 21
-1827.4813612
 31
0.0
  0
LINE
  5
255
100
AcDbEntity
  8
Sc.1_5
 62
     9
  6
CONTINUOUS
370
    -2
100
AcDbLine
 10
1686.03755446
 20
-1832.37046466
 30
0.0
 11
1702.70205659
 21
-1836.8146582
 31
0.0
  0
LINE
  5
256
100
AcDbEntity
  8
Sc.1_5
 62
     9
  6
CONTINUOUS
370
    -2
100
AcDbLine
 10
1686.03757047
 20
-1841.70376167
 30
0.0
 11
1702.70207259
 21
-1846.14795521
 31
0.0
  0
LINE
  5
257
100
AcDbEntity
  8
Sc.1_5
 62
     9
  6
CONTINUOUS
370
    -2
100
AcDbLine
 10
1686.03758647
 20
-1851.03705867
 30
0.0
 11
1702.7020886
 21
-1855.48125221
 31
0.0
  0
LINE
  5
258
100
AcDbEntity
  8
Sc.1_5
 62
     9
  6
CONTINUOUS
370
    -2
100
AcDbLine
 10
1686.03760248
 20
-1860.37035568
 30
0.0
 11
1702.70210461
 21
-1864.81454922
 31
0.0
  0
LINE
  5
259
100
AcDbEntity
  8
Sc.1_5
 62
     9
  6
CONTINUOUS
370
    -2
100
AcDbLine
 10
1686.03761849
 20
-1869.70365268
 30
0.0
 11
1702.70212061
 21
-1874.14784623
 31
0.0
  0
LINE
  5
25A
100
AcDbEntity
  8
Sc.1_5
 62
     9
  6
CONTINUOUS
370
    -2
100
AcDbLine
 10
1680.3696898
 20
-1818.88475135
 30
0.0
 11
1680.70345373
 21
-1820.1085524
 31
0.0
  0
LINE
  5
25B
100
AcDbEntity
  8
Sc.1_5
 62
     9
  6
CONTINUOUS
370
    -2
100
AcDbLine
 10
1680.3696898
 20
-1828.21805088
 30
0.0
 11
1680.70345348
 21
-1829.44185102
 31
0.0
  0
LINE
  5
25C
100
AcDbEntity
  8
Sc.1_5
 62
     9
  6
CONTINUOUS
370
    -2
100
AcDbLine
 10
1680.3696898
 20
-1837.55135041
 30
0.0
 11
1680.70345323
 21
-1838.77514963
 31
0.0
  0
LINE
  5
25D
100
AcDbEntity
  8
Sc.1_5
 62
     9
  6
CONTINUOUS
370
    -2
100
AcDbLine
 10
1680.3696898
 20
-1846.88464994
 30
0.0
 11
1680.70345298
 21
-1848.10844824
 31
0.0
  0
LINE
  5
25E
100
AcDbEntity
  8
Sc.1_5
 62
     9
  6
CONTINUOUS
370
    -2
100
AcDbLine
 10
1680.3696898
 20
-1856.21794947
 30
0.0
 11
1680.70345273
 21
-1857.44174685
 31
0.0
  0
LINE
  5
25F
100
AcDbEntity
  8
Sc.1_5
 62
     9
  6
CONTINUOUS
370
    -2
100
AcDbLine
 10
1680.3696898
 20
-1865.551249
 30
0.0
 11
1680.70345248
 21
-1866.77504547
 31
0.0
  0
LINE
  5
260
100
AcDbEntity
  8
Sc.1_5
 62
     9
  6
CONTINUOUS
370
    -2
100
AcDbLine
 10
1680.3696898
 20
-1874.88454853
 30
0.0
 11
1680.70345223
 21
-1876.10834408
 31
0.0
  0
LINE
  5
261
100
AcDbEntity
  8
Sc.1_5
 62
     9
  6
CONTINUOUS
370
    -2
100
AcDbLine
 10
1680.3696898
 20
-1826.96816432
 30
0.0
 11
1680.70345506
 21
-1825.74435775
 31
0.0
  0
LINE
  5
262
100
AcDbEntity
  8
Sc.1_5
 62
     9
  6
CONTINUOUS
370
    -2
100
AcDbLine
 10
1680.3696898
 20
-1836.3014684
 30
0.0
 11
1680.70345656
 21
-1835.07765636
 31
0.0
  0
LINE
  5
263
100
AcDbEntity
  8
Sc.1_5
 62
     9
  6
CONTINUOUS
370
    -2
100
AcDbLine
 10
1680.36969108
 20
-1845.63476777
 30
0.0
 11
1680.70345805
 21
-1844.41095497
 31
0.0
  0
LINE
  5
264
100
AcDbEntity
  8
Sc.1_5
 62
     9
  6
CONTINUOUS
370
    -2
100
AcDbLine
 10
1680.36969258
 20
-1854.96806638
 30
0.0
 11
1680.70345954
 21
-1853.74425359
 31
0.0
  0
LINE
  5
265
100
AcDbEntity
  8
Sc.1_5
 62
     9
  6
CONTINUOUS
370
    -2
100
AcDbLine
 10
1680.36969407
 20
-1864.30136499
 30
0.0
 11
1680.70346103
 21
-1863.0775522
 31
0.0
  0
LINE
  5
266
100
AcDbEntity
  8
Sc.1_5
 62
     9
  6
CONTINUOUS
370
    -2
100
AcDbLine
 10
1680.36969556
 20
-1873.63466361
 30
0.0
 11
1680.70346253
 21
-1872.41085081
 31
0.0
  0
LINE
  5
267
100
AcDbEntity
  8
Sc.1_5
 62
     9
  6
CONTINUOUS
370
    -2
100
AcDbLine
 10
1708.03581987
 20
-1821.07767778
 30
0.0
 11
1708.369587
 21
-1822.30149053
 31
0.0
  0
LINE
  5
268
100
AcDbEntity
  8
Sc.1_5
 62
     9
  6
CONTINUOUS
370
    -2
100
AcDbLine
 10
1708.03581962
 20
-1830.4109764
 30
0.0
 11
1708.36958675
 21
-1831.63478915
 31
0.0
  0
LINE
  5
269
100
AcDbEntity
  8
Sc.1_5
 62
     9
  6
CONTINUOUS
370
    -2
100
AcDbLine
 10
1708.03581937
 20
-1839.74427501
 30
0.0
 11
1708.3695865
 21
-1840.96808776
 31
0.0
  0
LINE
  5
26A
100
AcDbEntity
  8
Sc.1_5
 62
     9
  6
CONTINUOUS
370
    -2
100
AcDbLine
 10
1708.03581912
 20
-1849.07757362
 30
0.0
 11
1708.36958625
 21
-1850.30138637
 31
0.0
  0
LINE
  5
26B
100
AcDbEntity
  8
Sc.1_5
 62
     9
  6
CONTINUOUS
370
    -2
100
AcDbLine
 10
1708.03581887
 20
-1858.41087223
 30
0.0
 11
1708.369586
 21
-1859.63468498
 31
0.0
  0
LINE
  5
26C
100
AcDbEntity
  8
Sc.1_5
 62
     9
  6
CONTINUOUS
370
    -2
100
AcDbLine
 10
1708.03581862
 20
-1867.74417085
 30
0.0
 11
1708.36958575
 21
-1868.9679836
 31
0.0
  0
LINE
  5
26D
100
AcDbEntity
  8
Sc.1_5
 62
     9
  6
CONTINUOUS
370
    -2
100
AcDbLine
 10
1708.36958724
 20
-1870.21790804
 30
0.0
 11
1708.03582011
 21
-1871.44172079
 31
0.0
  0
LINE
  5
26E
100
AcDbEntity
  8
Sc.1_5
 62
     9
  6
CONTINUOUS
370
    -2
100
AcDbLine
 10
1708.36958699
 20
-1860.88460943
 30
0.0
 11
1708.03581986
 21
-1862.10842218
 31
0.0
  0
LINE
  5
26F
100
AcDbEntity
  8
Sc.1_5
 62
     9
  6
CONTINUOUS
370
    -2
100
AcDbLine
 10
1708.36958674
 20
-1851.55131081
 30
0.0
 11
1708.03581961
 21
-1852.77512357
 31
0.0
  0
LINE
  5
270
100
AcDbEntity
  8
Sc.1_5
 62
     9
  6
CONTINUOUS
370
    -2
100
AcDbLine
 10
1708.36958649
 20
-1842.2180122
 30
0.0
 11
1708.03581936
 21
-1843.44182495
 31
0.0
  0
LINE
  5
271
100
AcDbEntity
  8
Sc.1_5
 62
     9
  6
CONTINUOUS
370
    -2
100
AcDbLine
 10
1708.36958624
 20
-1832.88471359
 30
0.0
 11
1708.03581911
 21
-1834.10852634
 31
0.0
  0
LINE
  5
272
100
AcDbEntity
  8
Sc.1_5
 62
     9
  6
CONTINUOUS
370
    -2
100
AcDbLine
 10
1708.36958599
 20
-1823.55141498
 30
0.0
 11
1708.03581886
 21
-1824.77522773
 31
0.0
  0
LINE
  5
273
100
AcDbEntity
  8
Sc.1_5
 62
     9
  6
CONTINUOUS
370
    -2
100
AcDbLine
 10
1680.70345956
 20
-1820.10857045
 30
0.0
 11
1681.33045454
 21
-1821.15356208
 31
0.0
  0
LINE
  5
274
100
AcDbEntity
  8
Sc.1_5
 62
     9
  6
CONTINUOUS
370
    -2
100
AcDbLine
 10
1680.70345962
 20
-1829.44187096
 30
0.0
 11
1681.33045461
 21
-1830.4868626
 31
0.0
  0
LINE
  5
275
100
AcDbEntity
  8
Sc.1_5
 62
     9
  6
CONTINUOUS
370
    -2
100
AcDbLine
 10
1680.70345968
 20
-1838.77517148
 30
0.0
 11
1681.33045467
 21
-1839.82016312
 31
0.0
  0
LINE
  5
276
100
AcDbEntity
  8
Sc.1_5
 62
     9
  6
CONTINUOUS
370
    -2
100
AcDbLine
 10
1680.70345975
 20
-1848.108472
 30
0.0
 11
1681.33045473
 21
-1849.15346364
 31
0.0
  0
LINE
  5
277
100
AcDbEntity
  8
Sc.1_5
 62
     9
  6
CONTINUOUS
370
    -2
100
AcDbLine
 10
1680.70345981
 20
-1857.44177252
 30
0.0
 11
1681.33045479
 21
-1858.48676416
 31
0.0
  0
LINE
  5
278
100
AcDbEntity
  8
Sc.1_5
 62
     9
  6
CONTINUOUS
370
    -2
100
AcDbLine
 10
1680.70345987
 20
-1866.77507304
 30
0.0
 11
1681.33045485
 21
-1867.82006468
 31
0.0
  0
LINE
  5
279
100
AcDbEntity
  8
Sc.1_5
 62
     9
  6
CONTINUOUS
370
    -2
100
AcDbLine
 10
1680.70345993
 20
-1876.10837356
 30
0.0
 11
1680.90216842
 21
-1876.43955437
 31
0.0
  0
LINE
  5
27A
100
AcDbEntity
  8
Sc.1_5
 62
     9
  6
CONTINUOUS
370
    -2
100
AcDbLine
 10
1680.70345888
 20
-1825.73743139
 30
0.0
 11
1681.33045393
 21
-1824.69243979
 31
0.0
  0
LINE
  5
27B
100
AcDbEntity
  8
Sc.1_5
 62
     9
  6
CONTINUOUS
370
    -2
100
AcDbLine
 10
1680.70345819
 20
-1835.07073191
 30
0.0
 11
1681.33045325
 21
-1834.02574031
 31
0.0
  0
LINE
  5
27C
100
AcDbEntity
  8
Sc.1_5
 62
     9
  6
CONTINUOUS
370
    -2
100
AcDbLine
 10
1680.70345751
 20
-1844.40403243
 30
0.0
 11
1681.33045256
 21
-1843.35904083
 31
0.0
  0
LINE
  5
27D
100
AcDbEntity
  8
Sc.1_5
 62
     9
  6
CONTINUOUS
370
    -2
100
AcDbLine
 10
1680.70345683
 20
-1853.73733294
 30
0.0
 11
1681.33045188
 21
-1852.69234135
 31
0.0
  0
LINE
  5
27E
100
AcDbEntity
  8
Sc.1_5
 62
     9
  6
CONTINUOUS
370
    -2
100
AcDbLine
 10
1680.70345614
 20
-1863.07063346
 30
0.0
 11
1681.3304512
 21
-1862.02564187
 31
0.0
  0
LINE
  5
27F
100
AcDbEntity
  8
Sc.1_5
 62
     9
  6
CONTINUOUS
370
    -2
100
AcDbLine
 10
1680.70345546
 20
-1872.40393398
 30
0.0
 11
1681.33045051
 21
-1871.35894239
 31
0.0
  0
LINE
  5
280
100
AcDbEntity
  8
Sc.1_5
 62
     9
  6
CONTINUOUS
370
    -2
100
AcDbLine
 10
1707.40882821
 20
-1820.0327075
 30
0.0
 11
1708.0358232
 21
-1821.07769914
 31
0.0
  0
LINE
  5
281
100
AcDbEntity
  8
Sc.1_5
 62
     9
  6
CONTINUOUS
370
    -2
100
AcDbLine
 10
1707.40882827
 20
-1829.36600802
 30
0.0
 11
1708.03582326
 21
-1830.41099966
 31
0.0
  0
LINE
  5
282
100
AcDbEntity
  8
Sc.1_5
 62
     9
  6
CONTINUOUS
370
    -2
100
AcDbLine
 10
1707.40882834
 20
-1838.69930854
 30
0.0
 11
1708.03582332
 21
-1839.74430018
 31
0.0
  0
LINE
  5
283
100
AcDbEntity
  8
Sc.1_5
 62
     9
  6
CONTINUOUS
370
    -2
100
AcDbLine
 10
1707.4088284
 20
-1848.03260906
 30
0.0
 11
1708.03582338
 21
-1849.07760069
 31
0.0
  0
LINE
  5
284
100
AcDbEntity
  8
Sc.1_5
 62
     9
  6
CONTINUOUS
370
    -2
100
AcDbLine
 10
1707.40882846
 20
-1857.36590957
 30
0.0
 11
1708.03582344
 21
-1858.41090121
 31
0.0
  0
LINE
  5
285
100
AcDbEntity
  8
Sc.1_5
 62
     9
  6
CONTINUOUS
370
    -2
100
AcDbLine
 10
1707.40882852
 20
-1866.69921009
 30
0.0
 11
1708.03582351
 21
-1867.74420173
 31
0.0
  0
LINE
  5
286
100
AcDbEntity
  8
Sc.1_5
 62
     9
  6
CONTINUOUS
370
    -2
100
AcDbLine
 10
1707.40882858
 20
-1876.03251061
 30
0.0
 11
1707.65305484
 21
-1876.43955437
 31
0.0
  0
LINE
  5
287
100
AcDbEntity
  8
Sc.1_5
 62
     9
  6
CONTINUOUS
370
    -2
100
AcDbLine
 10
1708.03582531
 20
-1871.44171206
 30
0.0
 11
1707.40883033
 21
-1872.4867037
 31
0.0
  0
LINE
  5
288
100
AcDbEntity
  8
Sc.1_5
 62
     9
  6
CONTINUOUS
370
    -2
100
AcDbLine
 10
1708.03582538
 20
-1862.10841154
 30
0.0
 11
1707.40883039
 21
-1863.15340318
 31
0.0
  0
LINE
  5
289
100
AcDbEntity
  8
Sc.1_5
 62
     9
  6
CONTINUOUS
370
    -2
100
AcDbLine
 10
1708.03582544
 20
-1852.77511103
 30
0.0
 11
1707.40883045
 21
-1853.82010266
 31
0.0
  0
LINE
  5
28A
100
AcDbEntity
  8
Sc.1_5
 62
     9
  6
CONTINUOUS
370
    -2
100
AcDbLine
 10
1708.0358255
 20
-1843.44181051
 30
0.0
 11
1707.40883052
 21
-1844.48680215
 31
0.0
  0
LINE
  5
28B
100
AcDbEntity
  8
Sc.1_5
 62
     9
  6
CONTINUOUS
370
    -2
100
AcDbLine
 10
1708.03582556
 20
-1834.10850999
 30
0.0
 11
1707.40883058
 21
-1835.15350163
 31
0.0
  0
LINE
  5
28C
100
AcDbEntity
  8
Sc.1_5
 62
     9
  6
CONTINUOUS
370
    -2
100
AcDbLine
 10
1708.03582562
 20
-1824.77520947
 30
0.0
 11
1707.40883064
 21
-1825.82020111
 31
0.0
  0
LINE
  5
28D
100
AcDbEntity
  8
Sc.1_5
 62
     9
  6
CONTINUOUS
370
    -2
100
AcDbLine
 10
1681.33045338
 20
-1821.15355837
 30
0.0
 11
1682.06326876
 21
-1821.88637374
 31
0.0
  0
LINE
  5
28E
100
AcDbEntity
  8
Sc.1_5
 62
     9
  6
CONTINUOUS
370
    -2
100
AcDbLine
 10
1681.33045338
 20
-1830.48685973
 30
0.0
 11
1682.06326876
 21
-1831.21967511
 31
0.0
  0
LINE
  5
28F
100
AcDbEntity
  8
Sc.1_5
 62
     9
  6
CONTINUOUS
370
    -2
100
AcDbLine
 10
1681.33045338
 20
-1839.8201611
 30
0.0
 11
1682.06326876
 21
-1840.55297648
 31
0.0
  0
LINE
  5
290
100
AcDbEntity
  8
Sc.1_5
 62
     9
  6
CONTINUOUS
370
    -2
100
AcDbLine
 10
1681.33045338
 20
-1849.15346247
 30
0.0
 11
1682.06326876
 21
-1849.88627784
 31
0.0
  0
LINE
  5
291
100
AcDbEntity
  8
Sc.1_5
 62
     9
  6
CONTINUOUS
370
    -2
100
AcDbLine
 10
1681.33045338
 20
-1858.48676383
 30
0.0
 11
1682.06326876
 21
-1859.21957921
 31
0.0
  0
LINE
  5
292
100
AcDbEntity
  8
Sc.1_5
 62
     9
  6
CONTINUOUS
370
    -2
100
AcDbLine
 10
1681.33045338
 20
-1867.8200652
 30
0.0
 11
1682.06326876
 21
-1868.55288058
 31
0.0
  0
LINE
  5
293
100
AcDbEntity
  8
Sc.1_5
 62
     9
  6
CONTINUOUS
370
    -2
100
AcDbLine
 10
1681.33045338
 20
-1824.69935086
 30
0.0
 11
1682.06326876
 21
-1823.96653548
 31
0.0
  0
LINE
  5
294
100
AcDbEntity
  8
Sc.1_5
 62
     9
  6
CONTINUOUS
370
    -2
100
AcDbLine
 10
1681.33045338
 20
-1834.03265222
 30
0.0
 11
1682.06326876
 21
-1833.29983684
 31
0.0
  0
LINE
  5
295
100
AcDbEntity
  8
Sc.1_5
 62
     9
  6
CONTINUOUS
370
    -2
100
AcDbLine
 10
1681.33045338
 20
-1843.36595359
 30
0.0
 11
1682.06326876
 21
-1842.63313821
 31
0.0
  0
LINE
  5
296
100
AcDbEntity
  8
Sc.1_5
 62
     9
  6
CONTINUOUS
370
    -2
100
AcDbLine
 10
1681.33045338
 20
-1852.69925496
 30
0.0
 11
1682.06326876
 21
-1851.96643958
 31
0.0
  0
LINE
  5
297
100
AcDbEntity
  8
Sc.1_5
 62
     9
  6
CONTINUOUS
370
    -2
100
AcDbLine
 10
1681.33045338
 20
-1862.03255632
 30
0.0
 11
1682.06326876
 21
-1861.29974095
 31
0.0
  0
LINE
  5
298
100
AcDbEntity
  8
Sc.1_5
 62
     9
  6
CONTINUOUS
370
    -2
100
AcDbLine
 10
1681.33045338
 20
-1871.36585769
 30
0.0
 11
1682.06326876
 21
-1870.63304231
 31
0.0
  0
LINE
  5
299
100
AcDbEntity
  8
Sc.1_5
 62
     9
  6
CONTINUOUS
370
    -2
100
AcDbLine
 10
1706.67601334
 20
-1819.29989218
 30
0.0
 11
1707.40882871
 21
-1820.03270755
 31
0.0
  0
LINE
  5
29A
100
AcDbEntity
  8
Sc.1_5
 62
     9
  6
CONTINUOUS
370
    -2
100
AcDbLine
 10
1706.67601334
 20
-1828.63319354
 30
0.0
 11
1707.40882871
 21
-1829.36600892
 31
0.0
  0
LINE
  5
29B
100
AcDbEntity
  8
Sc.1_5
 62
     9
  6
CONTINUOUS
370
    -2
100
AcDbLine
 10
1706.67601334
 20
-1837.96649491
 30
0.0
 11
1707.40882871
 21
-1838.69931029
 31
0.0
  0
LINE
  5
29C
100
AcDbEntity
  8
Sc.1_5
 62
     9
  6
CONTINUOUS
370
    -2
100
AcDbLine
 10
1706.67601334
 20
-1847.29979628
 30
0.0
 11
1707.40882871
 21
-1848.03261165
 31
0.0
  0
LINE
  5
29D
100
AcDbEntity
  8
Sc.1_5
 62
     9
  6
CONTINUOUS
370
    -2
100
AcDbLine
 10
1706.67601334
 20
-1856.63309764
 30
0.0
 11
1707.40882871
 21
-1857.36591302
 31
0.0
  0
LINE
  5
29E
100
AcDbEntity
  8
Sc.1_5
 62
     9
  6
CONTINUOUS
370
    -2
100
AcDbLine
 10
1706.67601334
 20
-1865.96639901
 30
0.0
 11
1707.40882871
 21
-1866.69921439
 31
0.0
  0
LINE
  5
29F
100
AcDbEntity
  8
Sc.1_5
 62
     9
  6
CONTINUOUS
370
    -2
100
AcDbLine
 10
1706.67601334
 20
-1875.29970038
 30
0.0
 11
1707.40882871
 21
-1876.03251576
 31
0.0
  0
LINE
  5
2A0
100
AcDbEntity
  8
Sc.1_5
 62
     9
  6
CONTINUOUS
370
    -2
100
AcDbLine
 10
1707.40882587
 20
-1872.4867083
 30
0.0
 11
1706.6760105
 21
-1873.21952367
 31
0.0
  0
LINE
  5
2A1
100
AcDbEntity
  8
Sc.1_5
 62
     9
  6
CONTINUOUS
370
    -2
100
AcDbLine
 10
1707.40882587
 20
-1863.15340693
 30
0.0
 11
1706.6760105
 21
-1863.88622231
 31
0.0
  0
LINE
  5
2A2
100
AcDbEntity
  8
Sc.1_5
 62
     9
  6
CONTINUOUS
370
    -2
100
AcDbLine
 10
1707.40882587
 20
-1853.82010556
 30
0.0
 11
1706.6760105
 21
-1854.55292094
 31
0.0
  0
LINE
  5
2A3
100
AcDbEntity
  8
Sc.1_5
 62
     9
  6
CONTINUOUS
370
    -2
100
AcDbLine
 10
1707.40882587
 20
-1844.4868042
 30
0.0
 11
1706.6760105
 21
-1845.21961957
 31
0.0
  0
LINE
  5
2A4
100
AcDbEntity
  8
Sc.1_5
 62
     9
  6
CONTINUOUS
370
    -2
100
AcDbLine
 10
1707.40882587
 20
-1835.15350283
 30
0.0
 11
1706.6760105
 21
-1835.88631821
 31
0.0
  0
LINE
  5
2A5
100
AcDbEntity
  8
Sc.1_5
 62
     9
  6
CONTINUOUS
370
    -2
100
AcDbLine
 10
1707.40882587
 20
-1825.82020146
 30
0.0
 11
1706.6760105
 21
-1826.55301684
 31
0.0
  0
LINE
  5
2A6
100
AcDbEntity
  8
Sc.1_5
 62
     9
  6
CONTINUOUS
370
    -2
100
AcDbLine
 10
1682.06327058
 20
-1821.88637234
 30
0.0
 11
1682.96774031
 21
-1822.48935216
 31
0.0
  0
LINE
  5
2A7
100
AcDbEntity
  8
Sc.1_5
 62
     9
  6
CONTINUOUS
370
    -2
100
AcDbLine
 10
1682.06327163
 20
-1831.21967261
 30
0.0
 11
1682.96774136
 21
-1831.82265243
 31
0.0
  0
LINE
  5
2A8
100
AcDbEntity
  8
Sc.1_5
 62
     9
  6
CONTINUOUS
370
    -2
100
AcDbLine
 10
1682.06327269
 20
-1840.55297288
 30
0.0
 11
1682.96774242
 21
-1841.15595269
 31
0.0
  0
LINE
  5
2A9
100
AcDbEntity
  8
Sc.1_5
 62
     9
  6
CONTINUOUS
370
    -2
100
AcDbLine
 10
1682.06327375
 20
-1849.88627314
 30
0.0
 11
1682.96774348
 21
-1850.48925296
 31
0.0
  0
LINE
  5
2AA
100
AcDbEntity
  8
Sc.1_5
 62
     9
  6
CONTINUOUS
370
    -2
100
AcDbLine
 10
1682.0632748
 20
-1859.21957341
 30
0.0
 11
1682.96774453
 21
-1859.82255323
 31
0.0
  0
LINE
  5
2AB
100
AcDbEntity
  8
Sc.1_5
 62
     9
  6
CONTINUOUS
370
    -2
100
AcDbLine
 10
1682.06327586
 20
-1868.55287368
 30
0.0
 11
1682.96774559
 21
-1869.15585349
 31
0.0
  0
LINE
  5
2AC
100
AcDbEntity
  8
Sc.1_5
 62
     9
  6
CONTINUOUS
370
    -2
100
AcDbLine
 10
1682.0632689
 20
-1823.96653391
 30
0.0
 11
1682.96773867
 21
-1823.36355416
 31
0.0
  0
LINE
  5
2AD
100
AcDbEntity
  8
Sc.1_5
 62
     9
  6
CONTINUOUS
370
    -2
100
AcDbLine
 10
1682.06326722
 20
-1833.29983418
 30
0.0
 11
1682.96773699
 21
-1832.69685442
 31
0.0
  0
LINE
  5
2AE
100
AcDbEntity
  8
Sc.1_5
 62
     9
  6
CONTINUOUS
370
    -2
100
AcDbLine
 10
1682.06326554
 20
-1842.63313445
 30
0.0
 11
1682.96773531
 21
-1842.03015469
 31
0.0
  0
LINE
  5
2AF
100
AcDbEntity
  8
Sc.1_5
 62
     9
  6
CONTINUOUS
370
    -2
100
AcDbLine
 10
1682.06326386
 20
-1851.96643471
 30
0.0
 11
1682.96773364
 21
-1851.36345496
 31
0.0
  0
LINE
  5
2B0
100
AcDbEntity
  8
Sc.1_5
 62
     9
  6
CONTINUOUS
370
    -2
100
AcDbLine
 10
1682.06326219
 20
-1861.29973498
 30
0.0
 11
1682.96773196
 21
-1860.69675523
 31
0.0
  0
LINE
  5
2B1
100
AcDbEntity
  8
Sc.1_5
 62
     9
  6
CONTINUOUS
370
    -2
100
AcDbLine
 10
1682.06326051
 20
-1870.63303525
 30
0.0
 11
1682.96773028
 21
-1870.03005549
 31
0.0
  0
LINE
  5
2B2
100
AcDbEntity
  8
Sc.1_5
 62
     9
  6
CONTINUOUS
370
    -2
100
AcDbLine
 10
1705.77154577
 20
-1818.69690935
 30
0.0
 11
1706.6760155
 21
-1819.29988917
 31
0.0
  0
LINE
  5
2B3
100
AcDbEntity
  8
Sc.1_5
 62
     9
  6
CONTINUOUS
370
    -2
100
AcDbLine
 10
1705.77154683
 20
-1828.03020962
 30
0.0
 11
1706.67601656
 21
-1828.63318943
 31
0.0
  0
LINE
  5
2B4
100
AcDbEntity
  8
Sc.1_5
 62
     9
  6
CONTINUOUS
370
    -2
100
AcDbLine
 10
1705.77154788
 20
-1837.36350989
 30
0.0
 11
1706.67601762
 21
-1837.9664897
 31
0.0
  0
LINE
  5
2B5
100
AcDbEntity
  8
Sc.1_5
 62
     9
  6
CONTINUOUS
370
    -2
100
AcDbLine
 10
1705.77154894
 20
-1846.69681015
 30
0.0
 11
1706.67601867
 21
-1847.29978997
 31
0.0
  0
LINE
  5
2B6
100
AcDbEntity
  8
Sc.1_5
 62
     9
  6
CONTINUOUS
370
    -2
100
AcDbLine
 10
1705.77155
 20
-1856.03011042
 30
0.0
 11
1706.67601973
 21
-1856.63309024
 31
0.0
  0
LINE
  5
2B7
100
AcDbEntity
  8
Sc.1_5
 62
     9
  6
CONTINUOUS
370
    -2
100
AcDbLine
 10
1705.77155105
 20
-1865.36341069
 30
0.0
 11
1706.67602079
 21
-1865.9663905
 31
0.0
  0
LINE
  5
2B8
100
AcDbEntity
  8
Sc.1_5
 62
     9
  6
CONTINUOUS
370
    -2
100
AcDbLine
 10
1705.77155211
 20
-1874.69671095
 30
0.0
 11
1706.67602184
 21
-1875.29969077
 31
0.0
  0
LINE
  5
2B9
100
AcDbEntity
  8
Sc.1_5
 62
     9
  6
CONTINUOUS
370
    -2
100
AcDbLine
 10
1706.67601188
 20
-1873.2195209
 30
0.0
 11
1705.77154215
 21
-1873.82250072
 31
0.0
  0
LINE
  5
2BA
100
AcDbEntity
  8
Sc.1_5
 62
     9
  6
CONTINUOUS
370
    -2
100
AcDbLine
 10
1706.67601293
 20
-1863.88622064
 30
0.0
 11
1705.7715432
 21
-1864.48920045
 31
0.0
  0
LINE
  5
2BB
100
AcDbEntity
  8
Sc.1_5
 62
     9
  6
CONTINUOUS
370
    -2
100
AcDbLine
 10
1706.67601399
 20
-1854.55292037
 30
0.0
 11
1705.77154426
 21
-1855.15590019
 31
0.0
  0
LINE
  5
2BC
100
AcDbEntity
  8
Sc.1_5
 62
     9
  6
CONTINUOUS
370
    -2
100
AcDbLine
 10
1706.67601505
 20
-1845.2196201
 30
0.0
 11
1705.77154532
 21
-1845.82259992
 31
0.0
  0
LINE
  5
2BD
100
AcDbEntity
  8
Sc.1_5
 62
     9
  6
CONTINUOUS
370
    -2
100
AcDbLine
 10
1706.6760161
 20
-1835.88631984
 30
0.0
 11
1705.77154637
 21
-1836.48929965
 31
0.0
  0
LINE
  5
2BE
100
AcDbEntity
  8
Sc.1_5
 62
     9
  6
CONTINUOUS
370
    -2
100
AcDbLine
 10
1706.67601716
 20
-1826.55301957
 30
0.0
 11
1705.77154743
 21
-1827.15599938
 31
0.0
  0
LINE
  5
2BF
100
AcDbEntity
  8
Sc.1_5
 62
     9
  6
CONTINUOUS
370
    -2
100
AcDbLine
 10
1682.96773669
 20
-1822.48935042
 30
0.0
 11
1684.27904756
 21
-1822.92645412
 31
0.0
  0
LINE
  5
2C0
100
AcDbEntity
  8
Sc.1_5
 62
     9
  6
CONTINUOUS
370
    -2
100
AcDbLine
 10
1682.96773716
 20
-1831.82265135
 30
0.0
 11
1684.27904803
 21
-1832.25975505
 31
0.0
  0
LINE
  5
2C1
100
AcDbEntity
  8
Sc.1_5
 62
     9
  6
CONTINUOUS
370
    -2
100
AcDbLine
 10
1682.96773763
 20
-1841.15595228
 30
0.0
 11
1684.27904849
 21
-1841.59305598
 31
0.0
  0
LINE
  5
2C2
100
AcDbEntity
  8
Sc.1_5
 62
     9
  6
CONTINUOUS
370
    -2
100
AcDbLine
 10
1682.9677381
 20
-1850.48925321
 30
0.0
 11
1684.27904896
 21
-1850.92635691
 31
0.0
  0
LINE
  5
2C3
100
AcDbEntity
  8
Sc.1_5
 62
     9
  6
CONTINUOUS
370
    -2
100
AcDbLine
 10
1682.96773857
 20
-1859.82255414
 30
0.0
 11
1684.27904943
 21
-1860.25965783
 31
0.0
  0
LINE
  5
2C4
100
AcDbEntity
  8
Sc.1_5
 62
     9
  6
CONTINUOUS
370
    -2
100
AcDbLine
 10
1682.96773903
 20
-1869.15585507
 30
0.0
 11
1684.2790499
 21
-1869.59295876
 31
0.0
  0
LINE
  5
2C5
100
AcDbEntity
  8
Sc.1_5
 62
     9
  6
CONTINUOUS
370
    -2
100
AcDbLine
 10
1682.96773623
 20
-1823.36355836
 30
0.0
 11
1684.27904709
 21
-1822.92645467
 31
0.0
  0
LINE
  5
2C6
100
AcDbEntity
  8
Sc.1_5
 62
     9
  6
CONTINUOUS
370
    -2
100
AcDbLine
 10
1682.96773576
 20
-1832.69685929
 30
0.0
 11
1684.27904662
 21
-1832.2597556
 31
0.0
  0
LINE
  5
2C7
100
AcDbEntity
  8
Sc.1_5
 62
     9
  6
CONTINUOUS
370
    -2
100
AcDbLine
 10
1682.96773529
 20
-1842.03016022
 30
0.0
 11
1684.27904615
 21
-1841.59305652
 31
0.0
  0
LINE
  5
2C8
100
AcDbEntity
  8
Sc.1_5
 62
     9
  6
CONTINUOUS
370
    -2
100
AcDbLine
 10
1682.96773482
 20
-1851.36346115
 30
0.0
 11
1684.27904569
 21
-1850.92635745
 31
0.0
  0
LINE
  5
2C9
100
AcDbEntity
  8
Sc.1_5
 62
     9
  6
CONTINUOUS
370
    -2
100
AcDbLine
 10
1682.96773435
 20
-1860.69676208
 30
0.0
 11
1684.27904522
 21
-1860.25965838
 31
0.0
  0
LINE
  5
2CA
100
AcDbEntity
  8
Sc.1_5
 62
     9
  6
CONTINUOUS
370
    -2
100
AcDbLine
 10
1682.96773389
 20
-1870.03006301
 30
0.0
 11
1684.27904475
 21
-1869.59295931
 31
0.0
  0
LINE
  5
2CB
100
AcDbEntity
  8
Sc.1_5
 62
     9
  6
CONTINUOUS
370
    -2
100
AcDbLine
 10
1704.46023486
 20
-1818.25980393
 30
0.0
 11
1705.77154352
 21
-1818.69690689
 31
0.0
  0
LINE
  5
2CC
100
AcDbEntity
  8
Sc.1_5
 62
     9
  6
CONTINUOUS
370
    -2
100
AcDbLine
 10
1704.46023312
 20
-1827.59310412
 30
0.0
 11
1705.77154399
 21
-1828.03020782
 31
0.0
  0
LINE
  5
2CD
100
AcDbEntity
  8
Sc.1_5
 62
     9
  6
CONTINUOUS
370
    -2
100
AcDbLine
 10
1704.46023359
 20
-1836.92640505
 30
0.0
 11
1705.77154445
 21
-1837.36350875
 31
0.0
  0
LINE
  5
2CE
100
AcDbEntity
  8
Sc.1_5
 62
     9
  6
CONTINUOUS
370
    -2
100
AcDbLine
 10
1704.46023406
 20
-1846.25970598
 30
0.0
 11
1705.77154492
 21
-1846.69680968
 31
0.0
  0
LINE
  5
2CF
100
AcDbEntity
  8
Sc.1_5
 62
     9
  6
CONTINUOUS
370
    -2
100
AcDbLine
 10
1704.46023453
 20
-1855.59300691
 30
0.0
 11
1705.77154539
 21
-1856.03011061
 31
0.0
  0
LINE
  5
2D0
100
AcDbEntity
  8
Sc.1_5
 62
     9
  6
CONTINUOUS
370
    -2
100
AcDbLine
 10
1704.46023499
 20
-1864.92630784
 30
0.0
 11
1705.77154586
 21
-1865.36341154
 31
0.0
  0
LINE
  5
2D1
100
AcDbEntity
  8
Sc.1_5
 62
     9
  6
CONTINUOUS
370
    -2
100
AcDbLine
 10
1704.46023546
 20
-1874.25960877
 30
0.0
 11
1705.77154633
 21
-1874.69671247
 31
0.0
  0
LINE
  5
2D2
100
AcDbEntity
  8
Sc.1_5
 62
     9
  6
CONTINUOUS
370
    -2
100
AcDbLine
 10
1705.77153999
 20
-1873.82250432
 30
0.0
 11
1704.46022913
 21
-1874.25960802
 31
0.0
  0
LINE
  5
2D3
100
AcDbEntity
  8
Sc.1_5
 62
     9
  6
CONTINUOUS
370
    -2
100
AcDbLine
 10
1705.77154046
 20
-1864.48920339
 30
0.0
 11
1704.4602296
 21
-1864.92630709
 31
0.0
  0
LINE
  5
2D4
100
AcDbEntity
  8
Sc.1_5
 62
     9
  6
CONTINUOUS
370
    -2
100
AcDbLine
 10
1705.77154093
 20
-1855.15590246
 30
0.0
 11
1704.46023007
 21
-1855.59300616
 31
0.0
  0
LINE
  5
2D5
100
AcDbEntity
  8
Sc.1_5
 62
     9
  6
CONTINUOUS
370
    -2
100
AcDbLine
 10
1705.7715414
 20
-1845.82260153
 30
0.0
 11
1704.46023053
 21
-1846.25970523
 31
0.0
  0
LINE
  5
2D6
100
AcDbEntity
  8
Sc.1_5
 62
     9
  6
CONTINUOUS
370
    -2
100
AcDbLine
 10
1705.77154187
 20
-1836.4893006
 30
0.0
 11
1704.460231
 21
-1836.9264043
 31
0.0
  0
LINE
  5
2D7
100
AcDbEntity
  8
Sc.1_5
 62
     9
  6
CONTINUOUS
370
    -2
100
AcDbLine
 10
1705.77154233
 20
-1827.15599967
 30
0.0
 11
1704.46023147
 21
-1827.59310337
 31
0.0
  0
LINE
  5
2D8
100
AcDbEntity
  8
Sc.1_5
 62
     9
  6
CONTINUOUS
370
    -2
100
AcDbLine
 10
1685.03635453
 20
-1822.9264535
 30
0.0
 11
1686.03740377
 21
-1823.03768124
 31
0.0
  0
LINE
  5
2D9
100
AcDbEntity
  8
Sc.1_5
 62
     9
  6
CONTINUOUS
370
    -2
100
AcDbLine
 10
1685.03636594
 20
-1832.25975277
 30
0.0
 11
1686.03741517
 21
-1832.37098052
 31
0.0
  0
LINE
  5
2DA
100
AcDbEntity
  8
Sc.1_5
 62
     9
  6
CONTINUOUS
370
    -2
100
AcDbLine
 10
1685.03637734
 20
-1841.59305204
 30
0.0
 11
1686.03742658
 21
-1841.70427979
 31
0.0
  0
LINE
  5
2DB
100
AcDbEntity
  8
Sc.1_5
 62
     9
  6
CONTINUOUS
370
    -2
100
AcDbLine
 10
1685.03638875
 20
-1850.92635131
 30
0.0
 11
1686.03743799
 21
-1851.03757906
 31
0.0
  0
LINE
  5
2DC
100
AcDbEntity
  8
Sc.1_5
 62
     9
  6
CONTINUOUS
370
    -2
100
AcDbLine
 10
1685.03640015
 20
-1860.25965059
 30
0.0
 11
1686.03744939
 21
-1860.37087833
 31
0.0
  0
LINE
  5
2DD
100
AcDbEntity
  8
Sc.1_5
 62
     9
  6
CONTINUOUS
370
    -2
100
AcDbLine
 10
1685.03641156
 20
-1869.59294986
 30
0.0
 11
1686.0374608
 21
-1869.7041776
 31
0.0
  0
LINE
  5
2DE
100
AcDbEntity
  8
Sc.1_5
 62
     9
  6
CONTINUOUS
370
    -2
100
AcDbLine
 10
1685.03634313
 20
-1822.92645363
 30
0.0
 11
1686.03739236
 21
-1822.81522588
 31
0.0
  0
LINE
  5
2DF
100
AcDbEntity
  8
Sc.1_5
 62
     9
  6
CONTINUOUS
370
    -2
100
AcDbLine
 10
1685.03633172
 20
-1832.2597529
 30
0.0
 11
1686.03738096
 21
-1832.14852515
 31
0.0
  0
LINE
  5
2E0
100
AcDbEntity
  8
Sc.1_5
 62
     9
  6
CONTINUOUS
370
    -2
100
AcDbLine
 10
1685.03632031
 20
-1841.59305217
 30
0.0
 11
1686.03736955
 21
-1841.48182443
 31
0.0
  0
LINE
  5
2E1
100
AcDbEntity
  8
Sc.1_5
 62
     9
  6
CONTINUOUS
370
    -2
100
AcDbLine
 10
1685.03630891
 20
-1850.92635144
 30
0.0
 11
1686.03735814
 21
-1850.8151237
 31
0.0
  0
LINE
  5
2E2
100
AcDbEntity
  8
Sc.1_5
 62
     9
  6
CONTINUOUS
370
    -2
100
AcDbLine
 10
1685.0362975
 20
-1860.25965072
 30
0.0
 11
1686.03734674
 21
-1860.14842297
 31
0.0
  0
LINE
  5
2E3
100
AcDbEntity
  8
Sc.1_5
 62
     9
  6
CONTINUOUS
370
    -2
100
AcDbLine
 10
1685.0362861
 20
-1869.59294999
 30
0.0
 11
1686.03733533
 21
-1869.48172224
 31
0.0
  0
LINE
  5
2E4
100
AcDbEntity
  8
Sc.1_5
 62
     9
  6
CONTINUOUS
370
    -2
100
AcDbLine
 10
1703.70302696
 20
-1874.25960543
 30
0.0
 11
1702.70197769
 21
-1874.14837795
 31
0.0
  0
LINE
  5
2E5
100
AcDbEntity
  8
Sc.1_5
 62
     9
  6
CONTINUOUS
370
    -2
100
AcDbLine
 10
1703.70301306
 20
-1864.92630616
 30
0.0
 11
1702.7019638
 21
-1864.81507868
 31
0.0
  0
LINE
  5
2E6
100
AcDbEntity
  8
Sc.1_5
 62
     9
  6
CONTINUOUS
370
    -2
100
AcDbLine
 10
1703.70299917
 20
-1855.59300689
 30
0.0
 11
1702.70194991
 21
-1855.48177941
 31
0.0
  0
LINE
  5
2E7
100
AcDbEntity
  8
Sc.1_5
 62
     9
  6
CONTINUOUS
370
    -2
100
AcDbLine
 10
1703.70298528
 20
-1846.25970762
 30
0.0
 11
1702.70193601
 21
-1846.14848014
 31
0.0
  0
LINE
  5
2E8
100
AcDbEntity
  8
Sc.1_5
 62
     9
  6
CONTINUOUS
370
    -2
100
AcDbLine
 10
1703.70297139
 20
-1836.92640835
 30
0.0
 11
1702.70192212
 21
-1836.81518087
 31
0.0
  0
LINE
  5
2E9
100
AcDbEntity
  8
Sc.1_5
 62
     9
  6
CONTINUOUS
370
    -2
100
AcDbLine
 10
1703.7029575
 20
-1827.59310907
 30
0.0
 11
1702.70190823
 21
-1827.48188159
 31
0.0
  0
LINE
  5
2EA
100
AcDbEntity
  8
Sc.1_5
 62
     9
  6
CONTINUOUS
370
    -2
100
AcDbLine
 10
1703.70294361
 20
-1818.2598098
 30
0.0
 11
1703.70289074
 21
-1818.25980393
 31
0.0
  0
LINE
  5
2EB
100
AcDbEntity
  8
Sc.1_5
 62
     9
  6
CONTINUOUS
370
    -2
100
AcDbLine
 10
1703.70287517
 20
-1874.25960114
 30
0.0
 11
1702.70182593
 21
-1874.37082889
 31
0.0
  0
LINE
  5
2EC
100
AcDbEntity
  8
Sc.1_5
 62
     9
  6
CONTINUOUS
370
    -2
100
AcDbLine
 10
1703.70288658
 20
-1864.92630187
 30
0.0
 11
1702.70183734
 21
-1865.03752962
 31
0.0
  0
LINE
  5
2ED
100
AcDbEntity
  8
Sc.1_5
 62
     9
  6
CONTINUOUS
370
    -2
100
AcDbLine
 10
1703.70289798
 20
-1855.5930026
 30
0.0
 11
1702.70184875
 21
-1855.70423034
 31
0.0
  0
LINE
  5
2EE
100
AcDbEntity
  8
Sc.1_5
 62
     9
  6
CONTINUOUS
370
    -2
100
AcDbLine
 10
1703.70290939
 20
-1846.25970333
 30
0.0
 11
1702.70186015
 21
-1846.37093107
 31
0.0
  0
LINE
  5
2EF
100
AcDbEntity
  8
Sc.1_5
 62
     9
  6
CONTINUOUS
370
    -2
100
AcDbLine
 10
1703.70292079
 20
-1836.92640405
 30
0.0
 11
1702.70187156
 21
-1837.0376318
 31
0.0
  0
LINE
  5
2F0
100
AcDbEntity
  8
Sc.1_5
 62
     9
  6
CONTINUOUS
370
    -2
100
AcDbLine
 10
1703.7029322
 20
-1827.59310478
 30
0.0
 11
1702.70188296
 21
-1827.70433253
 31
0.0
  0
LINE
  5
2F1
100
AcDbEntity
  8
Sc.1_5
 62
     9
  6
CONTINUOUS
370
    -2
100
AcDbLine
 10
1703.70294361
 20
-1818.25980551
 30
0.0
 11
1702.70189437
 21
-1818.37103326
 31
0.0
  0
ENDBLK
  5
2F2
100
AcDbEntity
100
AcDbBlockEnd
  0
BLOCK
  5
2F3
100
AcDbEntity
  8
Sc.1_5
100
AcDbBlockBegin
  2
*X2293
 70
     1
 10
0.0
 20
0.0
 30
0.0
  3
*X2293
  1

  4
Cadwork hatch
  0
LINE
  5
2F4
100
AcDbEntity
  8
Sc.1_5
 62
     9
  6
CONTINUOUS
370
    -2
100
AcDbLine
 10
1679.89726919
 20
-1768.81762693
 30
0.0
 11
1680.20622865
 21
-1768.6392491
 31
0.0
  0
LINE
  5
2F5
100
AcDbEntity
  8
Sc.1_5
 62
     9
  6
CONTINUOUS
370
    -2
100
AcDbLine
 10
1681.89538307
 20
-1767.66401535
 30
0.0
 11
1682.51330085
 21
-1767.30726035
 31
0.0
  0
LINE
  5
2F6
100
AcDbEntity
  8
Sc.1_5
 62
     9
  6
CONTINUOUS
370
    -2
100
AcDbLine
 10
1684.20245526
 20
-1766.33202659
 30
0.0
 11
1684.82037304
 21
-1765.9752716
 31
0.0
  0
LINE
  5
2F7
100
AcDbEntity
  8
Sc.1_5
 62
     9
  6
CONTINUOUS
370
    -2
100
AcDbLine
 10
1686.50952745
 20
-1765.00003784
 30
0.0
 11
1687.12744523
 21
-1764.64328285
 31
0.0
  0
LINE
  5
2F8
100
AcDbEntity
  8
Sc.1_5
 62
     9
  6
CONTINUOUS
370
    -2
100
AcDbLine
 10
1688.81659965
 20
-1763.66804909
 30
0.0
 11
1689.43451742
 21
-1763.3112941
 31
0.0
  0
LINE
  5
2F9
100
AcDbEntity
  8
Sc.1_5
 62
     9
  6
CONTINUOUS
370
    -2
100
AcDbLine
 10
1691.12367184
 20
-1762.33606034
 30
0.0
 11
1691.74158962
 21
-1761.97930534
 31
0.0
  0
LINE
  5
2FA
100
AcDbEntity
  8
Sc.1_5
 62
     9
  6
CONTINUOUS
370
    -2
100
AcDbLine
 10
1693.43074403
 20
-1761.00407159
 30
0.0
 11
1694.04866181
 21
-1760.64731659
 31
0.0
  0
LINE
  5
2FB
100
AcDbEntity
  8
Sc.1_5
 62
     9
  6
CONTINUOUS
370
    -2
100
AcDbLine
 10
1695.73781623
 20
-1759.67208284
 30
0.0
 11
1696.355734
 21
-1759.31532784
 31
0.0
  0
LINE
  5
2FC
100
AcDbEntity
  8
Sc.1_5
 62
     9
  6
CONTINUOUS
370
    -2
100
AcDbLine
 10
1698.04488842
 20
-1758.34009408
 30
0.0
 11
1698.6628062
 21
-1757.98333909
 31
0.0
  0
LINE
  5
2FD
100
AcDbEntity
  8
Sc.1_5
 62
     9
  6
CONTINUOUS
370
    -2
100
AcDbLine
 10
1700.35196061
 20
-1757.00810533
 30
0.0
 11
1700.96987839
 21
-1756.65135034
 31
0.0
  0
LINE
  5
2FE
100
AcDbEntity
  8
Sc.1_5
 62
     9
  6
CONTINUOUS
370
    -2
100
AcDbLine
 10
1702.6590328
 20
-1755.67611658
 30
0.0
 11
1703.27695058
 21
-1755.31936159
 31
0.0
  0
LINE
  5
2FF
100
AcDbEntity
  8
Sc.1_5
 62
     9
  6
CONTINUOUS
370
    -2
100
AcDbLine
 10
1704.966105
 20
-1754.34412783
 30
0.0
 11
1705.58402277
 21
-1753.98737283
 31
0.0
  0
LINE
  5
300
100
AcDbEntity
  8
Sc.1_5
 62
     9
  6
CONTINUOUS
370
    -2
100
AcDbLine
 10
1707.27317719
 20
-1753.01213908
 30
0.0
 11
1707.89109497
 21
-1752.65538408
 31
0.0
  0
LINE
  5
301
100
AcDbEntity
  8
Sc.1_5
 62
     9
  6
CONTINUOUS
370
    -2
100
AcDbLine
 10
1709.58024938
 20
-1751.68015033
 30
0.0
 11
1710.19816716
 21
-1751.32339533
 31
0.0
  0
LINE
  5
302
100
AcDbEntity
  8
Sc.1_5
 62
     9
  6
CONTINUOUS
370
    -2
100
AcDbLine
 10
1711.88732158
 20
-1750.34816157
 30
0.0
 11
1712.50523935
 21
-1749.99140658
 31
0.0
  0
LINE
  5
303
100
AcDbEntity
  8
Sc.1_5
 62
     9
  6
CONTINUOUS
370
    -2
100
AcDbLine
 10
1714.19439377
 20
-1749.01617282
 30
0.0
 11
1714.81231155
 21
-1748.65941783
 31
0.0
  0
LINE
  5
304
100
AcDbEntity
  8
Sc.1_5
 62
     9
  6
CONTINUOUS
370
    -2
100
AcDbLine
 10
1716.50146596
 20
-1747.68418407
 30
0.0
 11
1717.11938374
 21
-1747.32742908
 31
0.0
  0
LINE
  5
305
100
AcDbEntity
  8
Sc.1_5
 62
     9
  6
CONTINUOUS
370
    -2
100
AcDbLine
 10
1718.80853815
 20
-1746.35219532
 30
0.0
 11
1719.42645593
 21
-1745.99544032
 31
0.0
  0
LINE
  5
306
100
AcDbEntity
  8
Sc.1_5
 62
     9
  6
CONTINUOUS
370
    -2
100
AcDbLine
 10
1721.11561035
 20
-1745.02020657
 30
0.0
 11
1721.73352812
 21
-1744.66345157
 31
0.0
  0
LINE
  5
307
100
AcDbEntity
  8
Sc.1_5
 62
     9
  6
CONTINUOUS
370
    -2
100
AcDbLine
 10
1723.42268254
 20
-1743.68821782
 30
0.0
 11
1724.04060032
 21
-1743.33146282
 31
0.0
  0
LINE
  5
308
100
AcDbEntity
  8
Sc.1_5
 62
     9
  6
CONTINUOUS
370
    -2
100
AcDbLine
 10
1725.72975473
 20
-1742.35622906
 30
0.0
 11
1726.34767251
 21
-1741.99947407
 31
0.0
  0
LINE
  5
309
100
AcDbEntity
  8
Sc.1_5
 62
     9
  6
CONTINUOUS
370
    -2
100
AcDbLine
 10
1728.03682693
 20
-1741.02424031
 30
0.0
 11
1728.6547447
 21
-1740.66748532
 31
0.0
  0
LINE
  5
30A
100
AcDbEntity
  8
Sc.1_5
 62
     9
  6
CONTINUOUS
370
    -2
100
AcDbLine
 10
1730.34389912
 20
-1739.69225156
 30
0.0
 11
1730.9618169
 21
-1739.33549657
 31
0.0
  0
LINE
  5
30B
100
AcDbEntity
  8
Sc.1_5
 62
     9
  6
CONTINUOUS
370
    -2
100
AcDbLine
 10
1732.65097131
 20
-1738.36026281
 30
0.0
 11
1733.26888909
 21
-1738.00350781
 31
0.0
  0
LINE
  5
30C
100
AcDbEntity
  8
Sc.1_5
 62
     9
  6
CONTINUOUS
370
    -2
100
AcDbLine
 10
1734.95804351
 20
-1737.02827406
 30
0.0
 11
1735.57596128
 21
-1736.67151906
 31
0.0
  0
LINE
  5
30D
100
AcDbEntity
  8
Sc.1_5
 62
     9
  6
CONTINUOUS
370
    -2
100
AcDbLine
 10
1737.2651157
 20
-1735.69628531
 30
0.0
 11
1737.88303348
 21
-1735.33953031
 31
0.0
  0
LINE
  5
30E
100
AcDbEntity
  8
Sc.1_5
 62
     9
  6
CONTINUOUS
370
    -2
100
AcDbLine
 10
1739.57218789
 20
-1734.36429655
 30
0.0
 11
1740.19010567
 21
-1734.00754156
 31
0.0
  0
LINE
  5
30F
100
AcDbEntity
  8
Sc.1_5
 62
     9
  6
CONTINUOUS
370
    -2
100
AcDbLine
 10
1741.87926008
 20
-1733.0323078
 30
0.0
 11
1742.49717786
 21
-1732.67555281
 31
0.0
  0
LINE
  5
310
100
AcDbEntity
  8
Sc.1_5
 62
     9
  6
CONTINUOUS
370
    -2
100
AcDbLine
 10
1744.18633228
 20
-1731.70031905
 30
0.0
 11
1744.80425005
 21
-1731.34356406
 31
0.0
  0
LINE
  5
311
100
AcDbEntity
  8
Sc.1_5
 62
     9
  6
CONTINUOUS
370
    -2
100
AcDbLine
 10
1689.08043568
 20
-1779.39538163
 30
0.0
 11
1688.86428353
 21
-1779.02099512
 31
0.0
  0
LINE
  5
312
100
AcDbEntity
  8
Sc.1_5
 62
     9
  6
CONTINUOUS
370
    -2
100
AcDbLine
 10
1693.69457866
 20
-1776.73140494
 30
0.0
 11
1693.47842651
 21
-1776.35701843
 31
0.0
  0
LINE
  5
313
100
AcDbEntity
  8
Sc.1_5
 62
     9
  6
CONTINUOUS
370
    -2
100
AcDbLine
 10
1698.30872165
 20
-1774.06742824
 30
0.0
 11
1698.0925695
 21
-1773.69304174
 31
0.0
  0
LINE
  5
314
100
AcDbEntity
  8
Sc.1_5
 62
     9
  6
CONTINUOUS
370
    -2
100
AcDbLine
 10
1702.92286463
 20
-1771.40345155
 30
0.0
 11
1702.70671248
 21
-1771.02906504
 31
0.0
  0
LINE
  5
315
100
AcDbEntity
  8
Sc.1_5
 62
     9
  6
CONTINUOUS
370
    -2
100
AcDbLine
 10
1707.53700761
 20
-1768.73947486
 30
0.0
 11
1707.32085546
 21
-1768.36508835
 31
0.0
  0
LINE
  5
316
100
AcDbEntity
  8
Sc.1_5
 62
     9
  6
CONTINUOUS
370
    -2
100
AcDbLine
 10
1712.1511506
 20
-1766.07549816
 30
0.0
 11
1711.93499845
 21
-1765.70111166
 31
0.0
  0
LINE
  5
317
100
AcDbEntity
  8
Sc.1_5
 62
     9
  6
CONTINUOUS
370
    -2
100
AcDbLine
 10
1716.76529358
 20
-1763.41152147
 30
0.0
 11
1716.54914143
 21
-1763.03713496
 31
0.0
  0
LINE
  5
318
100
AcDbEntity
  8
Sc.1_5
 62
     9
  6
CONTINUOUS
370
    -2
100
AcDbLine
 10
1721.37943656
 20
-1760.74754478
 30
0.0
 11
1721.16328441
 21
-1760.37315827
 31
0.0
  0
LINE
  5
319
100
AcDbEntity
  8
Sc.1_5
 62
     9
  6
CONTINUOUS
370
    -2
100
AcDbLine
 10
1725.99357955
 20
-1758.08356808
 30
0.0
 11
1725.7774274
 21
-1757.70918158
 31
0.0
  0
LINE
  5
31A
100
AcDbEntity
  8
Sc.1_5
 62
     9
  6
CONTINUOUS
370
    -2
100
AcDbLine
 10
1730.60772253
 20
-1755.41959139
 30
0.0
 11
1730.39157038
 21
-1755.04520488
 31
0.0
  0
LINE
  5
31B
100
AcDbEntity
  8
Sc.1_5
 62
     9
  6
CONTINUOUS
370
    -2
100
AcDbLine
 10
1735.22186551
 20
-1752.7556147
 30
0.0
 11
1735.00571336
 21
-1752.38122819
 31
0.0
  0
LINE
  5
31C
100
AcDbEntity
  8
Sc.1_5
 62
     9
  6
CONTINUOUS
370
    -2
100
AcDbLine
 10
1739.8360085
 20
-1750.091638
 30
0.0
 11
1739.61985635
 21
-1749.7172515
 31
0.0
  0
LINE
  5
31D
100
AcDbEntity
  8
Sc.1_5
 62
     9
  6
CONTINUOUS
370
    -2
100
AcDbLine
 10
1744.45015148
 20
-1747.42766131
 30
0.0
 11
1744.23399933
 21
-1747.0532748
 31
0.0
  0
LINE
  5
31E
100
AcDbEntity
  8
Sc.1_5
 62
     9
  6
CONTINUOUS
370
    -2
100
AcDbLine
 10
1749.06429446
 20
-1744.76368462
 30
0.0
 11
1748.84814231
 21
-1744.38929811
 31
0.0
  0
LINE
  5
31F
100
AcDbEntity
  8
Sc.1_5
 62
     9
  6
CONTINUOUS
370
    -2
100
AcDbLine
 10
1681.22925886
 20
-1771.12469738
 30
0.0
 11
1681.01310671
 21
-1770.75031088
 31
0.0
  0
LINE
  5
320
100
AcDbEntity
  8
Sc.1_5
 62
     9
  6
CONTINUOUS
370
    -2
100
AcDbLine
 10
1685.84340184
 20
-1768.46072069
 30
0.0
 11
1685.62724969
 21
-1768.08633418
 31
0.0
  0
LINE
  5
321
100
AcDbEntity
  8
Sc.1_5
 62
     9
  6
CONTINUOUS
370
    -2
100
AcDbLine
 10
1690.45754482
 20
-1765.796744
 30
0.0
 11
1690.24139267
 21
-1765.42235749
 31
0.0
  0
LINE
  5
322
100
AcDbEntity
  8
Sc.1_5
 62
     9
  6
CONTINUOUS
370
    -2
100
AcDbLine
 10
1695.07168781
 20
-1763.1327673
 30
0.0
 11
1694.85553566
 21
-1762.7583808
 31
0.0
  0
LINE
  5
323
100
AcDbEntity
  8
Sc.1_5
 62
     9
  6
CONTINUOUS
370
    -2
100
AcDbLine
 10
1699.68583079
 20
-1760.46879061
 30
0.0
 11
1699.46967864
 21
-1760.0944041
 31
0.0
  0
LINE
  5
324
100
AcDbEntity
  8
Sc.1_5
 62
     9
  6
CONTINUOUS
370
    -2
100
AcDbLine
 10
1704.29997377
 20
-1757.80481392
 30
0.0
 11
1704.08382162
 21
-1757.43042741
 31
0.0
  0
LINE
  5
325
100
AcDbEntity
  8
Sc.1_5
 62
     9
  6
CONTINUOUS
370
    -2
100
AcDbLine
 10
1708.91411676
 20
-1755.14083722
 30
0.0
 11
1708.69796461
 21
-1754.76645072
 31
0.0
  0
LINE
  5
326
100
AcDbEntity
  8
Sc.1_5
 62
     9
  6
CONTINUOUS
370
    -2
100
AcDbLine
 10
1713.52825974
 20
-1752.47686053
 30
0.0
 11
1713.31210759
 21
-1752.10247402
 31
0.0
  0
LINE
  5
327
100
AcDbEntity
  8
Sc.1_5
 62
     9
  6
CONTINUOUS
370
    -2
100
AcDbLine
 10
1718.14240272
 20
-1749.81288384
 30
0.0
 11
1717.92625057
 21
-1749.43849733
 31
0.0
  0
LINE
  5
328
100
AcDbEntity
  8
Sc.1_5
 62
     9
  6
CONTINUOUS
370
    -2
100
AcDbLine
 10
1722.75654571
 20
-1747.14890714
 30
0.0
 11
1722.54039356
 21
-1746.77452064
 31
0.0
  0
LINE
  5
329
100
AcDbEntity
  8
Sc.1_5
 62
     9
  6
CONTINUOUS
370
    -2
100
AcDbLine
 10
1727.37068869
 20
-1744.48493045
 30
0.0
 11
1727.15453654
 21
-1744.11054394
 31
0.0
  0
LINE
  5
32A
100
AcDbEntity
  8
Sc.1_5
 62
     9
  6
CONTINUOUS
370
    -2
100
AcDbLine
 10
1731.98483167
 20
-1741.82095376
 30
0.0
 11
1731.76867952
 21
-1741.44656725
 31
0.0
  0
LINE
  5
32B
100
AcDbEntity
  8
Sc.1_5
 62
     9
  6
CONTINUOUS
370
    -2
100
AcDbLine
 10
1736.59897466
 20
-1739.15697706
 30
0.0
 11
1736.3828225
 21
-1738.78259056
 31
0.0
  0
LINE
  5
32C
100
AcDbEntity
  8
Sc.1_5
 62
     9
  6
CONTINUOUS
370
    -2
100
AcDbLine
 10
1741.21311764
 20
-1736.49300037
 30
0.0
 11
1740.99696549
 21
-1736.11861386
 31
0.0
  0
LINE
  5
32D
100
AcDbEntity
  8
Sc.1_5
 62
     9
  6
CONTINUOUS
370
    -2
100
AcDbLine
 10
1745.82726062
 20
-1733.82902368
 30
0.0
 11
1745.61110847
 21
-1733.45463717
 31
0.0
  0
LINE
  5
32E
100
AcDbEntity
  8
Sc.1_5
 62
     9
  6
CONTINUOUS
370
    -2
100
AcDbLine
 10
1688.52356867
 20
-1778.55785129
 30
0.0
 11
1681.5699727
 21
-1771.58784334
 31
0.0
  0
LINE
  5
32F
100
AcDbEntity
  8
Sc.1_5
 62
     9
  6
CONTINUOUS
370
    -2
100
AcDbLine
 10
1693.13771528
 20
-1775.89388305
 30
0.0
 11
1686.18411931
 21
-1768.9238751
 31
0.0
  0
LINE
  5
330
100
AcDbEntity
  8
Sc.1_5
 62
     9
  6
CONTINUOUS
370
    -2
100
AcDbLine
 10
1697.7518619
 20
-1773.22991481
 30
0.0
 11
1690.79826592
 21
-1766.25990686
 31
0.0
  0
LINE
  5
331
100
AcDbEntity
  8
Sc.1_5
 62
     9
  6
CONTINUOUS
370
    -2
100
AcDbLine
 10
1702.36600851
 20
-1770.56594657
 30
0.0
 11
1695.41241253
 21
-1763.59593863
 31
0.0
  0
LINE
  5
332
100
AcDbEntity
  8
Sc.1_5
 62
     9
  6
CONTINUOUS
370
    -2
100
AcDbLine
 10
1706.98015512
 20
-1767.90197833
 30
0.0
 11
1700.02655915
 21
-1760.93197039
 31
0.0
  0
LINE
  5
333
100
AcDbEntity
  8
Sc.1_5
 62
     9
  6
CONTINUOUS
370
    -2
100
AcDbLine
 10
1711.59430174
 20
-1765.2380101
 30
0.0
 11
1704.64070576
 21
-1758.26800215
 31
0.0
  0
LINE
  5
334
100
AcDbEntity
  8
Sc.1_5
 62
     9
  6
CONTINUOUS
370
    -2
100
AcDbLine
 10
1716.20844835
 20
-1762.57404186
 30
0.0
 11
1709.25485237
 21
-1755.60403391
 31
0.0
  0
LINE
  5
335
100
AcDbEntity
  8
Sc.1_5
 62
     9
  6
CONTINUOUS
370
    -2
100
AcDbLine
 10
1720.82259496
 20
-1759.91007362
 30
0.0
 11
1713.86899899
 21
-1752.94006567
 31
0.0
  0
LINE
  5
336
100
AcDbEntity
  8
Sc.1_5
 62
     9
  6
CONTINUOUS
370
    -2
100
AcDbLine
 10
1725.43674157
 20
-1757.24610538
 30
0.0
 11
1718.4831456
 21
-1750.27609744
 31
0.0
  0
LINE
  5
337
100
AcDbEntity
  8
Sc.1_5
 62
     9
  6
CONTINUOUS
370
    -2
100
AcDbLine
 10
1730.05088819
 20
-1754.58213715
 30
0.0
 11
1723.09729221
 21
-1747.6121292
 31
0.0
  0
LINE
  5
338
100
AcDbEntity
  8
Sc.1_5
 62
     9
  6
CONTINUOUS
370
    -2
100
AcDbLine
 10
1734.6650348
 20
-1751.91816891
 30
0.0
 11
1727.71143882
 21
-1744.94816096
 31
0.0
  0
LINE
  5
339
100
AcDbEntity
  8
Sc.1_5
 62
     9
  6
CONTINUOUS
370
    -2
100
AcDbLine
 10
1739.27918141
 20
-1749.25420067
 30
0.0
 11
1732.32558544
 21
-1742.28419272
 31
0.0
  0
LINE
  5
33A
100
AcDbEntity
  8
Sc.1_5
 62
     9
  6
CONTINUOUS
370
    -2
100
AcDbLine
 10
1743.89332803
 20
-1746.59023243
 30
0.0
 11
1736.93973205
 21
-1739.62022449
 31
0.0
  0
LINE
  5
33B
100
AcDbEntity
  8
Sc.1_5
 62
     9
  6
CONTINUOUS
370
    -2
100
AcDbLine
 10
1748.50747464
 20
-1743.92626419
 30
0.0
 11
1741.55387866
 21
-1736.95625625
 31
0.0
  0
LINE
  5
33C
100
AcDbEntity
  8
Sc.1_5
 62
     9
  6
CONTINUOUS
370
    -2
100
AcDbLine
 10
1752.26752979
 20
-1740.40618866
 30
0.0
 11
1746.16802528
 21
-1734.29228801
 31
0.0
  0
LINE
  5
33D
100
AcDbEntity
  8
Sc.1_5
 62
     9
  6
CONTINUOUS
370
    -2
100
AcDbLine
 10
1688.63354531
 20
-1778.49435624
 30
0.0
 11
1686.07413935
 21
-1768.98736151
 31
0.0
  0
LINE
  5
33E
100
AcDbEntity
  8
Sc.1_5
 62
     9
  6
CONTINUOUS
370
    -2
100
AcDbLine
 10
1693.24768279
 20
-1775.83037218
 30
0.0
 11
1690.68827683
 21
-1766.32337744
 31
0.0
  0
LINE
  5
33F
100
AcDbEntity
  8
Sc.1_5
 62
     9
  6
CONTINUOUS
370
    -2
100
AcDbLine
 10
1697.86182026
 20
-1773.16638811
 30
0.0
 11
1695.3024143
 21
-1763.65939338
 31
0.0
  0
LINE
  5
340
100
AcDbEntity
  8
Sc.1_5
 62
     9
  6
CONTINUOUS
370
    -2
100
AcDbLine
 10
1702.47595774
 20
-1770.50240405
 30
0.0
 11
1699.91655178
 21
-1760.99540931
 31
0.0
  0
LINE
  5
341
100
AcDbEntity
  8
Sc.1_5
 62
     9
  6
CONTINUOUS
370
    -2
100
AcDbLine
 10
1707.09009521
 20
-1767.83841999
 30
0.0
 11
1704.53068925
 21
-1758.33142525
 31
0.0
  0
LINE
  5
342
100
AcDbEntity
  8
Sc.1_5
 62
     9
  6
CONTINUOUS
370
    -2
100
AcDbLine
 10
1711.70423269
 20
-1765.17443592
 30
0.0
 11
1709.14482673
 21
-1755.66744118
 31
0.0
  0
LINE
  5
343
100
AcDbEntity
  8
Sc.1_5
 62
     9
  6
CONTINUOUS
370
    -2
100
AcDbLine
 10
1716.31837016
 20
-1762.51045186
 30
0.0
 11
1713.7589642
 21
-1753.00345712
 31
0.0
  0
LINE
  5
344
100
AcDbEntity
  8
Sc.1_5
 62
     9
  6
CONTINUOUS
370
    -2
100
AcDbLine
 10
1720.93250764
 20
-1759.84646779
 30
0.0
 11
1718.37310168
 21
-1750.33947306
 31
0.0
  0
LINE
  5
345
100
AcDbEntity
  8
Sc.1_5
 62
     9
  6
CONTINUOUS
370
    -2
100
AcDbLine
 10
1725.54664511
 20
-1757.18248373
 30
0.0
 11
1722.98723915
 21
-1747.67548899
 31
0.0
  0
LINE
  5
346
100
AcDbEntity
  8
Sc.1_5
 62
     9
  6
CONTINUOUS
370
    -2
100
AcDbLine
 10
1730.16078259
 20
-1754.51849966
 30
0.0
 11
1727.60137663
 21
-1745.01150493
 31
0.0
  0
LINE
  5
347
100
AcDbEntity
  8
Sc.1_5
 62
     9
  6
CONTINUOUS
370
    -2
100
AcDbLine
 10
1734.77492006
 20
-1751.8545156
 30
0.0
 11
1732.21551411
 21
-1742.34752086
 31
0.0
  0
LINE
  5
348
100
AcDbEntity
  8
Sc.1_5
 62
     9
  6
CONTINUOUS
370
    -2
100
AcDbLine
 10
1739.38905754
 20
-1749.19053153
 30
0.0
 11
1736.82965158
 21
-1739.6835368
 31
0.0
  0
LINE
  5
349
100
AcDbEntity
  8
Sc.1_5
 62
     9
  6
CONTINUOUS
370
    -2
100
AcDbLine
 10
1744.00319501
 20
-1746.52654747
 30
0.0
 11
1741.44378906
 21
-1737.01955273
 31
0.0
  0
LINE
  5
34A
100
AcDbEntity
  8
Sc.1_5
 62
     9
  6
CONTINUOUS
370
    -2
100
AcDbLine
 10
1748.61733249
 20
-1743.8625634
 30
0.0
 11
1746.05792653
 21
-1734.35556867
 31
0.0
  0
LINE
  5
34B
100
AcDbEntity
  8
Sc.1_5
 62
     9
  6
CONTINUOUS
370
    -2
100
AcDbLine
 10
1688.198159
 20
-1782.48167851
 30
0.0
 11
1688.70791436
 21
-1781.96736326
 31
0.0
  0
LINE
  5
34C
100
AcDbEntity
  8
Sc.1_5
 62
     9
  6
CONTINUOUS
370
    -2
100
AcDbLine
 10
1692.81230229
 20
-1779.81770163
 30
0.0
 11
1693.32205727
 21
-1779.30338678
 31
0.0
  0
LINE
  5
34D
100
AcDbEntity
  8
Sc.1_5
 62
     9
  6
CONTINUOUS
370
    -2
100
AcDbLine
 10
1697.42644558
 20
-1777.15372476
 30
0.0
 11
1697.93620018
 21
-1776.63941029
 31
0.0
  0
LINE
  5
34E
100
AcDbEntity
  8
Sc.1_5
 62
     9
  6
CONTINUOUS
370
    -2
100
AcDbLine
 10
1702.04058887
 20
-1774.48974789
 30
0.0
 11
1702.55034309
 21
-1773.9754338
 31
0.0
  0
LINE
  5
34F
100
AcDbEntity
  8
Sc.1_5
 62
     9
  6
CONTINUOUS
370
    -2
100
AcDbLine
 10
1706.65473216
 20
-1771.82577102
 30
0.0
 11
1707.164486
 21
-1771.31145732
 31
0.0
  0
LINE
  5
350
100
AcDbEntity
  8
Sc.1_5
 62
     9
  6
CONTINUOUS
370
    -2
100
AcDbLine
 10
1711.26887545
 20
-1769.16179415
 30
0.0
 11
1711.77862891
 21
-1768.64748083
 31
0.0
  0
LINE
  5
351
100
AcDbEntity
  8
Sc.1_5
 62
     9
  6
CONTINUOUS
370
    -2
100
AcDbLine
 10
1715.88301875
 20
-1766.49781728
 30
0.0
 11
1716.39277182
 21
-1765.98350435
 31
0.0
  0
LINE
  5
352
100
AcDbEntity
  8
Sc.1_5
 62
     9
  6
CONTINUOUS
370
    -2
100
AcDbLine
 10
1720.49716204
 20
-1763.8338404
 30
0.0
 11
1721.00691473
 21
-1763.31952786
 31
0.0
  0
LINE
  5
353
100
AcDbEntity
  8
Sc.1_5
 62
     9
  6
CONTINUOUS
370
    -2
100
AcDbLine
 10
1725.11130533
 20
-1761.16986353
 30
0.0
 11
1725.62105764
 21
-1760.65555137
 31
0.0
  0
LINE
  5
354
100
AcDbEntity
  8
Sc.1_5
 62
     9
  6
CONTINUOUS
370
    -2
100
AcDbLine
 10
1729.72544862
 20
-1758.50588666
 30
0.0
 11
1730.23520054
 21
-1757.99157489
 31
0.0
  0
LINE
  5
355
100
AcDbEntity
  8
Sc.1_5
 62
     9
  6
CONTINUOUS
370
    -2
100
AcDbLine
 10
1734.33959191
 20
-1755.84190979
 30
0.0
 11
1734.84934345
 21
-1755.3275984
 31
0.0
  0
LINE
  5
356
100
AcDbEntity
  8
Sc.1_5
 62
     9
  6
CONTINUOUS
370
    -2
100
AcDbLine
 10
1738.95373521
 20
-1753.17793292
 30
0.0
 11
1739.46348636
 21
-1752.66362192
 31
0.0
  0
LINE
  5
357
100
AcDbEntity
  8
Sc.1_5
 62
     9
  6
CONTINUOUS
370
    -2
100
AcDbLine
 10
1743.5678785
 20
-1750.51395605
 30
0.0
 11
1744.07762927
 21
-1749.99964543
 31
0.0
  0
LINE
  5
358
100
AcDbEntity
  8
Sc.1_5
 62
     9
  6
CONTINUOUS
370
    -2
100
AcDbLine
 10
1748.18202179
 20
-1747.84997917
 30
0.0
 11
1748.69177218
 21
-1747.33566894
 31
0.0
  0
LINE
  5
359
100
AcDbEntity
  8
Sc.1_5
 62
     9
  6
CONTINUOUS
370
    -2
100
AcDbLine
 10
1752.79616508
 20
-1745.1860023
 30
0.0
 11
1753.30591509
 21
-1744.67169246
 31
0.0
  0
LINE
  5
35A
100
AcDbEntity
  8
Sc.1_5
 62
     9
  6
CONTINUOUS
370
    -2
100
AcDbLine
 10
1692.19438363
 20
-1780.17445615
 30
0.0
 11
1691.49409591
 21
-1780.35875972
 31
0.0
  0
LINE
  5
35B
100
AcDbEntity
  8
Sc.1_5
 62
     9
  6
CONTINUOUS
370
    -2
100
AcDbLine
 10
1696.80852604
 20
-1777.5104788
 30
0.0
 11
1696.10823832
 21
-1777.69478237
 31
0.0
  0
LINE
  5
35C
100
AcDbEntity
  8
Sc.1_5
 62
     9
  6
CONTINUOUS
370
    -2
100
AcDbLine
 10
1701.42266845
 20
-1774.84650146
 30
0.0
 11
1700.72238073
 21
-1775.03080502
 31
0.0
  0
LINE
  5
35D
100
AcDbEntity
  8
Sc.1_5
 62
     9
  6
CONTINUOUS
370
    -2
100
AcDbLine
 10
1706.03681087
 20
-1772.18252411
 30
0.0
 11
1705.33652314
 21
-1772.36682767
 31
0.0
  0
LINE
  5
35E
100
AcDbEntity
  8
Sc.1_5
 62
     9
  6
CONTINUOUS
370
    -2
100
AcDbLine
 10
1710.65095328
 20
-1769.51854676
 30
0.0
 11
1709.95066556
 21
-1769.70285033
 31
0.0
  0
LINE
  5
35F
100
AcDbEntity
  8
Sc.1_5
 62
     9
  6
CONTINUOUS
370
    -2
100
AcDbLine
 10
1715.26509569
 20
-1766.85456941
 30
0.0
 11
1714.56480797
 21
-1767.03887298
 31
0.0
  0
LINE
  5
360
100
AcDbEntity
  8
Sc.1_5
 62
     9
  6
CONTINUOUS
370
    -2
100
AcDbLine
 10
1719.8792381
 20
-1764.19059207
 30
0.0
 11
1719.17895038
 21
-1764.37489563
 31
0.0
  0
LINE
  5
361
100
AcDbEntity
  8
Sc.1_5
 62
     9
  6
CONTINUOUS
370
    -2
100
AcDbLine
 10
1724.49338052
 20
-1761.52661472
 30
0.0
 11
1723.79309279
 21
-1761.71091828
 31
0.0
  0
LINE
  5
362
100
AcDbEntity
  8
Sc.1_5
 62
     9
  6
CONTINUOUS
370
    -2
100
AcDbLine
 10
1729.10752293
 20
-1758.86263737
 30
0.0
 11
1728.40723521
 21
-1759.04694093
 31
0.0
  0
LINE
  5
363
100
AcDbEntity
  8
Sc.1_5
 62
     9
  6
CONTINUOUS
370
    -2
100
AcDbLine
 10
1733.72166534
 20
-1756.19866002
 30
0.0
 11
1733.02137762
 21
-1756.38296359
 31
0.0
  0
LINE
  5
364
100
AcDbEntity
  8
Sc.1_5
 62
     9
  6
CONTINUOUS
370
    -2
100
AcDbLine
 10
1738.33580775
 20
-1753.53468267
 30
0.0
 11
1737.63552003
 21
-1753.71898624
 31
0.0
  0
LINE
  5
365
100
AcDbEntity
  8
Sc.1_5
 62
     9
  6
CONTINUOUS
370
    -2
100
AcDbLine
 10
1742.94995016
 20
-1750.87070533
 30
0.0
 11
1742.24966244
 21
-1751.05500889
 31
0.0
  0
LINE
  5
366
100
AcDbEntity
  8
Sc.1_5
 62
     9
  6
CONTINUOUS
370
    -2
100
AcDbLine
 10
1747.56409258
 20
-1748.20672798
 30
0.0
 11
1746.86380485
 21
-1748.39103154
 31
0.0
  0
LINE
  5
367
100
AcDbEntity
  8
Sc.1_5
 62
     9
  6
CONTINUOUS
370
    -2
100
AcDbLine
 10
1752.17823499
 20
-1745.54275063
 30
0.0
 11
1751.47794727
 21
-1745.7270542
 31
0.0
  0
LINE
  5
368
100
AcDbEntity
  8
Sc.1_5
 62
     9
  6
CONTINUOUS
370
    -2
100
AcDbLine
 10
1681.38562628
 20
-1768.17832959
 30
0.0
 11
1681.89538032
 21
-1767.66401568
 31
0.0
  0
LINE
  5
369
100
AcDbEntity
  8
Sc.1_5
 62
     9
  6
CONTINUOUS
370
    -2
100
AcDbLine
 10
1685.99976919
 20
-1765.51435311
 30
0.0
 11
1686.50952361
 21
-1765.00003881
 31
0.0
  0
LINE
  5
36A
100
AcDbEntity
  8
Sc.1_5
 62
     9
  6
CONTINUOUS
370
    -2
100
AcDbLine
 10
1690.6139121
 20
-1762.85037662
 30
0.0
 11
1691.1236669
 21
-1762.33606194
 31
0.0
  0
LINE
  5
36B
100
AcDbEntity
  8
Sc.1_5
 62
     9
  6
CONTINUOUS
370
    -2
100
AcDbLine
 10
1695.22805501
 20
-1760.18640013
 30
0.0
 11
1695.7378102
 21
-1759.67208507
 31
0.0
  0
LINE
  5
36C
100
AcDbEntity
  8
Sc.1_5
 62
     9
  6
CONTINUOUS
370
    -2
100
AcDbLine
 10
1699.84219792
 20
-1757.52242365
 30
0.0
 11
1700.35195328
 21
-1757.0081084
 31
0.0
  0
LINE
  5
36D
100
AcDbEntity
  8
Sc.1_5
 62
     9
  6
CONTINUOUS
370
    -2
100
AcDbLine
 10
1704.45634083
 20
-1754.85844716
 30
0.0
 11
1704.96609619
 21
-1754.34413192
 31
0.0
  0
LINE
  5
36E
100
AcDbEntity
  8
Sc.1_5
 62
     9
  6
CONTINUOUS
370
    -2
100
AcDbLine
 10
1709.07048374
 20
-1752.19447068
 30
0.0
 11
1709.5802391
 21
-1751.68015543
 31
0.0
  0
LINE
  5
36F
100
AcDbEntity
  8
Sc.1_5
 62
     9
  6
CONTINUOUS
370
    -2
100
AcDbLine
 10
1713.68462665
 20
-1749.53049419
 30
0.0
 11
1714.19438201
 21
-1749.01617895
 31
0.0
  0
LINE
  5
370
100
AcDbEntity
  8
Sc.1_5
 62
     9
  6
CONTINUOUS
370
    -2
100
AcDbLine
 10
1718.29876956
 20
-1746.8665177
 30
0.0
 11
1718.80852492
 21
-1746.35220246
 31
0.0
  0
LINE
  5
371
100
AcDbEntity
  8
Sc.1_5
 62
     9
  6
CONTINUOUS
370
    -2
100
AcDbLine
 10
1722.91291247
 20
-1744.20254122
 30
0.0
 11
1723.42266783
 21
-1743.68822597
 31
0.0
  0
LINE
  5
372
100
AcDbEntity
  8
Sc.1_5
 62
     9
  6
CONTINUOUS
370
    -2
100
AcDbLine
 10
1727.52705538
 20
-1741.53856473
 30
0.0
 11
1728.03681074
 21
-1741.02424949
 31
0.0
  0
LINE
  5
373
100
AcDbEntity
  8
Sc.1_5
 62
     9
  6
CONTINUOUS
370
    -2
100
AcDbLine
 10
1732.14119829
 20
-1738.87458825
 30
0.0
 11
1732.65095365
 21
-1738.360273
 31
0.0
  0
LINE
  5
374
100
AcDbEntity
  8
Sc.1_5
 62
     9
  6
CONTINUOUS
370
    -2
100
AcDbLine
 10
1736.7553412
 20
-1736.21061176
 30
0.0
 11
1737.26509656
 21
-1735.69629652
 31
0.0
  0
LINE
  5
375
100
AcDbEntity
  8
Sc.1_5
 62
     9
  6
CONTINUOUS
370
    -2
100
AcDbLine
 10
1741.36948411
 20
-1733.54663527
 30
0.0
 11
1741.87923947
 21
-1733.03232003
 31
0.0
  0
LINE
  5
376
100
AcDbEntity
  8
Sc.1_5
 62
     9
  6
CONTINUOUS
370
    -2
100
AcDbLine
 10
1745.98362702
 20
-1730.88265879
 30
0.0
 11
1746.47998235
 21
-1730.38186344
 31
0.0
  0
LINE
  5
377
100
AcDbEntity
  8
Sc.1_5
 62
     9
  6
CONTINUOUS
370
    -2
100
AcDbLine
 10
1742.49716146
 20
-1732.67556103
 30
0.0
 11
1743.19744268
 21
-1732.49125928
 31
0.0
  0
LINE
  5
378
100
AcDbEntity
  8
Sc.1_5
 62
     9
  6
CONTINUOUS
370
    -2
100
AcDbLine
 10
1737.88301817
 20
-1735.3395379
 30
0.0
 11
1738.58329991
 21
-1735.15523601
 31
0.0
  0
LINE
  5
379
100
AcDbEntity
  8
Sc.1_5
 62
     9
  6
CONTINUOUS
370
    -2
100
AcDbLine
 10
1733.26887487
 20
-1738.00351477
 30
0.0
 11
1733.96915715
 21
-1737.81921274
 31
0.0
  0
LINE
  5
37A
100
AcDbEntity
  8
Sc.1_5
 62
     9
  6
CONTINUOUS
370
    -2
100
AcDbLine
 10
1728.65473158
 20
-1740.66749164
 30
0.0
 11
1729.35501438
 21
-1740.48318948
 31
0.0
  0
LINE
  5
37B
100
AcDbEntity
  8
Sc.1_5
 62
     9
  6
CONTINUOUS
370
    -2
100
AcDbLine
 10
1724.04058829
 20
-1743.33146852
 30
0.0
 11
1724.74087161
 21
-1743.14716621
 31
0.0
  0
LINE
  5
37C
100
AcDbEntity
  8
Sc.1_5
 62
     9
  6
CONTINUOUS
370
    -2
100
AcDbLine
 10
1719.426445
 20
-1745.99544539
 30
0.0
 11
1720.12672885
 21
-1745.81114294
 31
0.0
  0
LINE
  5
37D
100
AcDbEntity
  8
Sc.1_5
 62
     9
  6
CONTINUOUS
370
    -2
100
AcDbLine
 10
1714.81230171
 20
-1748.65942226
 30
0.0
 11
1715.51258608
 21
-1748.47511968
 31
0.0
  0
LINE
  5
37E
100
AcDbEntity
  8
Sc.1_5
 62
     9
  6
CONTINUOUS
370
    -2
100
AcDbLine
 10
1710.19815841
 20
-1751.32339913
 30
0.0
 11
1710.89844331
 21
-1751.13909641
 31
0.0
  0
LINE
  5
37F
100
AcDbEntity
  8
Sc.1_5
 62
     9
  6
CONTINUOUS
370
    -2
100
AcDbLine
 10
1705.58401512
 20
-1753.987376
 30
0.0
 11
1706.28430055
 21
-1753.80307314
 31
0.0
  0
LINE
  5
380
100
AcDbEntity
  8
Sc.1_5
 62
     9
  6
CONTINUOUS
370
    -2
100
AcDbLine
 10
1700.96987183
 20
-1756.65135287
 30
0.0
 11
1701.67015778
 21
-1756.46704988
 31
0.0
  0
LINE
  5
381
100
AcDbEntity
  8
Sc.1_5
 62
     9
  6
CONTINUOUS
370
    -2
100
AcDbLine
 10
1696.35572854
 20
-1759.31532975
 30
0.0
 11
1697.05601501
 21
-1759.13102661
 31
0.0
  0
LINE
  5
382
100
AcDbEntity
  8
Sc.1_5
 62
     9
  6
CONTINUOUS
370
    -2
100
AcDbLine
 10
1691.74158525
 20
-1761.97930662
 30
0.0
 11
1692.44187224
 21
-1761.79500334
 31
0.0
  0
LINE
  5
383
100
AcDbEntity
  8
Sc.1_5
 62
     9
  6
CONTINUOUS
370
    -2
100
AcDbLine
 10
1687.12744196
 20
-1764.64328349
 30
0.0
 11
1687.82772948
 21
-1764.45898008
 31
0.0
  0
LINE
  5
384
100
AcDbEntity
  8
Sc.1_5
 62
     9
  6
CONTINUOUS
370
    -2
100
AcDbLine
 10
1682.51329896
 20
-1767.30726028
 30
0.0
 11
1683.21358671
 21
-1767.12295681
 31
0.0
  0
LINE
  5
385
100
AcDbEntity
  8
Sc.1_5
 62
     9
  6
CONTINUOUS
370
    -2
100
AcDbLine
 10
1688.70791361
 20
-1781.96736364
 30
0.0
 11
1689.04556923
 21
-1781.35912448
 31
0.0
  0
LINE
  5
386
100
AcDbEntity
  8
Sc.1_5
 62
     9
  6
CONTINUOUS
370
    -2
100
AcDbLine
 10
1693.32205738
 20
-1779.30338646
 30
0.0
 11
1693.65971299
 21
-1778.6951473
 31
0.0
  0
LINE
  5
387
100
AcDbEntity
  8
Sc.1_5
 62
     9
  6
CONTINUOUS
370
    -2
100
AcDbLine
 10
1697.93620114
 20
-1776.63940927
 30
0.0
 11
1698.27385676
 21
-1776.03117012
 31
0.0
  0
LINE
  5
388
100
AcDbEntity
  8
Sc.1_5
 62
     9
  6
CONTINUOUS
370
    -2
100
AcDbLine
 10
1702.5503449
 20
-1773.97543209
 30
0.0
 11
1702.88800052
 21
-1773.36719293
 31
0.0
  0
LINE
  5
389
100
AcDbEntity
  8
Sc.1_5
 62
     9
  6
CONTINUOUS
370
    -2
100
AcDbLine
 10
1707.16448866
 20
-1771.3114549
 30
0.0
 11
1707.50214428
 21
-1770.70321575
 31
0.0
  0
LINE
  5
38A
100
AcDbEntity
  8
Sc.1_5
 62
     9
  6
CONTINUOUS
370
    -2
100
AcDbLine
 10
1711.77863243
 20
-1768.64747772
 30
0.0
 11
1712.11628804
 21
-1768.03923856
 31
0.0
  0
LINE
  5
38B
100
AcDbEntity
  8
Sc.1_5
 62
     9
  6
CONTINUOUS
370
    -2
100
AcDbLine
 10
1716.39277619
 20
-1765.98350054
 30
0.0
 11
1716.73043181
 21
-1765.37526138
 31
0.0
  0
LINE
  5
38C
100
AcDbEntity
  8
Sc.1_5
 62
     9
  6
CONTINUOUS
370
    -2
100
AcDbLine
 10
1721.00691995
 20
-1763.31952335
 30
0.0
 11
1721.34457557
 21
-1762.71128419
 31
0.0
  0
LINE
  5
38D
100
AcDbEntity
  8
Sc.1_5
 62
     9
  6
CONTINUOUS
370
    -2
100
AcDbLine
 10
1725.62106371
 20
-1760.65554617
 30
0.0
 11
1725.95871933
 21
-1760.04730701
 31
0.0
  0
LINE
  5
38E
100
AcDbEntity
  8
Sc.1_5
 62
     9
  6
CONTINUOUS
370
    -2
100
AcDbLine
 10
1730.23520748
 20
-1757.99156898
 30
0.0
 11
1730.5728631
 21
-1757.38332982
 31
0.0
  0
LINE
  5
38F
100
AcDbEntity
  8
Sc.1_5
 62
     9
  6
CONTINUOUS
370
    -2
100
AcDbLine
 10
1734.84935124
 20
-1755.3275918
 30
0.0
 11
1735.18700686
 21
-1754.71935264
 31
0.0
  0
LINE
  5
390
100
AcDbEntity
  8
Sc.1_5
 62
     9
  6
CONTINUOUS
370
    -2
100
AcDbLine
 10
1739.463495
 20
-1752.66361461
 30
0.0
 11
1739.80115062
 21
-1752.05537546
 31
0.0
  0
LINE
  5
391
100
AcDbEntity
  8
Sc.1_5
 62
     9
  6
CONTINUOUS
370
    -2
100
AcDbLine
 10
1744.07763877
 20
-1749.99963743
 30
0.0
 11
1744.41529438
 21
-1749.39139827
 31
0.0
  0
LINE
  5
392
100
AcDbEntity
  8
Sc.1_5
 62
     9
  6
CONTINUOUS
370
    -2
100
AcDbLine
 10
1748.69178253
 20
-1747.33566025
 30
0.0
 11
1749.02943815
 21
-1746.72742109
 31
0.0
  0
LINE
  5
393
100
AcDbEntity
  8
Sc.1_5
 62
     9
  6
CONTINUOUS
370
    -2
100
AcDbLine
 10
1753.30592629
 20
-1744.67168306
 30
0.0
 11
1753.64358191
 21
-1744.0634439
 31
0.0
  0
LINE
  5
394
100
AcDbEntity
  8
Sc.1_5
 62
     9
  6
CONTINUOUS
370
    -2
100
AcDbLine
 10
1691.49068466
 20
-1780.36073048
 30
0.0
 11
1690.79510628
 21
-1780.3490292
 31
0.0
  0
LINE
  5
395
100
AcDbEntity
  8
Sc.1_5
 62
     9
  6
CONTINUOUS
370
    -2
100
AcDbLine
 10
1696.10482863
 20
-1777.69675367
 30
0.0
 11
1695.40925026
 21
-1777.68505238
 31
0.0
  0
LINE
  5
396
100
AcDbEntity
  8
Sc.1_5
 62
     9
  6
CONTINUOUS
370
    -2
100
AcDbLine
 10
1700.71897261
 20
-1775.03277685
 30
0.0
 11
1700.02339424
 21
-1775.02107557
 31
0.0
  0
LINE
  5
397
100
AcDbEntity
  8
Sc.1_5
 62
     9
  6
CONTINUOUS
370
    -2
100
AcDbLine
 10
1705.33311658
 20
-1772.36880003
 30
0.0
 11
1704.63753821
 21
-1772.35709875
 31
0.0
  0
LINE
  5
398
100
AcDbEntity
  8
Sc.1_5
 62
     9
  6
CONTINUOUS
370
    -2
100
AcDbLine
 10
1709.94726056
 20
-1769.70482322
 30
0.0
 11
1709.25168219
 21
-1769.69312194
 31
0.0
  0
LINE
  5
399
100
AcDbEntity
  8
Sc.1_5
 62
     9
  6
CONTINUOUS
370
    -2
100
AcDbLine
 10
1714.56140453
 20
-1767.0408464
 30
0.0
 11
1713.86582616
 21
-1767.02914512
 31
0.0
  0
LINE
  5
39A
100
AcDbEntity
  8
Sc.1_5
 62
     9
  6
CONTINUOUS
370
    -2
100
AcDbLine
 10
1719.17554851
 20
-1764.37686959
 30
0.0
 11
1718.47997014
 21
-1764.3651683
 31
0.0
  0
LINE
  5
39B
100
AcDbEntity
  8
Sc.1_5
 62
     9
  6
CONTINUOUS
370
    -2
100
AcDbLine
 10
1723.78969248
 20
-1761.71289277
 30
0.0
 11
1723.09411411
 21
-1761.70119149
 31
0.0
  0
LINE
  5
39C
100
AcDbEntity
  8
Sc.1_5
 62
     9
  6
CONTINUOUS
370
    -2
100
AcDbLine
 10
1728.40383646
 20
-1759.04891596
 30
0.0
 11
1727.70825809
 21
-1759.03721467
 31
0.0
  0
LINE
  5
39D
100
AcDbEntity
  8
Sc.1_5
 62
     9
  6
CONTINUOUS
370
    -2
100
AcDbLine
 10
1733.01798043
 20
-1756.38493914
 30
0.0
 11
1732.32240206
 21
-1756.37323786
 31
0.0
  0
LINE
  5
39E
100
AcDbEntity
  8
Sc.1_5
 62
     9
  6
CONTINUOUS
370
    -2
100
AcDbLine
 10
1737.63212441
 20
-1753.72096232
 30
0.0
 11
1736.93654604
 21
-1753.70926104
 31
0.0
  0
LINE
  5
39F
100
AcDbEntity
  8
Sc.1_5
 62
     9
  6
CONTINUOUS
370
    -2
100
AcDbLine
 10
1742.24626839
 20
-1751.05698551
 30
0.0
 11
1741.55069002
 21
-1751.04528422
 31
0.0
  0
LINE
  5
3A0
100
AcDbEntity
  8
Sc.1_5
 62
     9
  6
CONTINUOUS
370
    -2
100
AcDbLine
 10
1746.86041236
 20
-1748.39300869
 30
0.0
 11
1746.16483399
 21
-1748.38130741
 31
0.0
  0
LINE
  5
3A1
100
AcDbEntity
  8
Sc.1_5
 62
     9
  6
CONTINUOUS
370
    -2
100
AcDbLine
 10
1751.47455634
 20
-1745.72903188
 30
0.0
 11
1750.77897797
 21
-1745.71733059
 31
0.0
  0
LINE
  5
3A2
100
AcDbEntity
  8
Sc.1_5
 62
     9
  6
CONTINUOUS
370
    -2
100
AcDbLine
 10
1681.04797227
 20
-1768.78656942
 30
0.0
 11
1681.38562789
 21
-1768.17833026
 31
0.0
  0
LINE
  5
3A3
100
AcDbEntity
  8
Sc.1_5
 62
     9
  6
CONTINUOUS
370
    -2
100
AcDbLine
 10
1685.66211603
 20
-1766.12259224
 30
0.0
 11
1685.99977165
 21
-1765.51435308
 31
0.0
  0
LINE
  5
3A4
100
AcDbEntity
  8
Sc.1_5
 62
     9
  6
CONTINUOUS
370
    -2
100
AcDbLine
 10
1690.27625979
 20
-1763.45861505
 30
0.0
 11
1690.61391541
 21
-1762.8503759
 31
0.0
  0
LINE
  5
3A5
100
AcDbEntity
  8
Sc.1_5
 62
     9
  6
CONTINUOUS
370
    -2
100
AcDbLine
 10
1694.89040356
 20
-1760.79463787
 30
0.0
 11
1695.22805918
 21
-1760.18639871
 31
0.0
  0
LINE
  5
3A6
100
AcDbEntity
  8
Sc.1_5
 62
     9
  6
CONTINUOUS
370
    -2
100
AcDbLine
 10
1699.50454732
 20
-1758.13066069
 30
0.0
 11
1699.84220294
 21
-1757.52242153
 31
0.0
  0
LINE
  5
3A7
100
AcDbEntity
  8
Sc.1_5
 62
     9
  6
CONTINUOUS
370
    -2
100
AcDbLine
 10
1704.11869108
 20
-1755.4666835
 30
0.0
 11
1704.4563467
 21
-1754.85844434
 31
0.0
  0
LINE
  5
3A8
100
AcDbEntity
  8
Sc.1_5
 62
     9
  6
CONTINUOUS
370
    -2
100
AcDbLine
 10
1708.73283485
 20
-1752.80270632
 30
0.0
 11
1709.07049046
 21
-1752.19446716
 31
0.0
  0
LINE
  5
3A9
100
AcDbEntity
  8
Sc.1_5
 62
     9
  6
CONTINUOUS
370
    -2
100
AcDbLine
 10
1713.34697861
 20
-1750.13872913
 30
0.0
 11
1713.68463423
 21
-1749.53048997
 31
0.0
  0
LINE
  5
3AA
100
AcDbEntity
  8
Sc.1_5
 62
     9
  6
CONTINUOUS
370
    -2
100
AcDbLine
 10
1717.96112237
 20
-1747.47475195
 30
0.0
 11
1718.29877799
 21
-1746.86651279
 31
0.0
  0
LINE
  5
3AB
100
AcDbEntity
  8
Sc.1_5
 62
     9
  6
CONTINUOUS
370
    -2
100
AcDbLine
 10
1722.57526613
 20
-1744.81077476
 30
0.0
 11
1722.91292175
 21
-1744.20253561
 31
0.0
  0
LINE
  5
3AC
100
AcDbEntity
  8
Sc.1_5
 62
     9
  6
CONTINUOUS
370
    -2
100
AcDbLine
 10
1727.1894099
 20
-1742.14679758
 30
0.0
 11
1727.52706551
 21
-1741.53855842
 31
0.0
  0
LINE
  5
3AD
100
AcDbEntity
  8
Sc.1_5
 62
     9
  6
CONTINUOUS
370
    -2
100
AcDbLine
 10
1731.80355366
 20
-1739.48282039
 30
0.0
 11
1732.14120928
 21
-1738.87458124
 31
0.0
  0
LINE
  5
3AE
100
AcDbEntity
  8
Sc.1_5
 62
     9
  6
CONTINUOUS
370
    -2
100
AcDbLine
 10
1736.41769742
 20
-1736.81884321
 30
0.0
 11
1736.75535304
 21
-1736.21060405
 31
0.0
  0
LINE
  5
3AF
100
AcDbEntity
  8
Sc.1_5
 62
     9
  6
CONTINUOUS
370
    -2
100
AcDbLine
 10
1741.03184119
 20
-1734.15486603
 30
0.0
 11
1741.3694968
 21
-1733.54662687
 31
0.0
  0
LINE
  5
3B0
100
AcDbEntity
  8
Sc.1_5
 62
     9
  6
CONTINUOUS
370
    -2
100
AcDbLine
 10
1745.64598495
 20
-1731.49088884
 30
0.0
 11
1745.98364057
 21
-1730.88264968
 31
0.0
  0
LINE
  5
3B1
100
AcDbEntity
  8
Sc.1_5
 62
     9
  6
CONTINUOUS
370
    -2
100
AcDbLine
 10
1743.19745642
 20
-1732.49125335
 30
0.0
 11
1743.89303479
 21
-1732.50295459
 31
0.0
  0
LINE
  5
3B2
100
AcDbEntity
  8
Sc.1_5
 62
     9
  6
CONTINUOUS
370
    -2
100
AcDbLine
 10
1738.58331262
 20
-1735.15523048
 30
0.0
 11
1739.27889099
 21
-1735.16693171
 31
0.0
  0
LINE
  5
3B3
100
AcDbEntity
  8
Sc.1_5
 62
     9
  6
CONTINUOUS
370
    -2
100
AcDbLine
 10
1733.96916882
 20
-1737.8192076
 30
0.0
 11
1734.66474719
 21
-1737.83090884
 31
0.0
  0
LINE
  5
3B4
100
AcDbEntity
  8
Sc.1_5
 62
     9
  6
CONTINUOUS
370
    -2
100
AcDbLine
 10
1729.35502502
 20
-1740.48318472
 30
0.0
 11
1730.05060339
 21
-1740.49488596
 31
0.0
  0
LINE
  5
3B5
100
AcDbEntity
  8
Sc.1_5
 62
     9
  6
CONTINUOUS
370
    -2
100
AcDbLine
 10
1724.74088122
 20
-1743.14716185
 30
0.0
 11
1725.4364596
 21
-1743.15886308
 31
0.0
  0
LINE
  5
3B6
100
AcDbEntity
  8
Sc.1_5
 62
     9
  6
CONTINUOUS
370
    -2
100
AcDbLine
 10
1720.12673743
 20
-1745.81113897
 30
0.0
 11
1720.8223158
 21
-1745.82284021
 31
0.0
  0
LINE
  5
3B7
100
AcDbEntity
  8
Sc.1_5
 62
     9
  6
CONTINUOUS
370
    -2
100
AcDbLine
 10
1715.51259363
 20
-1748.47511609
 30
0.0
 11
1716.208172
 21
-1748.48681733
 31
0.0
  0
LINE
  5
3B8
100
AcDbEntity
  8
Sc.1_5
 62
     9
  6
CONTINUOUS
370
    -2
100
AcDbLine
 10
1710.89844983
 20
-1751.13909322
 30
0.0
 11
1711.5940282
 21
-1751.15079445
 31
0.0
  0
LINE
  5
3B9
100
AcDbEntity
  8
Sc.1_5
 62
     9
  6
CONTINUOUS
370
    -2
100
AcDbLine
 10
1706.28430603
 20
-1753.80307034
 30
0.0
 11
1706.9798844
 21
-1753.81477158
 31
0.0
  0
LINE
  5
3BA
100
AcDbEntity
  8
Sc.1_5
 62
     9
  6
CONTINUOUS
370
    -2
100
AcDbLine
 10
1701.67016223
 20
-1756.46704746
 30
0.0
 11
1702.3657406
 21
-1756.4787487
 31
0.0
  0
LINE
  5
3BB
100
AcDbEntity
  8
Sc.1_5
 62
     9
  6
CONTINUOUS
370
    -2
100
AcDbLine
 10
1697.05601844
 20
-1759.13102459
 30
0.0
 11
1697.75159681
 21
-1759.14272582
 31
0.0
  0
LINE
  5
3BC
100
AcDbEntity
  8
Sc.1_5
 62
     9
  6
CONTINUOUS
370
    -2
100
AcDbLine
 10
1692.44187464
 20
-1761.79500171
 30
0.0
 11
1693.13745301
 21
-1761.80670295
 31
0.0
  0
LINE
  5
3BD
100
AcDbEntity
  8
Sc.1_5
 62
     9
  6
CONTINUOUS
370
    -2
100
AcDbLine
 10
1687.82773084
 20
-1764.45897883
 30
0.0
 11
1688.52330921
 21
-1764.47068007
 31
0.0
  0
LINE
  5
3BE
100
AcDbEntity
  8
Sc.1_5
 62
     9
  6
CONTINUOUS
370
    -2
100
AcDbLine
 10
1683.21358704
 20
-1767.12295595
 30
0.0
 11
1683.90916541
 21
-1767.13465719
 31
0.0
  0
LINE
  5
3BF
100
AcDbEntity
  8
Sc.1_5
 62
     9
  6
CONTINUOUS
370
    -2
100
AcDbLine
 10
1689.04556798
 20
-1781.35912443
 30
0.0
 11
1689.19868767
 21
-1780.78767396
 31
0.0
  0
LINE
  5
3C0
100
AcDbEntity
  8
Sc.1_5
 62
     9
  6
CONTINUOUS
370
    -2
100
AcDbLine
 10
1693.65971218
 20
-1778.69514703
 30
0.0
 11
1693.81283187
 21
-1778.12369657
 31
0.0
  0
LINE
  5
3C1
100
AcDbEntity
  8
Sc.1_5
 62
     9
  6
CONTINUOUS
370
    -2
100
AcDbLine
 10
1698.27385638
 20
-1776.03116964
 30
0.0
 11
1698.42697607
 21
-1775.45971917
 31
0.0
  0
LINE
  5
3C2
100
AcDbEntity
  8
Sc.1_5
 62
     9
  6
CONTINUOUS
370
    -2
100
AcDbLine
 10
1702.88800058
 20
-1773.36719224
 30
0.0
 11
1703.04112027
 21
-1772.79574178
 31
0.0
  0
LINE
  5
3C3
100
AcDbEntity
  8
Sc.1_5
 62
     9
  6
CONTINUOUS
370
    -2
100
AcDbLine
 10
1707.50214478
 20
-1770.70321485
 30
0.0
 11
1707.65526447
 21
-1770.13176438
 31
0.0
  0
LINE
  5
3C4
100
AcDbEntity
  8
Sc.1_5
 62
     9
  6
CONTINUOUS
370
    -2
100
AcDbLine
 10
1712.11628898
 20
-1768.03923745
 30
0.0
 11
1712.26940867
 21
-1767.46778698
 31
0.0
  0
LINE
  5
3C5
100
AcDbEntity
  8
Sc.1_5
 62
     9
  6
CONTINUOUS
370
    -2
100
AcDbLine
 10
1716.73043318
 20
-1765.37526005
 30
0.0
 11
1716.88355287
 21
-1764.80380959
 31
0.0
  0
LINE
  5
3C6
100
AcDbEntity
  8
Sc.1_5
 62
     9
  6
CONTINUOUS
370
    -2
100
AcDbLine
 10
1721.34457738
 20
-1762.71128266
 30
0.0
 11
1721.49769707
 21
-1762.13983219
 31
0.0
  0
LINE
  5
3C7
100
AcDbEntity
  8
Sc.1_5
 62
     9
  6
CONTINUOUS
370
    -2
100
AcDbLine
 10
1725.95872158
 20
-1760.04730526
 30
0.0
 11
1726.11184127
 21
-1759.4758548
 31
0.0
  0
LINE
  5
3C8
100
AcDbEntity
  8
Sc.1_5
 62
     9
  6
CONTINUOUS
370
    -2
100
AcDbLine
 10
1730.57286578
 20
-1757.38332787
 30
0.0
 11
1730.72598547
 21
-1756.8118774
 31
0.0
  0
LINE
  5
3C9
100
AcDbEntity
  8
Sc.1_5
 62
     9
  6
CONTINUOUS
370
    -2
100
AcDbLine
 10
1735.18700998
 20
-1754.71935047
 30
0.0
 11
1735.34012967
 21
-1754.1479
 31
0.0
  0
LINE
  5
3CA
100
AcDbEntity
  8
Sc.1_5
 62
     9
  6
CONTINUOUS
370
    -2
100
AcDbLine
 10
1739.80115418
 20
-1752.05537308
 30
0.0
 11
1739.95427387
 21
-1751.48392261
 31
0.0
  0
LINE
  5
3CB
100
AcDbEntity
  8
Sc.1_5
 62
     9
  6
CONTINUOUS
370
    -2
100
AcDbLine
 10
1744.41529838
 20
-1749.39139568
 30
0.0
 11
1744.56841807
 21
-1748.81994521
 31
0.0
  0
LINE
  5
3CC
100
AcDbEntity
  8
Sc.1_5
 62
     9
  6
CONTINUOUS
370
    -2
100
AcDbLine
 10
1749.02944258
 20
-1746.72741828
 30
0.0
 11
1749.18256227
 21
-1746.15596782
 31
0.0
  0
LINE
  5
3CD
100
AcDbEntity
  8
Sc.1_5
 62
     9
  6
CONTINUOUS
370
    -2
100
AcDbLine
 10
1753.64358678
 20
-1744.06344089
 30
0.0
 11
1753.79670647
 21
-1743.49199042
 31
0.0
  0
LINE
  5
3CE
100
AcDbEntity
  8
Sc.1_5
 62
     9
  6
CONTINUOUS
370
    -2
100
AcDbLine
 10
1690.79852058
 20
-1780.34705678
 30
0.0
 11
1690.22707011
 21
-1780.19393708
 31
0.0
  0
LINE
  5
3CF
100
AcDbEntity
  8
Sc.1_5
 62
     9
  6
CONTINUOUS
370
    -2
100
AcDbLine
 10
1695.41266478
 20
-1777.68307938
 30
0.0
 11
1694.84121431
 21
-1777.52995969
 31
0.0
  0
LINE
  5
3D0
100
AcDbEntity
  8
Sc.1_5
 62
     9
  6
CONTINUOUS
370
    -2
100
AcDbLine
 10
1700.02680898
 20
-1775.01910198
 30
0.0
 11
1699.45535851
 21
-1774.86598229
 31
0.0
  0
LINE
  5
3D1
100
AcDbEntity
  8
Sc.1_5
 62
     9
  6
CONTINUOUS
370
    -2
100
AcDbLine
 10
1704.64095318
 20
-1772.35512459
 30
0.0
 11
1704.06950271
 21
-1772.2020049
 31
0.0
  0
LINE
  5
3D2
100
AcDbEntity
  8
Sc.1_5
 62
     9
  6
CONTINUOUS
370
    -2
100
AcDbLine
 10
1709.25509738
 20
-1769.69114719
 30
0.0
 11
1708.68364691
 21
-1769.5380275
 31
0.0
  0
LINE
  5
3D3
100
AcDbEntity
  8
Sc.1_5
 62
     9
  6
CONTINUOUS
370
    -2
100
AcDbLine
 10
1713.86924158
 20
-1767.0271698
 30
0.0
 11
1713.29779111
 21
-1766.8740501
 31
0.0
  0
LINE
  5
3D4
100
AcDbEntity
  8
Sc.1_5
 62
     9
  6
CONTINUOUS
370
    -2
100
AcDbLine
 10
1718.48338578
 20
-1764.3631924
 30
0.0
 11
1717.91193531
 21
-1764.21007271
 31
0.0
  0
LINE
  5
3D5
100
AcDbEntity
  8
Sc.1_5
 62
     9
  6
CONTINUOUS
370
    -2
100
AcDbLine
 10
1723.09752998
 20
-1761.699215
 30
0.0
 11
1722.52607951
 21
-1761.54609531
 31
0.0
  0
LINE
  5
3D6
100
AcDbEntity
  8
Sc.1_5
 62
     9
  6
CONTINUOUS
370
    -2
100
AcDbLine
 10
1727.71167418
 20
-1759.03523761
 30
0.0
 11
1727.14022371
 21
-1758.88211792
 31
0.0
  0
LINE
  5
3D7
100
AcDbEntity
  8
Sc.1_5
 62
     9
  6
CONTINUOUS
370
    -2
100
AcDbLine
 10
1732.32581838
 20
-1756.37126021
 30
0.0
 11
1731.75436791
 21
-1756.21814052
 31
0.0
  0
LINE
  5
3D8
100
AcDbEntity
  8
Sc.1_5
 62
     9
  6
CONTINUOUS
370
    -2
100
AcDbLine
 10
1736.93996258
 20
-1753.70728282
 30
0.0
 11
1736.36851211
 21
-1753.55416313
 31
0.0
  0
LINE
  5
3D9
100
AcDbEntity
  8
Sc.1_5
 62
     9
  6
CONTINUOUS
370
    -2
100
AcDbLine
 10
1741.55410678
 20
-1751.04330542
 30
0.0
 11
1740.98265631
 21
-1750.89018573
 31
0.0
  0
LINE
  5
3DA
100
AcDbEntity
  8
Sc.1_5
 62
     9
  6
CONTINUOUS
370
    -2
100
AcDbLine
 10
1746.16825098
 20
-1748.37932802
 30
0.0
 11
1745.59680051
 21
-1748.22620833
 31
0.0
  0
LINE
  5
3DB
100
AcDbEntity
  8
Sc.1_5
 62
     9
  6
CONTINUOUS
370
    -2
100
AcDbLine
 10
1750.78239518
 20
-1745.71535063
 30
0.0
 11
1750.21094471
 21
-1745.56223094
 31
0.0
  0
LINE
  5
3DC
100
AcDbEntity
  8
Sc.1_5
 62
     9
  6
CONTINUOUS
370
    -2
100
AcDbLine
 10
1680.89485272
 20
-1769.35801794
 30
0.0
 11
1681.04797241
 21
-1768.78656747
 31
0.0
  0
LINE
  5
3DD
100
AcDbEntity
  8
Sc.1_5
 62
     9
  6
CONTINUOUS
370
    -2
100
AcDbLine
 10
1685.50899692
 20
-1766.69404054
 30
0.0
 11
1685.66211661
 21
-1766.12259007
 31
0.0
  0
LINE
  5
3DE
100
AcDbEntity
  8
Sc.1_5
 62
     9
  6
CONTINUOUS
370
    -2
100
AcDbLine
 10
1690.12314112
 20
-1764.03006315
 30
0.0
 11
1690.27626081
 21
-1763.45861268
 31
0.0
  0
LINE
  5
3DF
100
AcDbEntity
  8
Sc.1_5
 62
     9
  6
CONTINUOUS
370
    -2
100
AcDbLine
 10
1694.73728532
 20
-1761.36608575
 30
0.0
 11
1694.89040501
 21
-1760.79463528
 31
0.0
  0
LINE
  5
3E0
100
AcDbEntity
  8
Sc.1_5
 62
     9
  6
CONTINUOUS
370
    -2
100
AcDbLine
 10
1699.35142952
 20
-1758.70210835
 30
0.0
 11
1699.50454921
 21
-1758.13065789
 31
0.0
  0
LINE
  5
3E1
100
AcDbEntity
  8
Sc.1_5
 62
     9
  6
CONTINUOUS
370
    -2
100
AcDbLine
 10
1703.96557372
 20
-1756.03813096
 30
0.0
 11
1704.11869341
 21
-1755.46668049
 31
0.0
  0
LINE
  5
3E2
100
AcDbEntity
  8
Sc.1_5
 62
     9
  6
CONTINUOUS
370
    -2
100
AcDbLine
 10
1708.57971792
 20
-1753.37415356
 30
0.0
 11
1708.73283761
 21
-1752.80270309
 31
0.0
  0
LINE
  5
3E3
100
AcDbEntity
  8
Sc.1_5
 62
     9
  6
CONTINUOUS
370
    -2
100
AcDbLine
 10
1713.19386212
 20
-1750.71017617
 30
0.0
 11
1713.34698181
 21
-1750.1387257
 31
0.0
  0
LINE
  5
3E4
100
AcDbEntity
  8
Sc.1_5
 62
     9
  6
CONTINUOUS
370
    -2
100
AcDbLine
 10
1717.80800632
 20
-1748.04619877
 30
0.0
 11
1717.96112601
 21
-1747.4747483
 31
0.0
  0
LINE
  5
3E5
100
AcDbEntity
  8
Sc.1_5
 62
     9
  6
CONTINUOUS
370
    -2
100
AcDbLine
 10
1722.42215052
 20
-1745.38222137
 30
0.0
 11
1722.57527021
 21
-1744.81077091
 31
0.0
  0
LINE
  5
3E6
100
AcDbEntity
  8
Sc.1_5
 62
     9
  6
CONTINUOUS
370
    -2
100
AcDbLine
 10
1727.03629472
 20
-1742.71824398
 30
0.0
 11
1727.18941441
 21
-1742.14679351
 31
0.0
  0
LINE
  5
3E7
100
AcDbEntity
  8
Sc.1_5
 62
     9
  6
CONTINUOUS
370
    -2
100
AcDbLine
 10
1731.65043892
 20
-1740.05426658
 30
0.0
 11
1731.80355861
 21
-1739.48281611
 31
0.0
  0
LINE
  5
3E8
100
AcDbEntity
  8
Sc.1_5
 62
     9
  6
CONTINUOUS
370
    -2
100
AcDbLine
 10
1736.26458312
 20
-1737.39028919
 30
0.0
 11
1736.41770281
 21
-1736.81883872
 31
0.0
  0
LINE
  5
3E9
100
AcDbEntity
  8
Sc.1_5
 62
     9
  6
CONTINUOUS
370
    -2
100
AcDbLine
 10
1740.87872732
 20
-1734.72631179
 30
0.0
 11
1741.03184701
 21
-1734.15486132
 31
0.0
  0
LINE
  5
3EA
100
AcDbEntity
  8
Sc.1_5
 62
     9
  6
CONTINUOUS
370
    -2
100
AcDbLine
 10
1745.49287152
 20
-1732.06233439
 30
0.0
 11
1745.64599121
 21
-1731.49088393
 31
0.0
  0
LINE
  5
3EB
100
AcDbEntity
  8
Sc.1_5
 62
     9
  6
CONTINUOUS
370
    -2
100
AcDbLine
 10
1743.89303996
 20
-1732.50295268
 30
0.0
 11
1744.46449042
 21
-1732.65607237
 31
0.0
  0
LINE
  5
3EC
100
AcDbEntity
  8
Sc.1_5
 62
     9
  6
CONTINUOUS
370
    -2
100
AcDbLine
 10
1739.27889576
 20
-1735.16693007
 30
0.0
 11
1739.85034622
 21
-1735.32004976
 31
0.0
  0
LINE
  5
3ED
100
AcDbEntity
  8
Sc.1_5
 62
     9
  6
CONTINUOUS
370
    -2
100
AcDbLine
 10
1734.66475156
 20
-1737.83090747
 30
0.0
 11
1735.23620202
 21
-1737.98402716
 31
0.0
  0
LINE
  5
3EE
100
AcDbEntity
  8
Sc.1_5
 62
     9
  6
CONTINUOUS
370
    -2
100
AcDbLine
 10
1730.05060736
 20
-1740.49488486
 30
0.0
 11
1730.62205782
 21
-1740.64800456
 31
0.0
  0
LINE
  5
3EF
100
AcDbEntity
  8
Sc.1_5
 62
     9
  6
CONTINUOUS
370
    -2
100
AcDbLine
 10
1725.43646316
 20
-1743.15886226
 30
0.0
 11
1726.00791362
 21
-1743.31198195
 31
0.0
  0
LINE
  5
3F0
100
AcDbEntity
  8
Sc.1_5
 62
     9
  6
CONTINUOUS
370
    -2
100
AcDbLine
 10
1720.82231896
 20
-1745.82283966
 30
0.0
 11
1721.39376942
 21
-1745.97595935
 31
0.0
  0
LINE
  5
3F1
100
AcDbEntity
  8
Sc.1_5
 62
     9
  6
CONTINUOUS
370
    -2
100
AcDbLine
 10
1716.20817476
 20
-1748.48681705
 30
0.0
 11
1716.77962522
 21
-1748.63993674
 31
0.0
  0
LINE
  5
3F2
100
AcDbEntity
  8
Sc.1_5
 62
     9
  6
CONTINUOUS
370
    -2
100
AcDbLine
 10
1711.59403056
 20
-1751.15079445
 30
0.0
 11
1712.16548102
 21
-1751.30391414
 31
0.0
  0
LINE
  5
3F3
100
AcDbEntity
  8
Sc.1_5
 62
     9
  6
CONTINUOUS
370
    -2
100
AcDbLine
 10
1706.97988636
 20
-1753.81477184
 30
0.0
 11
1707.55133682
 21
-1753.96789154
 31
0.0
  0
LINE
  5
3F4
100
AcDbEntity
  8
Sc.1_5
 62
     9
  6
CONTINUOUS
370
    -2
100
AcDbLine
 10
1702.36574216
 20
-1756.47874924
 30
0.0
 11
1702.93719262
 21
-1756.63186893
 31
0.0
  0
LINE
  5
3F5
100
AcDbEntity
  8
Sc.1_5
 62
     9
  6
CONTINUOUS
370
    -2
100
AcDbLine
 10
1697.75159796
 20
-1759.14272664
 30
0.0
 11
1698.32304842
 21
-1759.29584633
 31
0.0
  0
LINE
  5
3F6
100
AcDbEntity
  8
Sc.1_5
 62
     9
  6
CONTINUOUS
370
    -2
100
AcDbLine
 10
1693.13745376
 20
-1761.80670403
 30
0.0
 11
1693.70890422
 21
-1761.95982372
 31
0.0
  0
LINE
  5
3F7
100
AcDbEntity
  8
Sc.1_5
 62
     9
  6
CONTINUOUS
370
    -2
100
AcDbLine
 10
1688.52330956
 20
-1764.47068143
 30
0.0
 11
1689.09476002
 21
-1764.62380112
 31
0.0
  0
LINE
  5
3F8
100
AcDbEntity
  8
Sc.1_5
 62
     9
  6
CONTINUOUS
370
    -2
100
AcDbLine
 10
1683.90916536
 20
-1767.13465882
 30
0.0
 11
1684.48061582
 21
-1767.28777852
 31
0.0
  0
LINE
  5
3F9
100
AcDbEntity
  8
Sc.1_5
 62
     9
  6
CONTINUOUS
370
    -2
100
AcDbLine
 10
1689.19868866
 20
-1780.78767472
 30
0.0
 11
1689.23862617
 21
-1780.16842134
 31
0.0
  0
LINE
  5
3FA
100
AcDbEntity
  8
Sc.1_5
 62
     9
  6
CONTINUOUS
370
    -2
100
AcDbLine
 10
1693.81283201
 20
-1778.12369711
 30
0.0
 11
1693.85276953
 21
-1777.50444374
 31
0.0
  0
LINE
  5
3FB
100
AcDbEntity
  8
Sc.1_5
 62
     9
  6
CONTINUOUS
370
    -2
100
AcDbLine
 10
1698.42697536
 20
-1775.45971951
 30
0.0
 11
1698.46691288
 21
-1774.84046613
 31
0.0
  0
LINE
  5
3FC
100
AcDbEntity
  8
Sc.1_5
 62
     9
  6
CONTINUOUS
370
    -2
100
AcDbLine
 10
1703.04111872
 20
-1772.7957419
 30
0.0
 11
1703.08105624
 21
-1772.17648853
 31
0.0
  0
LINE
  5
3FD
100
AcDbEntity
  8
Sc.1_5
 62
     9
  6
CONTINUOUS
370
    -2
100
AcDbLine
 10
1707.65526207
 20
-1770.1317643
 30
0.0
 11
1707.69519959
 21
-1769.51251093
 31
0.0
  0
LINE
  5
3FE
100
AcDbEntity
  8
Sc.1_5
 62
     9
  6
CONTINUOUS
370
    -2
100
AcDbLine
 10
1712.26940543
 20
-1767.4677867
 30
0.0
 11
1712.30934295
 21
-1766.84853332
 31
0.0
  0
LINE
  5
3FF
100
AcDbEntity
  8
Sc.1_5
 62
     9
  6
CONTINUOUS
370
    -2
100
AcDbLine
 10
1716.88354878
 20
-1764.80380909
 30
0.0
 11
1716.9234863
 21
-1764.18455572
 31
0.0
  0
LINE
  5
400
100
AcDbEntity
  8
Sc.1_5
 62
     9
  6
CONTINUOUS
370
    -2
100
AcDbLine
 10
1721.49769214
 20
-1762.13983149
 30
0.0
 11
1721.53762966
 21
-1761.52057811
 31
0.0
  0
LINE
  5
401
100
AcDbEntity
  8
Sc.1_5
 62
     9
  6
CONTINUOUS
370
    -2
100
AcDbLine
 10
1726.11183549
 20
-1759.47585388
 30
0.0
 11
1726.15177301
 21
-1758.85660051
 31
0.0
  0
LINE
  5
402
100
AcDbEntity
  8
Sc.1_5
 62
     9
  6
CONTINUOUS
370
    -2
100
AcDbLine
 10
1730.72597885
 20
-1756.81187628
 30
0.0
 11
1730.76591636
 21
-1756.1926229
 31
0.0
  0
LINE
  5
403
100
AcDbEntity
  8
Sc.1_5
 62
     9
  6
CONTINUOUS
370
    -2
100
AcDbLine
 10
1735.3401222
 20
-1754.14789868
 30
0.0
 11
1735.38005972
 21
-1753.5286453
 31
0.0
  0
LINE
  5
404
100
AcDbEntity
  8
Sc.1_5
 62
     9
  6
CONTINUOUS
370
    -2
100
AcDbLine
 10
1739.95426555
 20
-1751.48392107
 30
0.0
 11
1739.99420307
 21
-1750.8646677
 31
0.0
  0
LINE
  5
405
100
AcDbEntity
  8
Sc.1_5
 62
     9
  6
CONTINUOUS
370
    -2
100
AcDbLine
 10
1744.56840891
 20
-1748.81994347
 30
0.0
 11
1744.60834643
 21
-1748.20069009
 31
0.0
  0
LINE
  5
406
100
AcDbEntity
  8
Sc.1_5
 62
     9
  6
CONTINUOUS
370
    -2
100
AcDbLine
 10
1749.18255226
 20
-1746.15596586
 30
0.0
 11
1749.22248978
 21
-1745.53671249
 31
0.0
  0
LINE
  5
407
100
AcDbEntity
  8
Sc.1_5
 62
     9
  6
CONTINUOUS
370
    -2
100
AcDbLine
 10
1753.79669562
 20
-1743.49198826
 30
0.0
 11
1753.82205917
 21
-1743.09871226
 31
0.0
  0
LINE
  5
408
100
AcDbEntity
  8
Sc.1_5
 62
     9
  6
CONTINUOUS
370
    -2
100
AcDbLine
 10
1690.22707021
 20
-1780.19393946
 30
0.0
 11
1689.67081231
 21
-1779.91889964
 31
0.0
  0
LINE
  5
409
100
AcDbEntity
  8
Sc.1_5
 62
     9
  6
CONTINUOUS
370
    -2
100
AcDbLine
 10
1694.84121434
 20
-1777.5299632
 30
0.0
 11
1694.28495645
 21
-1777.25492339
 31
0.0
  0
LINE
  5
40A
100
AcDbEntity
  8
Sc.1_5
 62
     9
  6
CONTINUOUS
370
    -2
100
AcDbLine
 10
1699.45535848
 20
-1774.86598695
 30
0.0
 11
1698.89910058
 21
-1774.59094713
 31
0.0
  0
LINE
  5
40B
100
AcDbEntity
  8
Sc.1_5
 62
     9
  6
CONTINUOUS
370
    -2
100
AcDbLine
 10
1704.06950261
 20
-1772.2020107
 30
0.0
 11
1703.51324472
 21
-1771.92697088
 31
0.0
  0
LINE
  5
40C
100
AcDbEntity
  8
Sc.1_5
 62
     9
  6
CONTINUOUS
370
    -2
100
AcDbLine
 10
1708.68364675
 20
-1769.53803445
 30
0.0
 11
1708.12738885
 21
-1769.26299463
 31
0.0
  0
LINE
  5
40D
100
AcDbEntity
  8
Sc.1_5
 62
     9
  6
CONTINUOUS
370
    -2
100
AcDbLine
 10
1713.29779088
 20
-1766.8740582
 30
0.0
 11
1712.74153299
 21
-1766.59901838
 31
0.0
  0
LINE
  5
40E
100
AcDbEntity
  8
Sc.1_5
 62
     9
  6
CONTINUOUS
370
    -2
100
AcDbLine
 10
1717.91193502
 20
-1764.21008194
 30
0.0
 11
1717.35567712
 21
-1763.93504212
 31
0.0
  0
LINE
  5
40F
100
AcDbEntity
  8
Sc.1_5
 62
     9
  6
CONTINUOUS
370
    -2
100
AcDbLine
 10
1722.52607915
 20
-1761.54610569
 30
0.0
 11
1721.96982126
 21
-1761.27106587
 31
0.0
  0
LINE
  5
410
100
AcDbEntity
  8
Sc.1_5
 62
     9
  6
CONTINUOUS
370
    -2
100
AcDbLine
 10
1727.14022329
 20
-1758.88212944
 30
0.0
 11
1726.58396539
 21
-1758.60708962
 31
0.0
  0
LINE
  5
411
100
AcDbEntity
  8
Sc.1_5
 62
     9
  6
CONTINUOUS
370
    -2
100
AcDbLine
 10
1731.75436742
 20
-1756.21815319
 30
0.0
 11
1731.19810953
 21
-1755.94311337
 31
0.0
  0
LINE
  5
412
100
AcDbEntity
  8
Sc.1_5
 62
     9
  6
CONTINUOUS
370
    -2
100
AcDbLine
 10
1736.36851156
 20
-1753.55417693
 30
0.0
 11
1735.81225366
 21
-1753.27913712
 31
0.0
  0
LINE
  5
413
100
AcDbEntity
  8
Sc.1_5
 62
     9
  6
CONTINUOUS
370
    -2
100
AcDbLine
 10
1740.98265569
 20
-1750.89020068
 30
0.0
 11
1740.4263978
 21
-1750.61516086
 31
0.0
  0
LINE
  5
414
100
AcDbEntity
  8
Sc.1_5
 62
     9
  6
CONTINUOUS
370
    -2
100
AcDbLine
 10
1745.59679983
 20
-1748.22622443
 30
0.0
 11
1745.04054193
 21
-1747.95118461
 31
0.0
  0
LINE
  5
415
100
AcDbEntity
  8
Sc.1_5
 62
     9
  6
CONTINUOUS
370
    -2
100
AcDbLine
 10
1750.21094396
 20
-1745.56224818
 30
0.0
 11
1749.65468607
 21
-1745.28720836
 31
0.0
  0
LINE
  5
416
100
AcDbEntity
  8
Sc.1_5
 62
     9
  6
CONTINUOUS
370
    -2
100
AcDbLine
 10
1680.85491529
 20
-1769.97727235
 30
0.0
 11
1680.89485281
 21
-1769.35801898
 31
0.0
  0
LINE
  5
417
100
AcDbEntity
  8
Sc.1_5
 62
     9
  6
CONTINUOUS
370
    -2
100
AcDbLine
 10
1685.46905864
 20
-1767.31329475
 30
0.0
 11
1685.50899616
 21
-1766.69404137
 31
0.0
  0
LINE
  5
418
100
AcDbEntity
  8
Sc.1_5
 62
     9
  6
CONTINUOUS
370
    -2
100
AcDbLine
 10
1690.083202
 20
-1764.64931714
 30
0.0
 11
1690.12313952
 21
-1764.03006377
 31
0.0
  0
LINE
  5
419
100
AcDbEntity
  8
Sc.1_5
 62
     9
  6
CONTINUOUS
370
    -2
100
AcDbLine
 10
1694.69734535
 20
-1761.98533954
 30
0.0
 11
1694.73728287
 21
-1761.36608617
 31
0.0
  0
LINE
  5
41A
100
AcDbEntity
  8
Sc.1_5
 62
     9
  6
CONTINUOUS
370
    -2
100
AcDbLine
 10
1699.31148871
 20
-1759.32136194
 30
0.0
 11
1699.35142622
 21
-1758.70210856
 31
0.0
  0
LINE
  5
41B
100
AcDbEntity
  8
Sc.1_5
 62
     9
  6
CONTINUOUS
370
    -2
100
AcDbLine
 10
1703.92563206
 20
-1756.65738433
 30
0.0
 11
1703.96556958
 21
-1756.03813096
 31
0.0
  0
LINE
  5
41C
100
AcDbEntity
  8
Sc.1_5
 62
     9
  6
CONTINUOUS
370
    -2
100
AcDbLine
 10
1708.53977541
 20
-1753.99340673
 30
0.0
 11
1708.57971293
 21
-1753.37415335
 31
0.0
  0
LINE
  5
41D
100
AcDbEntity
  8
Sc.1_5
 62
     9
  6
CONTINUOUS
370
    -2
100
AcDbLine
 10
1713.15391877
 20
-1751.32942912
 30
0.0
 11
1713.19385629
 21
-1750.71017575
 31
0.0
  0
LINE
  5
41E
100
AcDbEntity
  8
Sc.1_5
 62
     9
  6
CONTINUOUS
370
    -2
100
AcDbLine
 10
1717.76806212
 20
-1748.66545152
 30
0.0
 11
1717.80799964
 21
-1748.04619814
 31
0.0
  0
LINE
  5
41F
100
AcDbEntity
  8
Sc.1_5
 62
     9
  6
CONTINUOUS
370
    -2
100
AcDbLine
 10
1722.38220548
 20
-1746.00147391
 30
0.0
 11
1722.422143
 21
-1745.38222054
 31
0.0
  0
LINE
  5
420
100
AcDbEntity
  8
Sc.1_5
 62
     9
  6
CONTINUOUS
370
    -2
100
AcDbLine
 10
1726.99634883
 20
-1743.33749631
 30
0.0
 11
1727.03628635
 21
-1742.71824294
 31
0.0
  0
LINE
  5
421
100
AcDbEntity
  8
Sc.1_5
 62
     9
  6
CONTINUOUS
370
    -2
100
AcDbLine
 10
1731.61049219
 20
-1740.67351871
 30
0.0
 11
1731.65042971
 21
-1740.05426533
 31
0.0
  0
LINE
  5
422
100
AcDbEntity
  8
Sc.1_5
 62
     9
  6
CONTINUOUS
370
    -2
100
AcDbLine
 10
1736.22463554
 20
-1738.0095411
 30
0.0
 11
1736.26457306
 21
-1737.39028773
 31
0.0
  0
LINE
  5
423
100
AcDbEntity
  8
Sc.1_5
 62
     9
  6
CONTINUOUS
370
    -2
100
AcDbLine
 10
1740.8387789
 20
-1735.3455635
 30
0.0
 11
1740.87871642
 21
-1734.72631012
 31
0.0
  0
LINE
  5
424
100
AcDbEntity
  8
Sc.1_5
 62
     9
  6
CONTINUOUS
370
    -2
100
AcDbLine
 10
1745.45292225
 20
-1732.68158589
 30
0.0
 11
1745.49285977
 21
-1732.06233252
 31
0.0
  0
LINE
  5
425
100
AcDbEntity
  8
Sc.1_5
 62
     9
  6
CONTINUOUS
370
    -2
100
AcDbLine
 10
1744.46448671
 20
-1732.65608169
 30
0.0
 11
1745.02074462
 21
-1732.93112148
 31
0.0
  0
LINE
  5
426
100
AcDbEntity
  8
Sc.1_5
 62
     9
  6
CONTINUOUS
370
    -2
100
AcDbLine
 10
1739.85034275
 20
-1735.32005825
 30
0.0
 11
1740.40660066
 21
-1735.59509804
 31
0.0
  0
LINE
  5
427
100
AcDbEntity
  8
Sc.1_5
 62
     9
  6
CONTINUOUS
370
    -2
100
AcDbLine
 10
1735.23619879
 20
-1737.98403481
 30
0.0
 11
1735.79245671
 21
-1738.2590746
 31
0.0
  0
LINE
  5
428
100
AcDbEntity
  8
Sc.1_5
 62
     9
  6
CONTINUOUS
370
    -2
100
AcDbLine
 10
1730.62205483
 20
-1740.64801137
 30
0.0
 11
1731.17831275
 21
-1740.92305115
 31
0.0
  0
LINE
  5
429
100
AcDbEntity
  8
Sc.1_5
 62
     9
  6
CONTINUOUS
370
    -2
100
AcDbLine
 10
1726.00791088
 20
-1743.31198793
 30
0.0
 11
1726.56416879
 21
-1743.58702771
 31
0.0
  0
LINE
  5
42A
100
AcDbEntity
  8
Sc.1_5
 62
     9
  6
CONTINUOUS
370
    -2
100
AcDbLine
 10
1721.39376692
 20
-1745.97596449
 30
0.0
 11
1721.95002483
 21
-1746.25100427
 31
0.0
  0
LINE
  5
42B
100
AcDbEntity
  8
Sc.1_5
 62
     9
  6
CONTINUOUS
370
    -2
100
AcDbLine
 10
1716.77962296
 20
-1748.63994105
 30
0.0
 11
1717.33588087
 21
-1748.91498083
 31
0.0
  0
LINE
  5
42C
100
AcDbEntity
  8
Sc.1_5
 62
     9
  6
CONTINUOUS
370
    -2
100
AcDbLine
 10
1712.165479
 20
-1751.30391761
 30
0.0
 11
1712.72173692
 21
-1751.57895739
 31
0.0
  0
LINE
  5
42D
100
AcDbEntity
  8
Sc.1_5
 62
     9
  6
CONTINUOUS
370
    -2
100
AcDbLine
 10
1707.55133505
 20
-1753.96789417
 30
0.0
 11
1708.10759296
 21
-1754.24293395
 31
0.0
  0
LINE
  5
42E
100
AcDbEntity
  8
Sc.1_5
 62
     9
  6
CONTINUOUS
370
    -2
100
AcDbLine
 10
1702.93719109
 20
-1756.63187073
 30
0.0
 11
1703.493449
 21
-1756.90691051
 31
0.0
  0
LINE
  5
42F
100
AcDbEntity
  8
Sc.1_5
 62
     9
  6
CONTINUOUS
370
    -2
100
AcDbLine
 10
1698.32304713
 20
-1759.29584729
 30
0.0
 11
1698.87930504
 21
-1759.57088707
 31
0.0
  0
LINE
  5
430
100
AcDbEntity
  8
Sc.1_5
 62
     9
  6
CONTINUOUS
370
    -2
100
AcDbLine
 10
1693.70890317
 20
-1761.95982385
 30
0.0
 11
1694.26516109
 21
-1762.23486363
 31
0.0
  0
LINE
  5
431
100
AcDbEntity
  8
Sc.1_5
 62
     9
  6
CONTINUOUS
370
    -2
100
AcDbLine
 10
1689.09475922
 20
-1764.62380041
 30
0.0
 11
1689.65101713
 21
-1764.89884019
 31
0.0
  0
LINE
  5
432
100
AcDbEntity
  8
Sc.1_5
 62
     9
  6
CONTINUOUS
370
    -2
100
AcDbLine
 10
1684.48061526
 20
-1767.28777697
 30
0.0
 11
1685.03687317
 21
-1767.56281675
 31
0.0
  0
LINE
  5
433
100
AcDbEntity
  8
Sc.1_5
 62
     9
  6
CONTINUOUS
370
    -2
100
AcDbLine
 10
1689.23862661
 20
-1780.16842121
 30
0.0
 11
1689.08043574
 21
-1779.39538158
 31
0.0
  0
LINE
  5
434
100
AcDbEntity
  8
Sc.1_5
 62
     9
  6
CONTINUOUS
370
    -2
100
AcDbLine
 10
1693.85277046
 20
-1777.50444371
 30
0.0
 11
1693.69457959
 21
-1776.73140408
 31
0.0
  0
LINE
  5
435
100
AcDbEntity
  8
Sc.1_5
 62
     9
  6
CONTINUOUS
370
    -2
100
AcDbLine
 10
1698.46691431
 20
-1774.8404662
 30
0.0
 11
1698.30872344
 21
-1774.06742658
 31
0.0
  0
LINE
  5
436
100
AcDbEntity
  8
Sc.1_5
 62
     9
  6
CONTINUOUS
370
    -2
100
AcDbLine
 10
1703.08105816
 20
-1772.1764887
 30
0.0
 11
1702.92286729
 21
-1771.40344908
 31
0.0
  0
LINE
  5
437
100
AcDbEntity
  8
Sc.1_5
 62
     9
  6
CONTINUOUS
370
    -2
100
AcDbLine
 10
1707.69520201
 20
-1769.5125112
 30
0.0
 11
1707.53701114
 21
-1768.73947157
 31
0.0
  0
LINE
  5
438
100
AcDbEntity
  8
Sc.1_5
 62
     9
  6
CONTINUOUS
370
    -2
100
AcDbLine
 10
1712.30934586
 20
-1766.8485337
 30
0.0
 11
1712.15115499
 21
-1766.07549407
 31
0.0
  0
LINE
  5
439
100
AcDbEntity
  8
Sc.1_5
 62
     9
  6
CONTINUOUS
370
    -2
100
AcDbLine
 10
1716.92348971
 20
-1764.1845562
 30
0.0
 11
1716.76529884
 21
-1763.41151657
 31
0.0
  0
LINE
  5
43A
100
AcDbEntity
  8
Sc.1_5
 62
     9
  6
CONTINUOUS
370
    -2
100
AcDbLine
 10
1721.53763356
 20
-1761.52057869
 30
0.0
 11
1721.37944269
 21
-1760.74753907
 31
0.0
  0
LINE
  5
43B
100
AcDbEntity
  8
Sc.1_5
 62
     9
  6
CONTINUOUS
370
    -2
100
AcDbLine
 10
1726.15177741
 20
-1758.85660119
 30
0.0
 11
1725.99358654
 21
-1758.08356157
 31
0.0
  0
LINE
  5
43C
100
AcDbEntity
  8
Sc.1_5
 62
     9
  6
CONTINUOUS
370
    -2
100
AcDbLine
 10
1730.76592126
 20
-1756.19262369
 30
0.0
 11
1730.60773039
 21
-1755.41958406
 31
0.0
  0
LINE
  5
43D
100
AcDbEntity
  8
Sc.1_5
 62
     9
  6
CONTINUOUS
370
    -2
100
AcDbLine
 10
1735.38006511
 20
-1753.52864619
 30
0.0
 11
1735.22187424
 21
-1752.75560656
 31
0.0
  0
LINE
  5
43E
100
AcDbEntity
  8
Sc.1_5
 62
     9
  6
CONTINUOUS
370
    -2
100
AcDbLine
 10
1739.99420896
 20
-1750.86466868
 30
0.0
 11
1739.83601809
 21
-1750.09162906
 31
0.0
  0
LINE
  5
43F
100
AcDbEntity
  8
Sc.1_5
 62
     9
  6
CONTINUOUS
370
    -2
100
AcDbLine
 10
1744.60835281
 20
-1748.20069118
 30
0.0
 11
1744.45016194
 21
-1747.42765156
 31
0.0
  0
LINE
  5
440
100
AcDbEntity
  8
Sc.1_5
 62
     9
  6
CONTINUOUS
370
    -2
100
AcDbLine
 10
1749.22249666
 20
-1745.53671368
 30
0.0
 11
1749.06430579
 21
-1744.76367405
 31
0.0
  0
LINE
  5
441
100
AcDbEntity
  8
Sc.1_5
 62
     9
  6
CONTINUOUS
370
    -2
100
AcDbLine
 10
1689.67081194
 20
-1779.9188992
 30
0.0
 11
1689.08043542
 21
-1779.39538208
 31
0.0
  0
LINE
  5
442
100
AcDbEntity
  8
Sc.1_5
 62
     9
  6
CONTINUOUS
370
    -2
100
AcDbLine
 10
1694.28495606
 20
-1777.25492216
 30
0.0
 11
1693.69457954
 21
-1776.73140504
 31
0.0
  0
LINE
  5
443
100
AcDbEntity
  8
Sc.1_5
 62
     9
  6
CONTINUOUS
370
    -2
100
AcDbLine
 10
1698.89910018
 20
-1774.59094512
 30
0.0
 11
1698.30872366
 21
-1774.067428
 31
0.0
  0
LINE
  5
444
100
AcDbEntity
  8
Sc.1_5
 62
     9
  6
CONTINUOUS
370
    -2
100
AcDbLine
 10
1703.5132443
 20
-1771.92696808
 30
0.0
 11
1702.92286777
 21
-1771.40345096
 31
0.0
  0
LINE
  5
445
100
AcDbEntity
  8
Sc.1_5
 62
     9
  6
CONTINUOUS
370
    -2
100
AcDbLine
 10
1708.12738841
 20
-1769.26299104
 30
0.0
 11
1707.53701189
 21
-1768.73947392
 31
0.0
  0
LINE
  5
446
100
AcDbEntity
  8
Sc.1_5
 62
     9
  6
CONTINUOUS
370
    -2
100
AcDbLine
 10
1712.74153253
 20
-1766.599014
 30
0.0
 11
1712.15115601
 21
-1766.07549688
 31
0.0
  0
LINE
  5
447
100
AcDbEntity
  8
Sc.1_5
 62
     9
  6
CONTINUOUS
370
    -2
100
AcDbLine
 10
1717.35567665
 20
-1763.93503696
 30
0.0
 11
1716.76530013
 21
-1763.41151984
 31
0.0
  0
LINE
  5
448
100
AcDbEntity
  8
Sc.1_5
 62
     9
  6
CONTINUOUS
370
    -2
100
AcDbLine
 10
1721.96982076
 20
-1761.27105992
 30
0.0
 11
1721.37944424
 21
-1760.7475428
 31
0.0
  0
LINE
  5
449
100
AcDbEntity
  8
Sc.1_5
 62
     9
  6
CONTINUOUS
370
    -2
100
AcDbLine
 10
1726.58396488
 20
-1758.60708288
 30
0.0
 11
1725.99358836
 21
-1758.08356576
 31
0.0
  0
LINE
  5
44A
100
AcDbEntity
  8
Sc.1_5
 62
     9
  6
CONTINUOUS
370
    -2
100
AcDbLine
 10
1731.198109
 20
-1755.94310584
 30
0.0
 11
1730.60773248
 21
-1755.41958872
 31
0.0
  0
LINE
  5
44B
100
AcDbEntity
  8
Sc.1_5
 62
     9
  6
CONTINUOUS
370
    -2
100
AcDbLine
 10
1735.81225312
 20
-1753.2791288
 30
0.0
 11
1735.22187659
 21
-1752.75561168
 31
0.0
  0
LINE
  5
44C
100
AcDbEntity
  8
Sc.1_5
 62
     9
  6
CONTINUOUS
370
    -2
100
AcDbLine
 10
1740.42639723
 20
-1750.61515176
 30
0.0
 11
1739.83602071
 21
-1750.09163464
 31
0.0
  0
LINE
  5
44D
100
AcDbEntity
  8
Sc.1_5
 62
     9
  6
CONTINUOUS
370
    -2
100
AcDbLine
 10
1745.04054135
 20
-1747.95117472
 30
0.0
 11
1744.45016483
 21
-1747.4276576
 31
0.0
  0
LINE
  5
44E
100
AcDbEntity
  8
Sc.1_5
 62
     9
  6
CONTINUOUS
370
    -2
100
AcDbLine
 10
1749.65468547
 20
-1745.28719768
 30
0.0
 11
1749.06430895
 21
-1744.76368056
 31
0.0
  0
LINE
  5
44F
100
AcDbEntity
  8
Sc.1_5
 62
     9
  6
CONTINUOUS
370
    -2
100
AcDbLine
 10
1681.01310584
 20
-1770.75031138
 30
0.0
 11
1680.85491498
 21
-1769.97727175
 31
0.0
  0
LINE
  5
450
100
AcDbEntity
  8
Sc.1_5
 62
     9
  6
CONTINUOUS
370
    -2
100
AcDbLine
 10
1685.62724969
 20
-1768.08633387
 30
0.0
 11
1685.46905883
 21
-1767.31329425
 31
0.0
  0
LINE
  5
451
100
AcDbEntity
  8
Sc.1_5
 62
     9
  6
CONTINUOUS
370
    -2
100
AcDbLine
 10
1690.24139354
 20
-1765.42235637
 30
0.0
 11
1690.08320268
 21
-1764.64931675
 31
0.0
  0
LINE
  5
452
100
AcDbEntity
  8
Sc.1_5
 62
     9
  6
CONTINUOUS
370
    -2
100
AcDbLine
 10
1694.85553739
 20
-1762.75837887
 30
0.0
 11
1694.69734653
 21
-1761.98533925
 31
0.0
  0
LINE
  5
453
100
AcDbEntity
  8
Sc.1_5
 62
     9
  6
CONTINUOUS
370
    -2
100
AcDbLine
 10
1699.46968124
 20
-1760.09440137
 30
0.0
 11
1699.31149038
 21
-1759.32136174
 31
0.0
  0
LINE
  5
454
100
AcDbEntity
  8
Sc.1_5
 62
     9
  6
CONTINUOUS
370
    -2
100
AcDbLine
 10
1704.08382509
 20
-1757.43042387
 30
0.0
 11
1703.92563423
 21
-1756.65738424
 31
0.0
  0
LINE
  5
455
100
AcDbEntity
  8
Sc.1_5
 62
     9
  6
CONTINUOUS
370
    -2
100
AcDbLine
 10
1708.69796894
 20
-1754.76644636
 30
0.0
 11
1708.53977808
 21
-1753.99340674
 31
0.0
  0
LINE
  5
456
100
AcDbEntity
  8
Sc.1_5
 62
     9
  6
CONTINUOUS
370
    -2
100
AcDbLine
 10
1713.31211279
 20
-1752.10246886
 30
0.0
 11
1713.15392193
 21
-1751.32942924
 31
0.0
  0
LINE
  5
457
100
AcDbEntity
  8
Sc.1_5
 62
     9
  6
CONTINUOUS
370
    -2
100
AcDbLine
 10
1717.92625664
 20
-1749.43849136
 30
0.0
 11
1717.76806578
 21
-1748.66545173
 31
0.0
  0
LINE
  5
458
100
AcDbEntity
  8
Sc.1_5
 62
     9
  6
CONTINUOUS
370
    -2
100
AcDbLine
 10
1722.54040049
 20
-1746.77451386
 30
0.0
 11
1722.38220963
 21
-1746.00147423
 31
0.0
  0
LINE
  5
459
100
AcDbEntity
  8
Sc.1_5
 62
     9
  6
CONTINUOUS
370
    -2
100
AcDbLine
 10
1727.15454434
 20
-1744.11053635
 30
0.0
 11
1726.99635348
 21
-1743.33749673
 31
0.0
  0
LINE
  5
45A
100
AcDbEntity
  8
Sc.1_5
 62
     9
  6
CONTINUOUS
370
    -2
100
AcDbLine
 10
1731.76868819
 20
-1741.44655885
 30
0.0
 11
1731.61049733
 21
-1740.67351923
 31
0.0
  0
LINE
  5
45B
100
AcDbEntity
  8
Sc.1_5
 62
     9
  6
CONTINUOUS
370
    -2
100
AcDbLine
 10
1736.38283204
 20
-1738.78258135
 30
0.0
 11
1736.22464118
 21
-1738.00954172
 31
0.0
  0
LINE
  5
45C
100
AcDbEntity
  8
Sc.1_5
 62
     9
  6
CONTINUOUS
370
    -2
100
AcDbLine
 10
1740.99697589
 20
-1736.11860385
 30
0.0
 11
1740.83878503
 21
-1735.34556422
 31
0.0
  0
LINE
  5
45D
100
AcDbEntity
  8
Sc.1_5
 62
     9
  6
CONTINUOUS
370
    -2
100
AcDbLine
 10
1745.61111974
 20
-1733.45462634
 30
0.0
 11
1745.45292888
 21
-1732.68158672
 31
0.0
  0
LINE
  5
45E
100
AcDbEntity
  8
Sc.1_5
 62
     9
  6
CONTINUOUS
370
    -2
100
AcDbLine
 10
1745.02074607
 20
-1732.93111669
 30
0.0
 11
1745.61112259
 21
-1733.45463381
 31
0.0
  0
LINE
  5
45F
100
AcDbEntity
  8
Sc.1_5
 62
     9
  6
CONTINUOUS
370
    -2
100
AcDbLine
 10
1740.40660195
 20
-1735.59509373
 30
0.0
 11
1740.99697847
 21
-1736.11861085
 31
0.0
  0
LINE
  5
460
100
AcDbEntity
  8
Sc.1_5
 62
     9
  6
CONTINUOUS
370
    -2
100
AcDbLine
 10
1735.79245783
 20
-1738.25907077
 30
0.0
 11
1736.38283435
 21
-1738.78258789
 31
0.0
  0
LINE
  5
461
100
AcDbEntity
  8
Sc.1_5
 62
     9
  6
CONTINUOUS
370
    -2
100
AcDbLine
 10
1731.17831372
 20
-1740.92304781
 30
0.0
 11
1731.76869024
 21
-1741.44656493
 31
0.0
  0
LINE
  5
462
100
AcDbEntity
  8
Sc.1_5
 62
     9
  6
CONTINUOUS
370
    -2
100
AcDbLine
 10
1726.5641696
 20
-1743.58702485
 30
0.0
 11
1727.15454612
 21
-1744.11054197
 31
0.0
  0
LINE
  5
463
100
AcDbEntity
  8
Sc.1_5
 62
     9
  6
CONTINUOUS
370
    -2
100
AcDbLine
 10
1721.95002548
 20
-1746.25100189
 30
0.0
 11
1722.540402
 21
-1746.77451901
 31
0.0
  0
LINE
  5
464
100
AcDbEntity
  8
Sc.1_5
 62
     9
  6
CONTINUOUS
370
    -2
100
AcDbLine
 10
1717.33588136
 20
-1748.91497893
 30
0.0
 11
1717.92625788
 21
-1749.43849605
 31
0.0
  0
LINE
  5
465
100
AcDbEntity
  8
Sc.1_5
 62
     9
  6
CONTINUOUS
370
    -2
100
AcDbLine
 10
1712.72173725
 20
-1751.57895597
 30
0.0
 11
1713.31211377
 21
-1752.10247309
 31
0.0
  0
LINE
  5
466
100
AcDbEntity
  8
Sc.1_5
 62
     9
  6
CONTINUOUS
370
    -2
100
AcDbLine
 10
1708.10759313
 20
-1754.24293301
 30
0.0
 11
1708.69796965
 21
-1754.76645013
 31
0.0
  0
LINE
  5
467
100
AcDbEntity
  8
Sc.1_5
 62
     9
  6
CONTINUOUS
370
    -2
100
AcDbLine
 10
1703.49344901
 20
-1756.90691005
 30
0.0
 11
1704.08382553
 21
-1757.43042717
 31
0.0
  0
LINE
  5
468
100
AcDbEntity
  8
Sc.1_5
 62
     9
  6
CONTINUOUS
370
    -2
100
AcDbLine
 10
1698.8793049
 20
-1759.57088709
 30
0.0
 11
1699.46968142
 21
-1760.09440421
 31
0.0
  0
LINE
  5
469
100
AcDbEntity
  8
Sc.1_5
 62
     9
  6
CONTINUOUS
370
    -2
100
AcDbLine
 10
1694.26516078
 20
-1762.23486413
 30
0.0
 11
1694.8555373
 21
-1762.75838125
 31
0.0
  0
LINE
  5
46A
100
AcDbEntity
  8
Sc.1_5
 62
     9
  6
CONTINUOUS
370
    -2
100
AcDbLine
 10
1689.65101666
 20
-1764.89884117
 30
0.0
 11
1690.24139318
 21
-1765.42235829
 31
0.0
  0
LINE
  5
46B
100
AcDbEntity
  8
Sc.1_5
 62
     9
  6
CONTINUOUS
370
    -2
100
AcDbLine
 10
1685.03687254
 20
-1767.56281821
 30
0.0
 11
1685.62724906
 21
-1768.08633533
 31
0.0
  0
LINE
  5
46C
100
AcDbEntity
  8
Sc.1_5
 62
     9
  6
CONTINUOUS
370
    -2
100
AcDbLine
 10
1688.86428122
 20
-1779.0209907
 30
0.0
 11
1688.63354275
 21
-1778.49435028
 31
0.0
  0
LINE
  5
46D
100
AcDbEntity
  8
Sc.1_5
 62
     9
  6
CONTINUOUS
370
    -2
100
AcDbLine
 10
1693.47842113
 20
-1776.35700826
 30
0.0
 11
1693.24768266
 21
-1775.83036785
 31
0.0
  0
LINE
  5
46E
100
AcDbEntity
  8
Sc.1_5
 62
     9
  6
CONTINUOUS
370
    -2
100
AcDbLine
 10
1698.09256104
 20
-1773.69302583
 30
0.0
 11
1697.86182256
 21
-1773.16638541
 31
0.0
  0
LINE
  5
46F
100
AcDbEntity
  8
Sc.1_5
 62
     9
  6
CONTINUOUS
370
    -2
100
AcDbLine
 10
1702.70670094
 20
-1771.02904339
 30
0.0
 11
1702.47596247
 21
-1770.50240297
 31
0.0
  0
LINE
  5
470
100
AcDbEntity
  8
Sc.1_5
 62
     9
  6
CONTINUOUS
370
    -2
100
AcDbLine
 10
1707.32084085
 20
-1768.36506095
 30
0.0
 11
1707.09010238
 21
-1767.83842054
 31
0.0
  0
LINE
  5
471
100
AcDbEntity
  8
Sc.1_5
 62
     9
  6
CONTINUOUS
370
    -2
100
AcDbLine
 10
1711.93498076
 20
-1765.70107852
 30
0.0
 11
1711.70424229
 21
-1765.1744381
 31
0.0
  0
LINE
  5
472
100
AcDbEntity
  8
Sc.1_5
 62
     9
  6
CONTINUOUS
370
    -2
100
AcDbLine
 10
1716.54912067
 20
-1763.03709608
 30
0.0
 11
1716.3183822
 21
-1762.51045566
 31
0.0
  0
LINE
  5
473
100
AcDbEntity
  8
Sc.1_5
 62
     9
  6
CONTINUOUS
370
    -2
100
AcDbLine
 10
1721.16326058
 20
-1760.37311364
 30
0.0
 11
1720.93252211
 21
-1759.84647323
 31
0.0
  0
LINE
  5
474
100
AcDbEntity
  8
Sc.1_5
 62
     9
  6
CONTINUOUS
370
    -2
100
AcDbLine
 10
1725.77740049
 20
-1757.70913121
 30
0.0
 11
1725.54666202
 21
-1757.18249079
 31
0.0
  0
LINE
  5
475
100
AcDbEntity
  8
Sc.1_5
 62
     9
  6
CONTINUOUS
370
    -2
100
AcDbLine
 10
1730.3915404
 20
-1755.04514877
 30
0.0
 11
1730.16080193
 21
-1754.51850835
 31
0.0
  0
LINE
  5
476
100
AcDbEntity
  8
Sc.1_5
 62
     9
  6
CONTINUOUS
370
    -2
100
AcDbLine
 10
1735.00568031
 20
-1752.38116633
 30
0.0
 11
1734.77494183
 21
-1751.85452592
 31
0.0
  0
LINE
  5
477
100
AcDbEntity
  8
Sc.1_5
 62
     9
  6
CONTINUOUS
370
    -2
100
AcDbLine
 10
1739.61982021
 20
-1749.7171839
 30
0.0
 11
1739.38908174
 21
-1749.19054348
 31
0.0
  0
LINE
  5
478
100
AcDbEntity
  8
Sc.1_5
 62
     9
  6
CONTINUOUS
370
    -2
100
AcDbLine
 10
1744.23396012
 20
-1747.05320146
 30
0.0
 11
1744.00322165
 21
-1746.52656104
 31
0.0
  0
LINE
  5
479
100
AcDbEntity
  8
Sc.1_5
 62
     9
  6
CONTINUOUS
370
    -2
100
AcDbLine
 10
1748.84810003
 20
-1744.38921902
 30
0.0
 11
1748.61736156
 21
-1743.8625786
 31
0.0
  0
LINE
  5
47A
100
AcDbEntity
  8
Sc.1_5
 62
     9
  6
CONTINUOUS
370
    -2
100
AcDbLine
 10
1688.86428297
 20
-1779.02099721
 30
0.0
 11
1688.52356823
 21
-1778.55785162
 31
0.0
  0
LINE
  5
47B
100
AcDbEntity
  8
Sc.1_5
 62
     9
  6
CONTINUOUS
370
    -2
100
AcDbLine
 10
1693.47842939
 20
-1776.35702605
 30
0.0
 11
1693.13771465
 21
-1775.89388046
 31
0.0
  0
LINE
  5
47C
100
AcDbEntity
  8
Sc.1_5
 62
     9
  6
CONTINUOUS
370
    -2
100
AcDbLine
 10
1698.09257581
 20
-1773.69305489
 30
0.0
 11
1697.75186107
 21
-1773.2299093
 31
0.0
  0
LINE
  5
47D
100
AcDbEntity
  8
Sc.1_5
 62
     9
  6
CONTINUOUS
370
    -2
100
AcDbLine
 10
1702.70672223
 20
-1771.02908373
 30
0.0
 11
1702.36600749
 21
-1770.56593814
 31
0.0
  0
LINE
  5
47E
100
AcDbEntity
  8
Sc.1_5
 62
     9
  6
CONTINUOUS
370
    -2
100
AcDbLine
 10
1707.32086865
 20
-1768.36511257
 30
0.0
 11
1706.98015391
 21
-1767.90196698
 31
0.0
  0
LINE
  5
47F
100
AcDbEntity
  8
Sc.1_5
 62
     9
  6
CONTINUOUS
370
    -2
100
AcDbLine
 10
1711.93501507
 20
-1765.70114141
 30
0.0
 11
1711.59430033
 21
-1765.23799582
 31
0.0
  0
LINE
  5
480
100
AcDbEntity
  8
Sc.1_5
 62
     9
  6
CONTINUOUS
370
    -2
100
AcDbLine
 10
1716.54916149
 20
-1763.03717025
 30
0.0
 11
1716.20844675
 21
-1762.57402466
 31
0.0
  0
LINE
  5
481
100
AcDbEntity
  8
Sc.1_5
 62
     9
  6
CONTINUOUS
370
    -2
100
AcDbLine
 10
1721.16330791
 20
-1760.37319909
 30
0.0
 11
1720.82259317
 21
-1759.91005351
 31
0.0
  0
LINE
  5
482
100
AcDbEntity
  8
Sc.1_5
 62
     9
  6
CONTINUOUS
370
    -2
100
AcDbLine
 10
1725.77745433
 20
-1757.70922793
 30
0.0
 11
1725.43673959
 21
-1757.24608235
 31
0.0
  0
LINE
  5
483
100
AcDbEntity
  8
Sc.1_5
 62
     9
  6
CONTINUOUS
370
    -2
100
AcDbLine
 10
1730.39160075
 20
-1755.04525677
 30
0.0
 11
1730.05088601
 21
-1754.58211119
 31
0.0
  0
LINE
  5
484
100
AcDbEntity
  8
Sc.1_5
 62
     9
  6
CONTINUOUS
370
    -2
100
AcDbLine
 10
1735.00574717
 20
-1752.38128561
 30
0.0
 11
1734.66503243
 21
-1751.91814003
 31
0.0
  0
LINE
  5
485
100
AcDbEntity
  8
Sc.1_5
 62
     9
  6
CONTINUOUS
370
    -2
100
AcDbLine
 10
1739.61989359
 20
-1749.71731445
 30
0.0
 11
1739.27917885
 21
-1749.25416887
 31
0.0
  0
LINE
  5
486
100
AcDbEntity
  8
Sc.1_5
 62
     9
  6
CONTINUOUS
370
    -2
100
AcDbLine
 10
1744.23404001
 20
-1747.0533433
 30
0.0
 11
1743.89332527
 21
-1746.59019771
 31
0.0
  0
LINE
  5
487
100
AcDbEntity
  8
Sc.1_5
 62
     9
  6
CONTINUOUS
370
    -2
100
AcDbLine
 10
1748.84818643
 20
-1744.38937214
 30
0.0
 11
1748.50747169
 21
-1743.92622655
 31
0.0
  0
LINE
  5
488
100
AcDbEntity
  8
Sc.1_5
 62
     9
  6
CONTINUOUS
370
    -2
100
AcDbLine
 10
1745.82720678
 20
-1733.82892657
 30
0.0
 11
1746.05794539
 21
-1734.35556692
 31
0.0
  0
LINE
  5
489
100
AcDbEntity
  8
Sc.1_5
 62
     9
  6
CONTINUOUS
370
    -2
100
AcDbLine
 10
1741.21306758
 20
-1736.49291023
 30
0.0
 11
1741.44380619
 21
-1737.01955059
 31
0.0
  0
LINE
  5
48A
100
AcDbEntity
  8
Sc.1_5
 62
     9
  6
CONTINUOUS
370
    -2
100
AcDbLine
 10
1736.59892838
 20
-1739.1568939
 30
0.0
 11
1736.82966699
 21
-1739.68353425
 31
0.0
  0
LINE
  5
48B
100
AcDbEntity
  8
Sc.1_5
 62
     9
  6
CONTINUOUS
370
    -2
100
AcDbLine
 10
1731.98478918
 20
-1741.82087756
 30
0.0
 11
1732.21552779
 21
-1742.34751792
 31
0.0
  0
LINE
  5
48C
100
AcDbEntity
  8
Sc.1_5
 62
     9
  6
CONTINUOUS
370
    -2
100
AcDbLine
 10
1727.37064998
 20
-1744.48486123
 30
0.0
 11
1727.6013886
 21
-1745.01150159
 31
0.0
  0
LINE
  5
48D
100
AcDbEntity
  8
Sc.1_5
 62
     9
  6
CONTINUOUS
370
    -2
100
AcDbLine
 10
1722.75651079
 20
-1747.14884489
 30
0.0
 11
1722.9872494
 21
-1747.67548525
 31
0.0
  0
LINE
  5
48E
100
AcDbEntity
  8
Sc.1_5
 62
     9
  6
CONTINUOUS
370
    -2
100
AcDbLine
 10
1718.14237159
 20
-1749.81282856
 30
0.0
 11
1718.3731102
 21
-1750.33946892
 31
0.0
  0
LINE
  5
48F
100
AcDbEntity
  8
Sc.1_5
 62
     9
  6
CONTINUOUS
370
    -2
100
AcDbLine
 10
1713.52823239
 20
-1752.47681223
 30
0.0
 11
1713.758971
 21
-1753.00345258
 31
0.0
  0
LINE
  5
490
100
AcDbEntity
  8
Sc.1_5
 62
     9
  6
CONTINUOUS
370
    -2
100
AcDbLine
 10
1708.91409319
 20
-1755.14079589
 30
0.0
 11
1709.1448318
 21
-1755.66743625
 31
0.0
  0
LINE
  5
491
100
AcDbEntity
  8
Sc.1_5
 62
     9
  6
CONTINUOUS
370
    -2
100
AcDbLine
 10
1704.29995399
 20
-1757.80477956
 30
0.0
 11
1704.5306926
 21
-1758.33141991
 31
0.0
  0
LINE
  5
492
100
AcDbEntity
  8
Sc.1_5
 62
     9
  6
CONTINUOUS
370
    -2
100
AcDbLine
 10
1699.68581479
 20
-1760.46876322
 30
0.0
 11
1699.9165534
 21
-1760.99540358
 31
0.0
  0
LINE
  5
493
100
AcDbEntity
  8
Sc.1_5
 62
     9
  6
CONTINUOUS
370
    -2
100
AcDbLine
 10
1695.07167559
 20
-1763.13274689
 30
0.0
 11
1695.3024142
 21
-1763.65938724
 31
0.0
  0
LINE
  5
494
100
AcDbEntity
  8
Sc.1_5
 62
     9
  6
CONTINUOUS
370
    -2
100
AcDbLine
 10
1690.45753639
 20
-1765.79673055
 30
0.0
 11
1690.688275
 21
-1766.32337091
 31
0.0
  0
LINE
  5
495
100
AcDbEntity
  8
Sc.1_5
 62
     9
  6
CONTINUOUS
370
    -2
100
AcDbLine
 10
1685.84339719
 20
-1768.46071422
 30
0.0
 11
1686.0741358
 21
-1768.98735458
 31
0.0
  0
LINE
  5
496
100
AcDbEntity
  8
Sc.1_5
 62
     9
  6
CONTINUOUS
370
    -2
100
AcDbLine
 10
1745.82730787
 20
-1733.82910166
 30
0.0
 11
1746.16802261
 21
-1734.29224724
 31
0.0
  0
LINE
  5
497
100
AcDbEntity
  8
Sc.1_5
 62
     9
  6
CONTINUOUS
370
    -2
100
AcDbLine
 10
1741.21316145
 20
-1736.49307282
 30
0.0
 11
1741.55387619
 21
-1736.9562184
 31
0.0
  0
LINE
  5
498
100
AcDbEntity
  8
Sc.1_5
 62
     9
  6
CONTINUOUS
370
    -2
100
AcDbLine
 10
1736.59901503
 20
-1739.15704397
 30
0.0
 11
1736.93972977
 21
-1739.62018956
 31
0.0
  0
LINE
  5
499
100
AcDbEntity
  8
Sc.1_5
 62
     9
  6
CONTINUOUS
370
    -2
100
AcDbLine
 10
1731.98486861
 20
-1741.82101513
 30
0.0
 11
1732.32558335
 21
-1742.28416072
 31
0.0
  0
LINE
  5
49A
100
AcDbEntity
  8
Sc.1_5
 62
     9
  6
CONTINUOUS
370
    -2
100
AcDbLine
 10
1727.37072219
 20
-1744.48498629
 30
0.0
 11
1727.71143694
 21
-1744.94813188
 31
0.0
  0
LINE
  5
49B
100
AcDbEntity
  8
Sc.1_5
 62
     9
  6
CONTINUOUS
370
    -2
100
AcDbLine
 10
1722.75657577
 20
-1747.14895745
 30
0.0
 11
1723.09729052
 21
-1747.61210304
 31
0.0
  0
LINE
  5
49C
100
AcDbEntity
  8
Sc.1_5
 62
     9
  6
CONTINUOUS
370
    -2
100
AcDbLine
 10
1718.14242935
 20
-1749.81292861
 30
0.0
 11
1718.4831441
 21
-1750.2760742
 31
0.0
  0
LINE
  5
49D
100
AcDbEntity
  8
Sc.1_5
 62
     9
  6
CONTINUOUS
370
    -2
100
AcDbLine
 10
1713.52828293
 20
-1752.47689977
 30
0.0
 11
1713.86899768
 21
-1752.94004536
 31
0.0
  0
LINE
  5
49E
100
AcDbEntity
  8
Sc.1_5
 62
     9
  6
CONTINUOUS
370
    -2
100
AcDbLine
 10
1708.91413651
 20
-1755.14087093
 30
0.0
 11
1709.25485126
 21
-1755.60401652
 31
0.0
  0
LINE
  5
49F
100
AcDbEntity
  8
Sc.1_5
 62
     9
  6
CONTINUOUS
370
    -2
100
AcDbLine
 10
1704.29999009
 20
-1757.80484209
 30
0.0
 11
1704.64070484
 21
-1758.26798767
 31
0.0
  0
LINE
  5
4A0
100
AcDbEntity
  8
Sc.1_5
 62
     9
  6
CONTINUOUS
370
    -2
100
AcDbLine
 10
1699.68584367
 20
-1760.46881325
 30
0.0
 11
1700.02655842
 21
-1760.93195883
 31
0.0
  0
LINE
  5
4A1
100
AcDbEntity
  8
Sc.1_5
 62
     9
  6
CONTINUOUS
370
    -2
100
AcDbLine
 10
1695.07169725
 20
-1763.13278441
 30
0.0
 11
1695.412412
 21
-1763.59592999
 31
0.0
  0
LINE
  5
4A2
100
AcDbEntity
  8
Sc.1_5
 62
     9
  6
CONTINUOUS
370
    -2
100
AcDbLine
 10
1690.45755083
 20
-1765.79675557
 30
0.0
 11
1690.79826558
 21
-1766.25990115
 31
0.0
  0
LINE
  5
4A3
100
AcDbEntity
  8
Sc.1_5
 62
     9
  6
CONTINUOUS
370
    -2
100
AcDbLine
 10
1685.84340441
 20
-1768.46072673
 30
0.0
 11
1686.18411916
 21
-1768.92387231
 31
0.0
  0
LINE
  5
4A4
100
AcDbEntity
  8
Sc.1_5
 62
     9
  6
CONTINUOUS
370
    -2
100
AcDbLine
 10
1681.22925799
 20
-1771.12469788
 30
0.0
 11
1681.56997274
 21
-1771.58784347
 31
0.0
  0
ENDBLK
  5
4A5
100
AcDbEntity
100
AcDbBlockEnd
  0
BLOCK
  5
4A6
100
AcDbEntity
  8
Sc.1_5
100
AcDbBlockBegin
  2
*X2294
 70
     1
 10
0.0
 20
0.0
 30
0.0
  3
*X2294
  1

  4
Cadwork hatch
  0
LINE
  5
4A7
100
AcDbEntity
  8
Sc.1_5
 62
     9
  6
CONTINUOUS
370
    -2
100
AcDbLine
 10
1679.41374123
 20
-1767.98021522
 30
0.0
 11
1678.61949954
 21
-1784.60449723
 31
0.0
  0
LINE
  5
4A8
100
AcDbEntity
  8
Sc.1_5
 62
     9
  6
CONTINUOUS
370
    -2
100
AcDbLine
 10
1671.61950376
 20
-1772.48012783
 30
0.0
 11
1686.41373701
 21
-1780.10458462
 31
0.0
  0
ENDBLK
  5
4A9
100
AcDbEntity
100
AcDbBlockEnd
  0
BLOCK
  5
4AA
100
AcDbEntity
  8
Sc.1_5
100
AcDbBlockBegin
  2
*X2295
 70
     1
 10
0.0
 20
0.0
 30
0.0
  3
*X2295
  1

  4
Cadwork hatch
  0
LINE
  5
4AB
100
AcDbEntity
  8
Sc.1_5
 62
     9
  6
CONTINUOUS
370
    -2
100
AcDbLine
 10
1760.7882147
 20
-1737.16442799
 30
0.0
 11
1745.99398145
 21
-1729.54010292
 31
0.0
  0
LINE
  5
4AC
100
AcDbEntity
  8
Sc.1_5
 62
     9
  6
CONTINUOUS
370
    -2
100
AcDbLine
 10
1752.99397723
 20
-1741.66447231
 30
0.0
 11
1753.78821892
 21
-1725.04005859
 31
0.0
  0
ENDBLK
  5
4AD
100
AcDbEntity
100
AcDbBlockEnd
  0
BLOCK
  5
4AE
100
AcDbEntity
  8
Sc.1_5
100
AcDbBlockBegin
  2
*X2296
 70
     1
 10
0.0
 20
0.0
 30
0.0
  3
*X2296
  1

  4
Cadwork hatch
  0
LINE
  5
4AF
100
AcDbEntity
  8
Sc.1_5
 62
     9
  6
CONTINUOUS
370
    -2
100
AcDbLine
 10
1708.86957068
 20
-1799.47117375
 30
0.0
 11
1724.49400382
 21
-1798.53336267
 31
0.0
  0
LINE
  5
4B0
100
AcDbEntity
  8
Sc.1_5
 62
     9
  6
CONTINUOUS
370
    -2
100
AcDbLine
 10
1720.99394008
 20
-1792.47117797
 30
0.0
 11
1712.36963443
 21
-1805.53335845
 31
0.0
  0
ENDBLK
  5
4B1
100
AcDbEntity
100
AcDbBlockEnd
  0
ENDSEC
  0
SECTION
  2
ENTITIES
  0
3DFACE
  5
4B2
100
AcDbEntity
  8
Sc.1_5
 62
     9
  6
CONTINUOUS
370
    20
100
AcDbFace
 70
     0
 10
1687.88920011
 20
-1782.660056
 30
914.4
 11
1754.4694088
 21
-1744.21995459
 31
914.4
 12
1746.47747731
 22
-1730.3775246
 32
914.4
 13
1679.89726865
 23
-1768.81762599
 33
914.4
  0
INSERT
  5
4B3
100
AcDbEntity
  8
Sc.1_5
 62
     0
370
    20
100
AcDbBlockReference
  2
*X2293
 10
0.0
 20
0.0
 30
0.0
  0
LINE
  5
4B4
100
AcDbEntity
  8
Sc.1_5
 62
     7
  6
CONTINUOUS
370
    25
100
AcDbLine
 10
1669.09062927
 20
-1775.93955437
 30
0.0
 11
1669.09062927
 21
-1876.43955437
 31
0.0
  0
LINE
  5
4B5
100
AcDbEntity
  8
Sc.1_5
 62
     7
  6
CONTINUOUS
370
    25
100
AcDbLine
 10
1672.89062927
 20
-1876.43955437
 30
0.0
 11
1672.89062927
 21
-1775.93955437
 31
0.0
  0
LINE
  5
4B6
100
AcDbEntity
  8
Sc.1_5
 62
     7
  6
CONTINUOUS
370
    25
100
AcDbLine
 10
1672.89062927
 20
-1775.93955437
 30
0.0
 11
1669.09062927
 21
-1775.93955437
 31
0.0
  0
LINE
  5
4B7
100
AcDbEntity
  8
Sc.1_5
 62
     7
  6
CONTINUOUS
100
AcDbLine
 10
1670.98259121
 20
-1775.93955437
 30
0.0
 11
1670.98259121
 21
-1876.43955437
 31
0.0
  0
LINE
  5
4B8
100
AcDbEntity
  8
Sc.1_5
 62
     7
  6
DASHED
370
    25
100
AcDbLine
 10
1659.48008324
 20
-1774.78694632
 30
0.0
 11
1752.07833493
 21
-1721.32532078
 31
0.0
  0
LINE
  5
4B9
100
AcDbEntity
  8
Sc.1_5
 62
     7
  6
CONTINUOUS
100
AcDbLine
 10
1650.59806822
 20
-1779.6175391
 30
0.0
 11
1751.9534331
 21
-1721.09999191
 31
0.0
  0
LINE
  5
4BA
100
AcDbEntity
  8
Sc.1_5
 62
     7
  6
CONTINUOUS
100
AcDbLine
 10
1648.59806822
 20
-1776.15343749
 30
0.0
 11
1750.01389922
 21
-1717.60098016
 31
0.0
  0
LINE
  5
4BB
100
AcDbEntity
  8
Sc.1_5
 62
     7
  6
CONTINUOUS
100
AcDbLine
 10
1650.59806822
 20
-1779.6175391
 30
0.0
 11
1648.59806822
 21
-1776.15343749
 31
0.0
  0
ARC
  5
4BC
100
AcDbEntity
  8
Sc.1_5
 62
     7
  6
DASHED
370
    25
100
AcDbCircle
 10
1666.08815103
 20
-1786.23245548
 30
0.0
 40
13.21613559
100
AcDbArc
 50
120.0
 51
174.0
  0
LINE
  5
4BD
100
AcDbEntity
  8
Sc.1_5
 62
     7
  6
CONTINUOUS
100
AcDbLine
 10
1668.49062927
 20
-1777.63890062
 30
0.0
 11
1664.89062927
 21
-1777.63890062
 31
0.0
  0
LINE
  5
4BE
100
AcDbEntity
  8
Sc.1_5
 62
     7
  6
CONTINUOUS
100
AcDbLine
 10
1664.89062927
 20
-1777.63890062
 30
0.0
 11
1664.89062927
 21
-1807.63890062
 31
0.0
  0
LINE
  5
4BF
100
AcDbEntity
  8
Sc.1_5
 62
     7
  6
CONTINUOUS
100
AcDbLine
 10
1664.89062927
 20
-1807.63890062
 30
0.0
 11
1668.49062927
 21
-1807.63890062
 31
0.0
  0
LINE
  5
4C0
100
AcDbEntity
  8
Sc.1_5
 62
     7
  6
CONTINUOUS
100
AcDbLine
 10
1668.49062927
 20
-1807.63890062
 30
0.0
 11
1668.49062927
 21
-1805.63890062
 31
0.0
  0
LINE
  5
4C1
100
AcDbEntity
  8
Sc.1_5
 62
     7
  6
CONTINUOUS
100
AcDbLine
 10
1668.49062927
 20
-1805.63890062
 30
0.0
 11
1667.49062927
 21
-1805.63890062
 31
0.0
  0
LINE
  5
4C2
100
AcDbEntity
  8
Sc.1_5
 62
     7
  6
CONTINUOUS
100
AcDbLine
 10
1667.49062927
 20
-1805.63890062
 30
0.0
 11
1667.49062927
 21
-1803.83890062
 31
0.0
  0
LINE
  5
4C3
100
AcDbEntity
  8
Sc.1_5
 62
     7
  6
CONTINUOUS
100
AcDbLine
 10
1667.49062927
 20
-1803.83890062
 30
0.0
 11
1668.49062927
 21
-1803.83890062
 31
0.0
  0
LINE
  5
4C4
100
AcDbEntity
  8
Sc.1_5
 62
     7
  6
CONTINUOUS
100
AcDbLine
 10
1668.49062927
 20
-1803.83890062
 30
0.0
 11
1668.49062927
 21
-1781.07726602
 31
0.0
  0
LINE
  5
4C5
100
AcDbEntity
  8
Sc.1_5
 62
     7
  6
CONTINUOUS
100
AcDbLine
 10
1668.49062927
 20
-1781.07726602
 30
0.0
 11
1667.49062927
 21
-1781.07726602
 31
0.0
  0
LINE
  5
4C6
100
AcDbEntity
  8
Sc.1_5
 62
     7
  6
CONTINUOUS
100
AcDbLine
 10
1667.49062927
 20
-1781.07726602
 30
0.0
 11
1667.49062927
 21
-1780.07726602
 31
0.0
  0
LINE
  5
4C7
100
AcDbEntity
  8
Sc.1_5
 62
     7
  6
CONTINUOUS
100
AcDbLine
 10
1667.49062927
 20
-1780.07726602
 30
0.0
 11
1668.49062927
 21
-1780.07726602
 31
0.0
  0
LINE
  5
4C8
100
AcDbEntity
  8
Sc.1_5
 62
     7
  6
CONTINUOUS
100
AcDbLine
 10
1668.49062927
 20
-1780.07726602
 30
0.0
 11
1668.49062927
 21
-1777.63890062
 31
0.0
  0
LINE
  5
4C9
100
AcDbEntity
  8
Sc.1_5
 62
     7
  6
CONTINUOUS
100
AcDbLine
 10
1664.3906294
 20
-1786.57837248
 30
0.0
 11
1664.39062966
 21
-1789.50723644
 31
0.0
  0
LINE
  5
4CA
100
AcDbEntity
  8
Sc.1_5
 62
     7
  6
CONTINUOUS
100
AcDbLine
 10
1663.39063029
 20
-1796.92764934
 30
0.0
 11
1661.74459252
 21
-1796.92764948
 31
0.0
  0
LINE
  5
4CB
100
AcDbEntity
  8
Sc.1_5
 62
     7
  6
CONTINUOUS
100
AcDbLine
 10
1637.79062839
 20
-1779.52765132
 30
0.0
 11
1638.8906284
 21
-1779.52765122
 31
0.0
  0
LINE
  5
4CC
100
AcDbEntity
  8
Sc.1_5
 62
     7
  6
CONTINUOUS
100
AcDbLine
 10
1637.1906285
 20
-1780.89122666
 30
0.0
 11
1637.19062843
 21
-1780.12765138
 31
0.0
  0
ARC
  5
4CD
100
AcDbEntity
  8
Sc.1_5
 62
     7
  6
CONTINUOUS
100
AcDbCircle
 10
1649.1906292
 20
-1786.92765043
 30
0.0
 40
10.00000015
100
AcDbArc
 50
180.00000501
 51
270.00000501
  0
LINE
  5
4CE
100
AcDbEntity
  8
Sc.1_5
 62
     7
  6
CONTINUOUS
100
AcDbLine
 10
1638.66427676
 20
-1781.65453025
 30
0.0
 11
1637.68643965
 21
-1781.48211127
 31
0.0
  0
LINE
  5
4CF
100
AcDbEntity
  8
Sc.1_5
 62
     7
  6
CONTINUOUS
100
AcDbLine
 10
1663.77981665
 20
-1786.24423637
 30
0.0
 11
1664.39062927
 21
-1785.12764908
 31
0.0
  0
LINE
  5
4D0
100
AcDbEntity
  8
Sc.1_5
 62
     7
  6
CONTINUOUS
100
AcDbLine
 10
1663.77981665
 20
-1786.24423637
 30
0.0
 11
1664.3906294
 21
-1786.57837248
 31
0.0
  0
LINE
  5
4D1
100
AcDbEntity
  8
Sc.1_5
 62
     7
  6
CONTINUOUS
100
AcDbLine
 10
1664.09062968
 20
-1789.80723647
 30
0.0
 11
1664.09063002
 21
-1793.69878531
 31
0.0
  0
LINE
  5
4D2
100
AcDbEntity
  8
Sc.1_5
 62
     7
  6
CONTINUOUS
100
AcDbLine
 10
1664.39063005
 20
-1793.99878529
 30
0.0
 11
1664.09063002
 21
-1793.69878531
 31
0.0
  0
LINE
  5
4D3
100
AcDbEntity
  8
Sc.1_5
 62
     7
  6
CONTINUOUS
100
AcDbLine
 10
1664.39062966
 20
-1789.50723644
 30
0.0
 11
1664.09062968
 21
-1789.80723647
 31
0.0
  0
LINE
  5
4D4
100
AcDbEntity
  8
Sc.1_5
 62
     7
  6
CONTINUOUS
100
AcDbLine
 10
1664.39063005
 20
-1793.99878529
 30
0.0
 11
1664.39063022
 21
-1795.92764924
 31
0.0
  0
LINE
  5
4D5
100
AcDbEntity
  8
Sc.1_5
 62
     7
  6
CONTINUOUS
100
AcDbLine
 10
1661.44459254
 20
-1797.22764951
 30
0.0
 11
1652.1366679
 21
-1797.22765033
 31
0.0
  0
LINE
  5
4D6
100
AcDbEntity
  8
Sc.1_5
 62
     7
  6
CONTINUOUS
100
AcDbLine
 10
1661.74459252
 20
-1796.92764948
 30
0.0
 11
1661.44459254
 21
-1797.22764951
 31
0.0
  0
LINE
  5
4D7
100
AcDbEntity
  8
Sc.1_5
 62
     7
  6
CONTINUOUS
100
AcDbLine
 10
1651.83666786
 20
-1796.92765035
 30
0.0
 11
1652.1366679
 21
-1797.22765033
 31
0.0
  0
LINE
  5
4D8
100
AcDbEntity
  8
Sc.1_5
 62
     7
  6
CONTINUOUS
100
AcDbLine
 10
1651.83666786
 20
-1796.92765035
 30
0.0
 11
1649.19063008
 21
-1796.92765058
 31
0.0
  0
LINE
  5
4D9
100
AcDbEntity
  8
Sc.1_5
 62
     7
  6
CONTINUOUS
100
AcDbLine
 10
1639.49062903
 20
-1786.62765128
 30
0.0
 11
1639.49062869
 21
-1782.63933795
 31
0.0
  0
LINE
  5
4DA
100
AcDbEntity
  8
Sc.1_5
 62
     7
  6
CONTINUOUS
100
AcDbLine
 10
1639.19062906
 20
-1786.92765131
 30
0.0
 11
1639.49062903
 21
-1786.62765128
 31
0.0
  0
LINE
  5
4DB
100
AcDbEntity
  8
Sc.1_5
 62
     7
  6
CONTINUOUS
100
AcDbLine
 10
1639.49062847
 20
-1780.12765118
 30
0.0
 11
1639.49062851
 21
-1780.60595866
 31
0.0
  0
ARC
  5
4DC
100
AcDbEntity
  8
Sc.1_5
 62
     7
  6
CONTINUOUS
100
AcDbCircle
 10
1638.49062867
 20
-1782.63933803
 30
0.0
 40
1.00000001
100
AcDbArc
 50
5.0088747969891E-06
 51
80.00000501
  0
ARC
  5
4DD
100
AcDbEntity
  8
Sc.1_5
 62
     7
  6
CONTINUOUS
100
AcDbCircle
 10
1637.79062851
 20
-1780.8912266
 30
0.0
 40
0.60000001
100
AcDbArc
 50
180.00000501
 51
260.00000501
  0
ARC
  5
4DE
100
AcDbEntity
  8
Sc.1_5
 62
     7
  6
CONTINUOUS
100
AcDbCircle
 10
1637.79062844
 20
-1780.12765133
 30
0.0
 40
0.60000001
100
AcDbArc
 50
90.00000501
 51
180.00000501
  0
ARC
  5
4DF
100
AcDbEntity
  8
Sc.1_5
 62
     7
  6
CONTINUOUS
100
AcDbCircle
 10
1638.89062846
 20
-1780.12765123
 30
0.0
 40
0.60000001
100
AcDbArc
 50
5.0090068094914E-06
 51
90.00000501
  0
LINE
  5
4E0
100
AcDbEntity
  8
Sc.1_5
 62
     7
  6
CONTINUOUS
100
AcDbLine
 10
1663.61694875
 20
-1786.29192333
 30
0.0
 11
1664.28535184
 21
-1785.07005861
 31
0.0
  0
LINE
  5
4E1
100
AcDbEntity
  8
Sc.1_5
 62
     7
  6
CONTINUOUS
100
AcDbLine
 10
1663.61694875
 20
-1786.29192333
 30
0.0
 11
1664.27062941
 21
-1786.6495097
 31
0.0
  0
LINE
  5
4E2
100
AcDbEntity
  8
Sc.1_5
 62
     7
  6
CONTINUOUS
100
AcDbLine
 10
1664.27062941
 20
-1786.6495097
 30
0.0
 11
1664.27062965
 21
-1789.45753082
 31
0.0
  0
LINE
  5
4E3
100
AcDbEntity
  8
Sc.1_5
 62
     7
  6
CONTINUOUS
100
AcDbLine
 10
1664.27062965
 20
-1789.45753082
 30
0.0
 11
1663.97062967
 21
-1789.75753086
 31
0.0
  0
LINE
  5
4E4
100
AcDbEntity
  8
Sc.1_5
 62
     7
  6
CONTINUOUS
100
AcDbLine
 10
1663.97062967
 20
-1789.75753086
 30
0.0
 11
1663.97063002
 21
-1793.74849095
 31
0.0
  0
LINE
  5
4E5
100
AcDbEntity
  8
Sc.1_5
 62
     7
  6
CONTINUOUS
100
AcDbLine
 10
1664.27063005
 20
-1794.04849093
 30
0.0
 11
1663.97063002
 21
-1793.74849095
 31
0.0
  0
ARC
  5
4E6
100
AcDbEntity
  8
Sc.1_5
 62
     7
  6
CONTINUOUS
100
AcDbCircle
 10
1663.3906302
 20
-1795.92764932
 30
0.0
 40
1.00000001
100
AcDbArc
 50
270.00000501
 51
5.0088747969800E-06
  0
LINE
  5
4E7
100
AcDbEntity
  8
Sc.1_5
 62
     7
  6
CONTINUOUS
100
AcDbLine
 10
1664.27063005
 20
-1793.9987853
 30
0.0
 11
1664.27063022
 21
-1795.92764925
 31
0.0
  0
ARC
  5
4E8
100
AcDbEntity
  8
Sc.1_5
 62
     7
  6
CONTINUOUS
100
AcDbCircle
 10
1663.3906302
 20
-1795.92764932
 30
0.0
 40
0.88000001
100
AcDbArc
 50
270.00000501
 51
5.0090462869382E-06
  0
LINE
  5
4E9
100
AcDbEntity
  8
Sc.1_5
 62
     7
  6
CONTINUOUS
100
AcDbLine
 10
1663.39063028
 20
-1796.80764934
 30
0.0
 11
1661.69488688
 21
-1796.80764949
 31
0.0
  0
LINE
  5
4EA
100
AcDbEntity
  8
Sc.1_5
 62
     7
  6
CONTINUOUS
100
AcDbLine
 10
1661.69488688
 20
-1796.80764949
 30
0.0
 11
1661.3948869
 21
-1797.10764952
 31
0.0
  0
LINE
  5
4EB
100
AcDbEntity
  8
Sc.1_5
 62
     7
  6
CONTINUOUS
100
AcDbLine
 10
1661.3948869
 20
-1797.10764952
 30
0.0
 11
1652.18637351
 21
-1797.10765032
 31
0.0
  0
LINE
  5
4EC
100
AcDbEntity
  8
Sc.1_5
 62
     7
  6
CONTINUOUS
100
AcDbLine
 10
1651.88637348
 20
-1796.80765034
 30
0.0
 11
1652.18637351
 21
-1797.10765032
 31
0.0
  0
LINE
  5
4ED
100
AcDbEntity
  8
Sc.1_5
 62
     7
  6
CONTINUOUS
100
AcDbLine
 10
1651.88637348
 20
-1796.80765034
 30
0.0
 11
1649.19063007
 21
-1796.80765058
 31
0.0
  0
ARC
  5
4EE
100
AcDbEntity
  8
Sc.1_5
 62
     7
  6
CONTINUOUS
100
AcDbCircle
 10
1649.1906292
 20
-1786.92765043
 30
0.0
 40
9.88000015
100
AcDbArc
 50
180.28753603
 51
270.00000501
  0
LINE
  5
4EF
100
AcDbEntity
  8
Sc.1_5
 62
     7
  6
CONTINUOUS
100
AcDbLine
 10
1639.31075347
 20
-1786.97723252
 30
0.0
 11
1639.61062904
 21
-1786.67735689
 31
0.0
  0
LINE
  5
4F0
100
AcDbEntity
  8
Sc.1_5
 62
     7
  6
CONTINUOUS
100
AcDbLine
 10
1639.61062904
 20
-1786.67735689
 30
0.0
 11
1639.61062869
 21
-1782.63933794
 31
0.0
  0
ARC
  5
4F1
100
AcDbEntity
  8
Sc.1_5
 62
     7
  6
CONTINUOUS
100
AcDbCircle
 10
1638.49062867
 20
-1782.63933803
 30
0.0
 40
1.12000002
100
AcDbArc
 50
5.0090750490488E-06
 51
80.00000501
  0
LINE
  5
4F2
100
AcDbEntity
  8
Sc.1_5
 62
     7
  6
CONTINUOUS
100
AcDbLine
 10
1638.68511454
 20
-1781.53635332
 30
0.0
 11
1637.70727742
 21
-1781.36393434
 31
0.0
  0
ARC
  5
4F3
100
AcDbEntity
  8
Sc.1_5
 62
     7
  6
CONTINUOUS
100
AcDbCircle
 10
1637.79062851
 20
-1780.8912266
 30
0.0
 40
0.48000001
100
AcDbArc
 50
180.00000501
 51
260.00000501
  0
LINE
  5
4F4
100
AcDbEntity
  8
Sc.1_5
 62
     7
  6
CONTINUOUS
100
AcDbLine
 10
1637.3106285
 20
-1780.89122665
 30
0.0
 11
1637.31062843
 21
-1780.12765137
 31
0.0
  0
ARC
  5
4F5
100
AcDbEntity
  8
Sc.1_5
 62
     7
  6
CONTINUOUS
100
AcDbCircle
 10
1637.79062844
 20
-1780.12765133
 30
0.0
 40
0.48000001
100
AcDbArc
 50
90.00000501
 51
180.00000501
  0
LINE
  5
4F6
100
AcDbEntity
  8
Sc.1_5
 62
     7
  6
CONTINUOUS
100
AcDbLine
 10
1637.7906284
 20
-1779.64765132
 30
0.0
 11
1638.89062841
 21
-1779.64765122
 31
0.0
  0
ARC
  5
4F7
100
AcDbEntity
  8
Sc.1_5
 62
     7
  6
CONTINUOUS
100
AcDbCircle
 10
1638.89062846
 20
-1780.12765123
 30
0.0
 40
0.48000001
100
AcDbArc
 50
5.0090068094914E-06
 51
90.00000501
  0
LINE
  5
4F8
100
AcDbEntity
  8
Sc.1_5
 62
     7
  6
CONTINUOUS
100
AcDbLine
 10
1639.37062846
 20
-1780.12765119
 30
0.0
 11
1639.37062851
 21
-1780.60595867
 31
0.0
  0
LINE
  5
4F9
100
AcDbEntity
  8
Sc.1_5
 62
     7
  6
CONTINUOUS
100
AcDbLine
 10
1639.49062851
 20
-1780.60595866
 30
0.0
 11
1639.37062851
 21
-1780.60595867
 31
0.0
  0
LINE
  5
4FA
100
AcDbEntity
  8
Sc.1_5
 62
     7
  6
CONTINUOUS
100
AcDbLine
 10
1664.39062927
 20
-1785.12764908
 30
0.0
 11
1664.28535184
 21
-1785.07005861
 31
0.0
  0
LINE
  5
4FB
100
AcDbEntity
  8
Sc.1_5
 62
     7
  6
CONTINUOUS
100
AcDbLine
 10
1693.48259128
 20
-1876.43955393
 30
0.0
 11
1690.98259168
 21
-1881.43955423
 31
0.0
  0
LINE
  5
4FC
100
AcDbEntity
  8
Sc.1_5
 62
     7
  6
CONTINUOUS
100
AcDbLine
 10
1690.98259168
 20
-1881.43955423
 30
0.0
 11
1685.98259073
 21
-1871.43955451
 31
0.0
  0
LINE
  5
4FD
100
AcDbEntity
  8
Sc.1_5
 62
     7
  6
CONTINUOUS
100
AcDbLine
 10
1685.98259073
 20
-1871.43955451
 30
0.0
 11
1683.48259113
 21
-1876.43955481
 31
0.0
  0
LINE
  5
4FE
100
AcDbEntity
  8
Sc.1_5
 62
     7
  6
CONTINUOUS
100
AcDbLine
 10
1683.48259113
 20
-1876.43955481
 30
0.0
 11
1665.7185576
 21
-1876.43955636
 31
0.0
  0
LINE
  5
4FF
100
AcDbEntity
  8
Sc.1_5
 62
     7
  6
CONTINUOUS
100
AcDbLine
 10
1714.11376574
 20
-1876.43955213
 30
0.0
 11
1693.48259128
 21
-1876.43955393
 31
0.0
  0
LINE
  5
500
100
AcDbEntity
  8
Sc.1_5
 62
     7
  6
CONTINUOUS
100
AcDbLine
 10
1763.93436577
 20
-1742.7141666
 30
0.0
 11
1769.51948844
 21
-1742.47666773
 31
0.0
  0
LINE
  5
501
100
AcDbEntity
  8
Sc.1_5
 62
     7
  6
CONTINUOUS
100
AcDbLine
 10
1769.51948844
 20
-1742.47666773
 30
0.0
 11
1763.19733943
 21
-1751.69786264
 31
0.0
  0
LINE
  5
502
100
AcDbEntity
  8
Sc.1_5
 62
     7
  6
CONTINUOUS
100
AcDbLine
 10
1763.19733943
 20
-1751.69786264
 30
0.0
 11
1768.7824621
 21
-1751.46036377
 31
0.0
  0
LINE
  5
503
100
AcDbEntity
  8
Sc.1_5
 62
     7
  6
CONTINUOUS
100
AcDbLine
 10
1768.7824621
 20
-1751.46036377
 30
0.0
 11
1780.52104094
 21
-1772.63732028
 31
0.0
  0
LINE
  5
504
100
AcDbEntity
  8
Sc.1_5
 62
     7
  6
CONTINUOUS
100
AcDbLine
 10
1747.80397189
 20
-1713.61416615
 30
0.0
 11
1763.93436577
 21
-1742.7141666
 31
0.0
  0
LWPOLYLINE
  5
505
102
{ACAD_REACTORS
330
506
102
}
100
AcDbEntity
  8
Sc.1_5
 62
     7
  6
CONTINUOUS
100
AcDbPolyline
 90
        4
 70
     1
 43
0.0
 10
1778.05446875
 20
-1768.18750661
 10
1711.35260281
 20
-1806.69784687
 10
1711.35260281
 20
-1808.77630784
 10
1778.92725899
 20
-1769.7620619
  0
HATCH
  5
506
100
AcDbEntity
  8
Sc.1_5
 62
     9
  6
CONTINUOUS
100
AcDbHatch
 10
0.0
 20
0.0
 30
0.0
210
0.0
220
0.0
230
1.0
  2
CDWK12A
 70
     0
 71
     1
 91
        1
 92
        7
 72
     0
 73
     1
 93
        4
 10
1778.05446875
 20
-1768.18750661
 10
1711.35260281
 20
-1806.69784687
 10
1711.35260281
 20
-1808.77630784
 10
1778.92725899
 20
-1769.7620619
 97
        1
330
505
 75
     0
 76
     2
 52
0.0
 41
1.0
 77
     0
 78
    15
 53
0.0
 43
0.0
 44
0.0
 45
2.70000005
 46
4.9000001
 79
     2
 49
0.0
 49
-3.70000005
 53
0.0
 43
0.0
 44
0.0
 45
4.4000001
 46
4.80000019
 79
     2
 49
0.0
 49
-5.4000001
 53
0.0
 43
0.0
 44
0.0
 45
1.39999998
 46
4.5999999
 79
     2
 49
0.0
 49
-2.4000001
 53
0.0
 43
0.0
 44
0.0
 45
2.20000005
 46
4.19999981
 79
     2
 49
0.0
 49
-3.20000005
 53
0.0
 43
0.0
 44
0.0
 45
3.79999995
 46
4.0
 79
     2
 49
0.0
 49
-4.80000019
 53
0.0
 43
0.0
 44
0.0
 45
1.20000005
 46
3.79999995
 79
     2
 49
0.0
 49
-2.20000005
 53
0.0
 43
0.0
 44
0.0
 45
2.9000001
 46
3.5
 79
     2
 49
0.0
 49
-3.9000001
 53
0.0
 43
0.0
 44
0.0
 45
4.5999999
 46
3.4000001
 79
     2
 49
0.0
 49
-5.5999999
 53
0.0
 43
0.0
 44
0.0
 45
1.89999998
 46
2.9000001
 79
     2
 49
0.0
 49
-2.9000001
 53
0.0
 43
0.0
 44
0.0
 45
3.20000005
 46
2.79999995
 79
     2
 49
0.0
 49
-4.19999981
 53
0.0
 43
0.0
 44
0.0
 45
3.9000001
 46
2.4000001
 79
     2
 49
0.0
 49
-4.9000001
 53
0.0
 43
0.0
 44
0.0
 45
2.4000001
 46
2.0999999
 79
     2
 49
0.0
 49
-3.4000001
 53
0.0
 43
0.0
 44
0.0
 45
4.9000001
 46
2.0999999
 79
     2
 49
0.0
 49
-5.9000001
 53
0.0
 43
0.0
 44
0.0
 45
3.5999999
 46
1.5
 79
     2
 49
0.0
 49
-4.5999999
 53
0.0
 43
0.0
 44
0.0
 45
1.60000002
 46
1.39999998
 79
     2
 49
0.0
 49
-2.5999999
 47
0.775229
 98
        1
 10
0.0
 20
0.0
  0
LWPOLYLINE
  5
507
102
{ACAD_REACTORS
330
508
102
}
100
AcDbEntity
  8
Sc.1_5
 62
     7
  6
CONTINUOUS
100
AcDbPolyline
 90
        4
 70
     1
 43
0.0
 10
1710.6695901
 20
-1876.43955437
 10
1710.6695901
 20
-1807.09218481
 10
1708.8695901
 20
-1808.13141558
 10
1708.8695901
 20
-1876.43955437
  0
HATCH
  5
508
100
AcDbEntity
  8
Sc.1_5
 62
     9
  6
CONTINUOUS
100
AcDbHatch
 10
0.0
 20
0.0
 30
0.0
210
0.0
220
0.0
230
1.0
  2
CDWK12A
 70
     0
 71
     1
 91
        1
 92
        7
 72
     0
 73
     1
 93
        4
 10
1710.6695901
 20
-1876.43955437
 10
1710.6695901
 20
-1807.09218481
 10
1708.8695901
 20
-1808.13141558
 10
1708.8695901
 20
-1876.43955437
 97
        1
330
507
 75
     0
 76
     2
 52
0.0
 41
1.0
 77
     0
 78
    15
 53
0.0
 43
0.0
 44
0.0
 45
2.70000005
 46
4.9000001
 79
     2
 49
0.0
 49
-3.70000005
 53
0.0
 43
0.0
 44
0.0
 45
4.4000001
 46
4.80000019
 79
     2
 49
0.0
 49
-5.4000001
 53
0.0
 43
0.0
 44
0.0
 45
1.39999998
 46
4.5999999
 79
     2
 49
0.0
 49
-2.4000001
 53
0.0
 43
0.0
 44
0.0
 45
2.20000005
 46
4.19999981
 79
     2
 49
0.0
 49
-3.20000005
 53
0.0
 43
0.0
 44
0.0
 45
3.79999995
 46
4.0
 79
     2
 49
0.0
 49
-4.80000019
 53
0.0
 43
0.0
 44
0.0
 45
1.20000005
 46
3.79999995
 79
     2
 49
0.0
 49
-2.20000005
 53
0.0
 43
0.0
 44
0.0
 45
2.9000001
 46
3.5
 79
     2
 49
0.0
 49
-3.9000001
 53
0.0
 43
0.0
 44
0.0
 45
4.5999999
 46
3.4000001
 79
     2
 49
0.0
 49
-5.5999999
 53
0.0
 43
0.0
 44
0.0
 45
1.89999998
 46
2.9000001
 79
     2
 49
0.0
 49
-2.9000001
 53
0.0
 43
0.0
 44
0.0
 45
3.20000005
 46
2.79999995
 79
     2
 49
0.0
 49
-4.19999981
 53
0.0
 43
0.0
 44
0.0
 45
3.9000001
 46
2.4000001
 79
     2
 49
0.0
 49
-4.9000001
 53
0.0
 43
0.0
 44
0.0
 45
2.4000001
 46
2.0999999
 79
     2
 49
0.0
 49
-3.4000001
 53
0.0
 43
0.0
 44
0.0
 45
4.9000001
 46
2.0999999
 79
     2
 49
0.0
 49
-5.9000001
 53
0.0
 43
0.0
 44
0.0
 45
3.5999999
 46
1.5
 79
     2
 49
0.0
 49
-4.5999999
 53
0.0
 43
0.0
 44
0.0
 45
1.60000002
 46
1.39999998
 79
     2
 49
0.0
 49
-2.5999999
 47
0.775229
 98
        1
 10
0.0
 20
0.0
  0
LWPOLYLINE
  5
509
102
{ACAD_REACTORS
330
50A
102
}
100
AcDbEntity
  8
Sc.1_5
 62
     7
  6
CONTINUOUS
100
AcDbPolyline
 90
        4
 70
     1
 43
0.0
 10
1679.8696898
 20
-1876.43955437
 10
1679.8696898
 20
-1788.06863187
 10
1678.0696898
 20
-1788.06863187
 10
1678.0696898
 20
-1876.43955437
  0
HATCH
  5
50A
100
AcDbEntity
  8
Sc.1_5
 62
     9
  6
CONTINUOUS
100
AcDbHatch
 10
0.0
 20
0.0
 30
0.0
210
0.0
220
0.0
230
1.0
  2
ANSI31
 70
     0
 71
     1
 91
        1
 92
        7
 72
     0
 73
     1
 93
        4
 10
1679.8696898
 20
-1876.43955437
 10
1679.8696898
 20
-1788.06863187
 10
1678.0696898
 20
-1788.06863187
 10
1678.0696898
 20
-1876.43955437
 97
        1
330
509
 75
     0
 76
     2
 52
0.0
 41
0.3149626
 77
     0
 78
     1
 53
45.0
 43
0.0
 44
0.0
 45
0.70710678
 46
-0.70710678
 79
     0
 47
0.775229
 98
        1
 10
0.0
 20
0.0
  0
LINE
  5
50B
100
AcDbEntity
  8
Sc.1_5
 62
     7
  6
CONTINUOUS
 48
0.5
370
    -3
100
AcDbLine
 10
1751.54398139
 20
-1794.99360801
 30
500.0
 11
1720.986511
 21
-1775.46069449
 31
500.0
  0
INSERT
  5
50C
100
AcDbEntity
  8
Sc.1_5
 62
     7
  6
CONTINUOUS
370
    -3
100
AcDbBlockReference
  2
CDWK_EXTR_2
 10
1720.986511
 20
-1775.46069449
 30
500.0
 41
1.0
 42
1.0
 43
1.0
 50
327.41251622
  0
LINE
  5
50D
100
AcDbEntity
  8
Sc.1_5
 62
     7
  6
CONTINUOUS
 48
0.5
370
    -3
100
AcDbLine
 10
1751.54398139
 20
-1821.32586978
 30
500.0
 11
1720.986511
 21
-1801.79295626
 31
500.0
  0
INSERT
  5
50E
100
AcDbEntity
  8
Sc.1_5
 62
     7
  6
CONTINUOUS
370
    -3
100
AcDbBlockReference
  2
CDWK_EXTR_2
 10
1720.986511
 20
-1801.79295626
 30
500.0
 41
1.0
 42
1.0
 43
1.0
 50
327.41251622
  0
LINE
  5
50F
100
AcDbEntity
  8
Sc.1_5
 62
     7
  6
CONTINUOUS
 48
0.5
370
    -3
100
AcDbLine
 10
1708.99249016
 20
-1726.39546619
 30
500.0
 11
1733.02751565
 21
-1742.84388939
 31
500.0
  0
INSERT
  5
510
100
AcDbEntity
  8
Sc.1_5
 62
     7
  6
CONTINUOUS
370
    -3
100
AcDbBlockReference
  2
CDWK_EXTR_2
 10
1733.02751565
 20
-1742.84388939
 30
500.0
 41
1.0
 42
1.0
 43
1.0
 50
145.61412566
  0
LINE
  5
511
100
AcDbEntity
  8
Sc.1_5
 62
     7
  6
CONTINUOUS
 48
0.5
370
    -3
100
AcDbLine
 10
1751.54398139
 20
-1848.08018518
 30
500.0
 11
1703.55074606
 21
-1848.08018518
 31
500.0
  0
INSERT
  5
512
100
AcDbEntity
  8
Sc.1_5
 62
     7
  6
CONTINUOUS
370
    -3
100
AcDbBlockReference
  2
CDWK_EXTR_2
 10
1703.55074606
 20
-1848.08018518
 30
500.0
 41
1.0
 42
1.0
 43
1.0
  0
LINE
  5
513
100
AcDbEntity
  8
Sc.1_5
 62
     7
  6
CONTINUOUS
100
AcDbLine
 10
1680.61943832
 20
-1788.06863187
 30
0.0
 11
1689.61943874
 21
-1782.87253578
 31
0.0
  0
LINE
  5
514
100
AcDbEntity
  8
Sc.1_5
 62
     7
  6
CONTINUOUS
100
AcDbLine
 10
1689.61943834
 20
-1782.87253564
 30
0.0
 11
1680.61943793
 21
-1788.06863173
 31
0.0
  0
LWPOLYLINE
  5
515
100
AcDbEntity
  8
Sc.1_5
 62
     7
  6
CONTINUOUS
100
AcDbPolyline
 90
        6
 70
     1
 43
0.0
 10
1686.41376572
 20
-1780.10452913
 10
1688.41374158
 20
-1783.56858833
 10
1686.41376564
 20
-1780.10452873
 10
1678.61953708
 20
-1784.60452913
 10
1680.61951303
 20
-1788.06858873
 10
1688.41374158
 20
-1783.56858833
  0
INSERT
  5
516
100
AcDbEntity
  8
Sc.1_5
 62
     0
100
AcDbBlockReference
  2
*X1217
 10
0.0
 20
0.0
 30
0.0
  0
LWPOLYLINE
  5
517
100
AcDbEntity
  8
Sc.1_5
 62
     7
  6
CONTINUOUS
100
AcDbPolyline
 90
        6
 70
     1
 43
0.0
 10
1677.41378903
 20
-1764.51611383
 10
1679.4137649
 20
-1767.98017302
 10
1677.41378895
 20
-1764.51611342
 10
1669.6195604
 20
-1769.01611383
 10
1671.61953635
 20
-1772.48017343
 10
1679.4137649
 20
-1767.98017302
  0
INSERT
  5
518
100
AcDbEntity
  8
Sc.1_5
 62
     0
100
AcDbBlockReference
  2
*X1218
 10
0.0
 20
0.0
 30
0.0
  0
LINE
  5
519
100
AcDbEntity
  8
Sc.1_5
 62
     7
  6
CONTINUOUS
 48
0.5
370
    -3
100
AcDbLine
 10
1725.7597504
 20
-1708.60801631
 30
500.0
 11
1749.79477588
 21
-1725.05643951
 31
500.0
  0
INSERT
  5
51A
100
AcDbEntity
  8
Sc.1_5
 62
     7
  6
CONTINUOUS
370
    -3
100
AcDbBlockReference
  2
CDWK_EXTR_2
 10
1749.79477588
 20
-1725.05643951
 30
500.0
 41
1.0
 42
1.0
 43
1.0
 50
145.61412566
  0
LWPOLYLINE
  5
51B
100
AcDbEntity
  8
Sc.1_5
 62
     7
  6
CONTINUOUS
100
AcDbPolyline
 90
        6
 70
     1
 43
0.0
 10
1760.78822754
 20
-1737.16446994
 10
1762.7882034
 20
-1740.62852913
 10
1760.78822746
 20
-1737.16446953
 10
1752.9939989
 20
-1741.66446994
 10
1754.99397485
 20
-1745.12852954
 10
1762.7882034
 20
-1740.62852913
  0
INSERT
  5
51C
100
AcDbEntity
  8
Sc.1_5
 62
     0
100
AcDbBlockReference
  2
*X1220
 10
0.0
 20
0.0
 30
0.0
  0
LWPOLYLINE
  5
51D
100
AcDbEntity
  8
Sc.1_5
 62
     7
  6
CONTINUOUS
100
AcDbPolyline
 90
        6
 70
     1
 43
0.0
 10
1751.78825085
 20
-1721.57605463
 10
1753.78822672
 20
-1725.04011382
 10
1751.78825077
 20
-1721.57605422
 10
1743.99402222
 20
-1726.07605463
 10
1745.99399816
 20
-1729.54011423
 10
1753.78822672
 20
-1725.04011382
  0
INSERT
  5
51E
100
AcDbEntity
  8
Sc.1_5
 62
     0
100
AcDbBlockReference
  2
*X1221
 10
0.0
 20
0.0
 30
0.0
  0
LINE
  5
51F
100
AcDbEntity
  8
Sc.1_5
 62
     7
  6
DASHED
370
    25
100
AcDbLine
 10
1762.74767958
 20
-1740.55833984
 30
0.0
 11
1679.87910681
 21
-1788.40254598
 31
0.0
  0
LWPOLYLINE
  5
520
100
AcDbEntity
  8
Sc.1_1
 62
     7
  6
DASHDOT
370
     5
100
AcDbPolyline
 90
        4
 70
     1
 43
0.0
 10
1604.1442253
 20
-1941.58736414
 10
1636.04729741
 20
-1941.58736414
 10
1636.04729741
 20
-1925.59035714
 10
1604.1442253
 20
-1925.59035714
  0
LWPOLYLINE
  5
521
100
AcDbEntity
  8
LEGEND
 62
     5
  6
CONTINUOUS
370
    -3
100
AcDbPolyline
 90
        4
 70
     1
 43
0.0
 10
1635.72952177
 20
-1942.22101287
 10
1693.54487601
 20
-1942.22101287
 10
1693.54487601
 20
-1924.95865138
 10
1635.72952177
 20
-1924.95865138
  0
LWPOLYLINE
  5
522
100
AcDbEntity
  8
LEGEND
 62
     5
  6
CONTINUOUS
370
    -3
100
AcDbPolyline
 90
        4
 70
     1
 43
0.0
 10
1693.54487601
 20
-1942.22101287
 10
1766.93702756
 20
-1942.22101287
 10
1766.93702756
 20
-1924.95865138
 10
1693.54487601
 20
-1924.95865138
  0
LWPOLYLINE
  5
523
100
AcDbEntity
  8
LEGEND
 62
     5
  6
CONTINUOUS
370
    -3
100
AcDbPolyline
 90
        4
 70
     1
 43
0.0
 10
1766.93702756
 20
-1942.22101287
 10
1801.46102669
 20
-1942.22101287
 10
1801.46102669
 20
-1933.58983213
 10
1766.93702756
 20
-1933.58983213
  0
LWPOLYLINE
  5
524
100
AcDbEntity
  8
LEGEND
 62
     5
  6
CONTINUOUS
370
    -3
100
AcDbPolyline
 90
        4
 70
     1
 43
0.0
 10
1766.93702756
 20
-1933.58983213
 10
1781.84527623
 20
-1933.58983213
 10
1781.84527623
 20
-1924.95865138
 10
1766.93702756
 20
-1924.95865138
  0
LWPOLYLINE
  5
525
100
AcDbEntity
  8
LEGEND
 62
     5
  6
CONTINUOUS
370
    -3
100
AcDbPolyline
 90
        4
 70
     1
 43
0.0
 10
1604.46102669
 20
-1942.22101287
 10
1801.46102669
 20
-1942.22101287
 10
1801.46102669
 20
-1671.22101287
 10
1604.46102669
 20
-1671.22101287
  0
LWPOLYLINE
  5
526
100
AcDbEntity
  8
LEGEND
 62
     5
  6
CONTINUOUS
370
    -3
100
AcDbPolyline
 90
        4
 70
     1
 43
0.0
 10
1781.84527623
 20
-1933.58983213
 10
1801.46102669
 20
-1933.58983213
 10
1801.46102669
 20
-1924.95865138
 10
1781.84527623
 20
-1924.95865138
  0
LWPOLYLINE
  5
527
100
AcDbEntity
  8
LEGEND
 62
     5
  6
CONTINUOUS
370
    -3
100
AcDbPolyline
 90
        4
 70
     1
 43
0.0
 10
1604.46102669
 20
-1942.22101287
 10
1635.72952177
 20
-1942.22101287
 10
1635.72952177
 20
-1924.95865138
 10
1604.46102669
 20
-1924.95865138
  0
3DFACE
  5
528
100
AcDbEntity
  8
Sc.1_5
 62
     7
  6
CONTINUOUS
370
    20
100
AcDbFace
 70
     0
 10
1673.50511447
 20
-1788.06863222
 30
548.63999023
 11
1677.50511453
 21
-1788.06863187
 31
548.63999023
 12
1677.50511523
 22
-1796.06863199
 32
548.63999023
 13
1673.50511517
 23
-1796.06863234
 33
548.63999023
  0
INSERT
  5
529
100
AcDbEntity
  8
Sc.1_5
 62
     0
370
    20
100
AcDbBlockReference
  2
*X2008
 10
0.0
 20
0.0
 30
0.0
  0
3DFACE
  5
52A
100
AcDbEntity
  8
Sc.1_5
 62
     7
  6
CONTINUOUS
370
    20
100
AcDbFace
 70
     0
 10
1680.36959045
 20
-1800.25980502
 30
548.63999023
 11
1680.36959085
 21
-1809.25980515
 31
548.63999023
 12
1708.3695901
 22
-1809.25980393
 32
548.63999023
 13
1708.36959087
 23
-1800.25980379
 33
548.63999023
  0
INSERT
  5
52B
100
AcDbEntity
  8
Sc.1_5
 62
     0
370
    20
100
AcDbBlockReference
  2
*X2234
 10
0.0
 20
0.0
 30
0.0
  0
3DFACE
  5
52C
100
AcDbEntity
  8
Sc.1_5
 62
     7
  6
CONTINUOUS
370
    20
100
AcDbFace
 70
     0
 10
1680.36959045
 20
-1809.25980515
 30
548.63999023
 11
1680.36959085
 21
-1818.25980529
 31
548.63999023
 12
1708.3695901
 22
-1818.25980406
 32
548.63999023
 13
1708.36959087
 23
-1809.25980393
 33
548.63999023
  0
INSERT
  5
52D
100
AcDbEntity
  8
Sc.1_5
 62
     0
370
    20
100
AcDbBlockReference
  2
*X2235
 10
0.0
 20
0.0
 30
0.0
  0
3DFACE
  5
52E
100
AcDbEntity
  8
Sc.1_5
 62
     7
  6
CONTINUOUS
370
    20
100
AcDbFace
 70
     0
 10
1708.3695901
 20
-1818.25980393
 30
914.4
 11
1708.3695901
 21
-1876.43955437
 31
914.4
 12
1680.3696898
 22
-1876.43955437
 32
914.4
 13
1680.3696898
 23
-1818.25980393
 33
914.4
  0
INSERT
  5
52F
100
AcDbEntity
  8
Sc.1_5
 62
     0
370
    20
100
AcDbBlockReference
  2
*X2240
 10
0.0
 20
0.0
 30
0.0
  0
3DFACE
  5
530
100
AcDbEntity
  8
Sc.1_5
 62
     7
  6
CONTINUOUS
370
    20
100
AcDbFace
 70
     0
 10
1679.41376498
 20
-1767.98017343
 30
548.63999023
 11
1671.61953635
 21
-1772.48017343
 31
548.63999023
 12
1678.61953708
 22
-1784.60452913
 32
548.63999023
 13
1686.41376572
 23
-1780.10452913
 33
548.63999023
  0
INSERT
  5
531
100
AcDbEntity
  8
Sc.1_5
 62
     0
370
    20
100
AcDbBlockReference
  2
*X2294
 10
0.0
 20
0.0
 30
0.0
  0
3DFACE
  5
532
100
AcDbEntity
  8
Sc.1_5
 62
     7
  6
CONTINUOUS
370
    20
100
AcDbFace
 70
     0
 10
1760.78822746
 20
-1737.16446953
 30
548.63999023
 11
1752.9939989
 21
-1741.66446994
 31
548.63999023
 12
1745.99399816
 22
-1729.54011423
 32
548.63999023
 13
1753.7882268
 23
-1725.04011423
 33
548.63999023
  0
INSERT
  5
533
100
AcDbEntity
  8
Sc.1_5
 62
     0
370
    20
100
AcDbBlockReference
  2
*X2295
 10
0.0
 20
0.0
 30
0.0
  0
3DFACE
  5
534
100
AcDbEntity
  8
Sc.1_5
 62
     7
  6
CONTINUOUS
370
    20
100
AcDbFace
 70
     0
 10
1708.8695901
 20
-1799.47116117
 30
548.63999023
 11
1720.99394659
 21
-1792.47116219
 31
548.63999023
 12
1724.49394608
 22
-1798.53334044
 32
548.63999023
 13
1712.3695896
 23
-1805.53333942
 33
548.63999023
  0
INSERT
  5
535
100
AcDbEntity
  8
Sc.1_5
 62
     0
370
    20
100
AcDbBlockReference
  2
*X2296
 10
0.0
 20
0.0
 30
0.0
  0
LWPOLYLINE
  5
536
100
AcDbEntity
  8
Sc.1_5
 62
     9
  6
CONTINUOUS
370
    20
100
AcDbPolyline
 90
       11
 70
     1
 43
0.0
 38
548.63999023
 39
-548.63999023
 10
1695.35203954
 20
-1780.77559346
 10
1695.35203954
 20
-1813.85850056
 10
1695.35203954
 20
-1814.13264399
 10
1695.4336179
 20
-1814.87596077
 10
1695.4790474
 20
-1815.0680221
 10
1695.85203954
 20
-1815.9570419
 10
1696.24178328
 20
-1814.89368247
 10
1696.26630982
 20
-1814.7406959
 10
1696.35203954
 20
-1813.86761695
 10
1696.35203954
 20
-1813.66272709
 10
1696.35203954
 20
-1780.77559346
  0
LWPOLYLINE
  5
537
100
AcDbEntity
  8
Sc.1_5
 62
     9
  6
CONTINUOUS
370
    20
100
AcDbPolyline
 90
        8
 70
     1
 43
0.0
 38
548.63999023
 39
-548.63999023
 10
1696.85203954
 20
-1812.54007052
 10
1696.35203954
 20
-1812.87311899
 10
1695.35203954
 20
-1813.13414472
 10
1694.85203954
 20
-1813.19714571
 10
1695.35203954
 20
-1812.86409724
 10
1696.35203954
 20
-1812.60307151
 10
1696.85203954
 20
-1812.54007052
 10
1694.85203954
 20
-1813.19714571
  0
LWPOLYLINE
  5
538
100
AcDbEntity
  8
Sc.1_5
 62
     9
  6
CONTINUOUS
370
    20
100
AcDbPolyline
 90
        8
 70
     1
 43
0.0
 38
548.63999023
 39
-548.63999023
 10
1696.85203954
 20
-1811.30283291
 10
1696.35203954
 20
-1811.63588138
 10
1695.35203954
 20
-1811.89690711
 10
1694.85203954
 20
-1811.9599081
 10
1695.35203954
 20
-1811.62685962
 10
1696.35203954
 20
-1811.3658339
 10
1696.85203954
 20
-1811.30283291
 10
1694.85203954
 20
-1811.9599081
  0
3DFACE
  5
539
100
AcDbEntity
  8
Sc.1_5
 62
     9
  6
CONTINUOUS
370
    20
100
AcDbFace
 70
     0
 10
1694.05203954
 20
-1779.47414136
 30
548.63999023
 11
1695.35276564
 21
-1780.77486745
 31
548.63999023
 12
1696.35131349
 22
-1780.77486739
 32
548.63999023
 13
1697.65203954
 23
-1779.47414136
 33
548.63999023
  0
3DFACE
  5
53A
100
AcDbEntity
  8
Sc.1_5
 62
     9
  6
CONTINUOUS
370
    20
100
AcDbFace
 70
     0
 10
1694.05203954
 20
-1779.47414136
 30
548.63999023
 11
1694.05203954
 21
-1779.27414136
 31
548.63999023
 12
1697.65203954
 22
-1779.27414136
 32
548.63999023
 13
1697.65203954
 23
-1779.47414136
 33
548.63999023
  0
LWPOLYLINE
  5
53B
100
AcDbEntity
  8
Sc.1_5
 62
     9
  6
CADWORK_13
370
    -3
100
AcDbPolyline
 90
        4
 70
     0
 43
0.0
 38
510.0
 10
1696.35203954
 20
-1779.27414136
 10
1696.15203954
 20
-1780.1025364
 10
1695.55203954
 20
-1780.1025364
 10
1695.35203954
 20
-1779.27414136
  0
LINE
  5
53C
100
AcDbEntity
  8
Sc.1_5
 62
     9
  6
CADWORK_13
370
    -3
100
AcDbLine
 10
1695.85203954
 20
-1780.1025364
 30
510.0
 11
1695.85203954
 21
-1779.27414136
 31
510.0
  0
LWPOLYLINE
  5
53D
100
AcDbEntity
  8
Sc.1_5
 62
     9
  6
CONTINUOUS
370
    20
100
AcDbPolyline
 90
        8
 70
     1
 43
0.0
 38
548.63999023
 39
-548.63999023
 10
1696.85203954
 20
-1810.06559529
 10
1696.35203954
 20
-1810.39864377
 10
1695.35203954
 20
-1810.6596695
 10
1694.85203954
 20
-1810.72267049
 10
1695.35203954
 20
-1810.38962201
 10
1696.35203954
 20
-1810.12859629
 10
1696.85203954
 20
-1810.06559529
 10
1694.85203954
 20
-1810.72267049
  0
LWPOLYLINE
  5
53E
100
AcDbEntity
  8
Sc.1_5
 62
     9
  6
CONTINUOUS
370
    20
100
AcDbPolyline
 90
        8
 70
     1
 43
0.0
 38
548.63999023
 39
-548.63999023
 10
1696.85203954
 20
-1808.82835768
 10
1696.35203954
 20
-1809.16140616
 10
1695.35203954
 20
-1809.42243189
 10
1694.85203954
 20
-1809.48543288
 10
1695.35203954
 20
-1809.1523844
 10
1696.35203954
 20
-1808.89135867
 10
1696.85203954
 20
-1808.82835768
 10
1694.85203954
 20
-1809.48543288
  0
LWPOLYLINE
  5
53F
100
AcDbEntity
  8
Sc.1_5
 62
     9
  6
CONTINUOUS
370
    20
100
AcDbPolyline
 90
        8
 70
     1
 43
0.0
 38
548.63999023
 39
-548.63999023
 10
1696.85203954
 20
-1807.59112007
 10
1696.35203954
 20
-1807.92416855
 10
1695.35203954
 20
-1808.18519427
 10
1694.85203954
 20
-1808.24819527
 10
1695.35203954
 20
-1807.91514679
 10
1696.35203954
 20
-1807.65412106
 10
1696.85203954
 20
-1807.59112007
 10
1694.85203954
 20
-1808.24819527
  0
LWPOLYLINE
  5
540
100
AcDbEntity
  8
Sc.1_5
 62
     9
  6
CONTINUOUS
370
    20
100
AcDbPolyline
 90
        8
 70
     1
 43
0.0
 38
548.63999023
 39
-548.63999023
 10
1696.85203954
 20
-1806.35388246
 10
1696.35203954
 20
-1806.68693094
 10
1695.35203954
 20
-1806.94795666
 10
1694.85203954
 20
-1807.01095765
 10
1695.35203954
 20
-1806.67790918
 10
1696.35203954
 20
-1806.41688345
 10
1696.85203954
 20
-1806.35388246
 10
1694.85203954
 20
-1807.01095765
  0
LWPOLYLINE
  5
541
100
AcDbEntity
  8
Sc.1_5
 62
     9
  6
CONTINUOUS
370
    20
100
AcDbPolyline
 90
        8
 70
     1
 43
0.0
 38
548.63999023
 39
-548.63999023
 10
1696.85203954
 20
-1805.11664485
 10
1696.35203954
 20
-1805.44969332
 10
1695.35203954
 20
-1805.71071905
 10
1694.85203954
 20
-1805.77372004
 10
1695.35203954
 20
-1805.44067157
 10
1696.35203954
 20
-1805.17964584
 10
1696.85203954
 20
-1805.11664485
 10
1694.85203954
 20
-1805.77372004
  0
LWPOLYLINE
  5
542
100
AcDbEntity
  8
Sc.1_5
 62
     9
  6
CONTINUOUS
370
    20
100
AcDbPolyline
 90
        8
 70
     1
 43
0.0
 38
548.63999023
 39
-548.63999023
 10
1696.85203954
 20
-1803.87940724
 10
1696.35203954
 20
-1804.21245571
 10
1695.35203954
 20
-1804.47348144
 10
1694.85203954
 20
-1804.53648243
 10
1695.35203954
 20
-1804.20343395
 10
1696.35203954
 20
-1803.94240823
 10
1696.85203954
 20
-1803.87940724
 10
1694.85203954
 20
-1804.53648243
  0
LWPOLYLINE
  5
543
100
AcDbEntity
  8
Sc.1_5
 62
     9
  6
CONTINUOUS
370
    20
100
AcDbPolyline
 90
        8
 70
     1
 43
0.0
 38
548.63999023
 39
-548.63999023
 10
1696.85203954
 20
-1802.64216962
 10
1696.35203954
 20
-1802.9752181
 10
1695.35203954
 20
-1803.23624383
 10
1694.85203954
 20
-1803.29924482
 10
1695.35203954
 20
-1802.96619634
 10
1696.35203954
 20
-1802.70517062
 10
1696.85203954
 20
-1802.64216962
 10
1694.85203954
 20
-1803.29924482
  0
LWPOLYLINE
  5
544
100
AcDbEntity
  8
Sc.1_5
 62
     9
  6
CONTINUOUS
370
    20
100
AcDbPolyline
 90
        8
 70
     1
 43
0.0
 38
548.63999023
 39
-548.63999023
 10
1696.85203954
 20
-1801.40493201
 10
1696.35203954
 20
-1801.73798049
 10
1695.35203954
 20
-1801.99900622
 10
1694.85203954
 20
-1802.06200721
 10
1695.35203954
 20
-1801.72895873
 10
1696.35203954
 20
-1801.467933
 10
1696.85203954
 20
-1801.40493201
 10
1694.85203954
 20
-1802.06200721
  0
LWPOLYLINE
  5
545
100
AcDbEntity
  8
Sc.1_5
 62
     9
  6
CONTINUOUS
370
    20
100
AcDbPolyline
 90
        8
 70
     1
 43
0.0
 38
548.63999023
 39
-548.63999023
 10
1696.85203954
 20
-1800.1676944
 10
1696.35203954
 20
-1800.50074288
 10
1695.35203954
 20
-1800.7617686
 10
1694.85203954
 20
-1800.8247696
 10
1695.35203954
 20
-1800.49172112
 10
1696.35203954
 20
-1800.23069539
 10
1696.85203954
 20
-1800.1676944
 10
1694.85203954
 20
-1800.8247696
  0
LWPOLYLINE
  5
546
100
AcDbEntity
  8
Sc.1_5
 62
     9
  6
CONTINUOUS
370
    20
100
AcDbPolyline
 90
        8
 70
     1
 43
0.0
 38
548.63999023
 39
-548.63999023
 10
1696.85203954
 20
-1798.93045679
 10
1696.35203954
 20
-1799.26350527
 10
1695.35203954
 20
-1799.52453099
 10
1694.85203954
 20
-1799.58753198
 10
1695.35203954
 20
-1799.25448351
 10
1696.35203954
 20
-1798.99345778
 10
1696.85203954
 20
-1798.93045679
 10
1694.85203954
 20
-1799.58753198
  0
LWPOLYLINE
  5
547
100
AcDbEntity
  8
Sc.1_5
 62
     9
  6
CONTINUOUS
370
    20
100
AcDbPolyline
 90
        8
 70
     1
 43
0.0
 38
548.63999023
 39
-548.63999023
 10
1696.85203954
 20
-1797.69321918
 10
1696.35203954
 20
-1798.02626765
 10
1695.35203954
 20
-1798.28729338
 10
1694.85203954
 20
-1798.35029437
 10
1695.35203954
 20
-1798.0172459
 10
1696.35203954
 20
-1797.75622017
 10
1696.85203954
 20
-1797.69321918
 10
1694.85203954
 20
-1798.35029437
  0
LWPOLYLINE
  5
548
100
AcDbEntity
  8
Sc.1_5
 62
     9
  6
CONTINUOUS
370
    20
100
AcDbPolyline
 90
        8
 70
     1
 43
0.0
 38
548.63999023
 39
-548.63999023
 10
1696.85203954
 20
-1796.45598156
 10
1696.35203954
 20
-1796.78903004
 10
1695.35203954
 20
-1797.05005577
 10
1694.85203954
 20
-1797.11305676
 10
1695.35203954
 20
-1796.78000828
 10
1696.35203954
 20
-1796.51898256
 10
1696.85203954
 20
-1796.45598156
 10
1694.85203954
 20
-1797.11305676
  0
LWPOLYLINE
  5
549
100
AcDbEntity
  8
Sc.1_5
 62
     9
  6
CONTINUOUS
370
    20
100
AcDbPolyline
 90
        8
 70
     1
 43
0.0
 38
548.63999023
 39
-548.63999023
 10
1696.85203954
 20
-1795.21874395
 10
1696.35203954
 20
-1795.55179243
 10
1695.35203954
 20
-1795.81281816
 10
1694.85203954
 20
-1795.87581915
 10
1695.35203954
 20
-1795.54277067
 10
1696.35203954
 20
-1795.28174495
 10
1696.85203954
 20
-1795.21874395
 10
1694.85203954
 20
-1795.87581915
  0
LWPOLYLINE
  5
54A
100
AcDbEntity
  8
Sc.1_5
 62
     9
  6
CONTINUOUS
370
    20
100
AcDbPolyline
 90
        8
 70
     1
 43
0.0
 38
548.63999023
 39
-548.63999023
 10
1696.85203954
 20
-1793.98150634
 10
1696.35203954
 20
-1794.31455482
 10
1695.35203954
 20
-1794.57558055
 10
1694.85203954
 20
-1794.63858154
 10
1695.35203954
 20
-1794.30553306
 10
1696.35203954
 20
-1794.04450733
 10
1696.85203954
 20
-1793.98150634
 10
1694.85203954
 20
-1794.63858154
  0
LWPOLYLINE
  5
54B
100
AcDbEntity
  8
Sc.1_5
 62
     9
  6
CONTINUOUS
370
    20
100
AcDbPolyline
 90
        8
 70
     1
 43
0.0
 38
548.63999023
 39
-548.63999023
 10
1696.85203954
 20
-1792.74426873
 10
1696.35203954
 20
-1793.07731721
 10
1695.35203954
 20
-1793.33834293
 10
1694.85203954
 20
-1793.40134393
 10
1695.35203954
 20
-1793.06829545
 10
1696.35203954
 20
-1792.80726972
 10
1696.85203954
 20
-1792.74426873
 10
1694.85203954
 20
-1793.40134393
  0
LWPOLYLINE
  5
54C
100
AcDbEntity
  8
Sc.1_5
 62
     9
  6
CONTINUOUS
370
    20
100
AcDbPolyline
 90
        8
 70
     1
 43
0.0
 38
548.63999023
 39
-548.63999023
 10
1696.85203954
 20
-1791.50703112
 10
1696.35203954
 20
-1791.8400796
 10
1695.35203954
 20
-1792.10110532
 10
1694.85203954
 20
-1792.16410631
 10
1695.35203954
 20
-1791.83105784
 10
1696.35203954
 20
-1791.57003211
 10
1696.85203954
 20
-1791.50703112
 10
1694.85203954
 20
-1792.16410631
  0
LWPOLYLINE
  5
54D
100
AcDbEntity
  8
Sc.1_5
 62
     9
  6
CONTINUOUS
370
    20
100
AcDbPolyline
 90
        8
 70
     1
 43
0.0
 38
548.63999023
 39
-548.63999023
 10
1696.85203954
 20
-1790.26979351
 10
1696.35203954
 20
-1790.60284198
 10
1695.35203954
 20
-1790.86386771
 10
1694.85203954
 20
-1790.9268687
 10
1695.35203954
 20
-1790.59382023
 10
1696.35203954
 20
-1790.3327945
 10
1696.85203954
 20
-1790.26979351
 10
1694.85203954
 20
-1790.9268687
  0
LWPOLYLINE
  5
54E
100
AcDbEntity
  8
Sc.1_5
 62
     9
  6
CONTINUOUS
370
    20
100
AcDbPolyline
 90
        8
 70
     1
 43
0.0
 38
548.63999023
 39
-548.63999023
 10
1696.85203954
 20
-1789.03255589
 10
1696.35203954
 20
-1789.36560437
 10
1695.35203954
 20
-1789.6266301
 10
1694.85203954
 20
-1789.68963109
 10
1695.35203954
 20
-1789.35658261
 10
1696.35203954
 20
-1789.09555689
 10
1696.85203954
 20
-1789.03255589
 10
1694.85203954
 20
-1789.68963109
  0
LWPOLYLINE
  5
54F
100
AcDbEntity
  8
Sc.1_5
 62
     9
  6
CONTINUOUS
370
    20
100
AcDbPolyline
 90
        8
 70
     1
 43
0.0
 38
548.63999023
 39
-548.63999023
 10
1696.85203954
 20
-1787.79531828
 10
1696.35203954
 20
-1788.12836676
 10
1695.35203954
 20
-1788.38939249
 10
1694.85203954
 20
-1788.45239348
 10
1695.35203954
 20
-1788.119345
 10
1696.35203954
 20
-1787.85831927
 10
1696.85203954
 20
-1787.79531828
 10
1694.85203954
 20
-1788.45239348
  0
LWPOLYLINE
  5
550
100
AcDbEntity
  8
Sc.1_5
 62
     9
  6
CONTINUOUS
370
    20
100
AcDbPolyline
 90
        8
 70
     1
 43
0.0
 38
548.63999023
 39
-548.63999023
 10
1696.85203954
 20
-1786.55808067
 10
1696.35203954
 20
-1786.89112915
 10
1695.35203954
 20
-1787.15215488
 10
1694.85203954
 20
-1787.21515587
 10
1695.35203954
 20
-1786.88210739
 10
1696.35203954
 20
-1786.62108166
 10
1696.85203954
 20
-1786.55808067
 10
1694.85203954
 20
-1787.21515587
  0
LWPOLYLINE
  5
551
100
AcDbEntity
  8
Sc.1_5
 62
     9
  6
CONTINUOUS
370
    20
100
AcDbPolyline
 90
        8
 70
     1
 43
0.0
 38
548.63999023
 39
-548.63999023
 10
1696.85203954
 20
-1785.32084306
 10
1696.35203954
 20
-1785.65389154
 10
1695.35203954
 20
-1785.91491726
 10
1694.85203954
 20
-1785.97791826
 10
1695.35203954
 20
-1785.64486978
 10
1696.35203954
 20
-1785.38384405
 10
1696.85203954
 20
-1785.32084306
 10
1694.85203954
 20
-1785.97791826
  0
LWPOLYLINE
  5
552
100
AcDbEntity
  8
Sc.1_5
 62
     9
  6
CONTINUOUS
370
    20
100
AcDbPolyline
 90
        8
 70
     1
 43
0.0
 38
548.63999023
 39
-548.63999023
 10
1696.85203954
 20
-1784.08360545
 10
1696.35203954
 20
-1784.41665393
 10
1695.35203954
 20
-1784.67767965
 10
1694.85203954
 20
-1784.74068064
 10
1695.35203954
 20
-1784.40763217
 10
1696.35203954
 20
-1784.14660644
 10
1696.85203954
 20
-1784.08360545
 10
1694.85203954
 20
-1784.74068064
  0
LWPOLYLINE
  5
553
100
AcDbEntity
  8
Sc.1_5
 62
     9
  6
CONTINUOUS
370
    20
100
AcDbPolyline
 90
        8
 70
     1
 43
0.0
 38
548.63999023
 39
-548.63999023
 10
1696.85203954
 20
-1782.84636784
 10
1696.35203954
 20
-1783.17941631
 10
1695.35203954
 20
-1783.44044204
 10
1694.85203954
 20
-1783.50344303
 10
1695.35203954
 20
-1783.17039455
 10
1696.35203954
 20
-1782.90936883
 10
1696.85203954
 20
-1782.84636784
 10
1694.85203954
 20
-1783.50344303
  0
LWPOLYLINE
  5
554
100
AcDbEntity
  8
Sc.1_5
 62
     9
  6
CONTINUOUS
370
    20
100
AcDbPolyline
 90
        8
 70
     1
 43
0.0
 38
548.63999023
 39
-548.63999023
 10
1696.85203954
 20
-1781.60913022
 10
1696.35203954
 20
-1781.9421787
 10
1695.35203954
 20
-1782.20320443
 10
1694.85203954
 20
-1782.26620542
 10
1695.35203954
 20
-1781.93315694
 10
1696.35203954
 20
-1781.67213122
 10
1696.85203954
 20
-1781.60913022
 10
1694.85203954
 20
-1782.26620542
  0
LWPOLYLINE
  5
555
100
AcDbEntity
  8
Sc.1_5
 62
     9
  6
CONTINUOUS
370
    20
100
AcDbPolyline
 90
        8
 70
     1
 43
0.0
 38
548.63999023
 39
-548.63999023
 10
1694.98596383
 20
-1814.06508074
 10
1695.35203954
 20
-1814.13264399
 10
1696.35203954
 20
-1813.86761695
 10
1696.71396389
 20
-1813.65966667
 10
1694.98596383
 20
-1814.06508074
 10
1695.35203954
 20
-1813.85850056
 10
1696.35203954
 20
-1813.66272709
 10
1696.71396389
 20
-1813.65966667
  0
LWPOLYLINE
  5
556
100
AcDbEntity
  8
Sc.1_5
 62
     9
  6
CONTINUOUS
370
    20
100
AcDbPolyline
 90
        8
 70
     1
 43
0.0
 38
548.63999023
 39
-548.63999023
 10
1695.15910978
 20
-1815.01105267
 10
1695.4790474
 20
-1815.0680221
 10
1696.24178328
 20
-1814.89368247
 10
1696.54081794
 20
-1814.7406959
 10
1696.26630982
 20
-1814.7406959
 10
1695.4336179
 20
-1814.87596077
 10
1695.15910978
 20
-1815.01105267
 10
1696.54081794
 20
-1814.7406959
  0
LWPOLYLINE
  5
557
102
{ACAD_REACTORS
330
558
102
}
100
AcDbEntity
  8
Sc.1_5
 62
     7
  6
CONTINUOUS
100
AcDbPolyline
 90
        5
 70
     1
 43
0.0
 38
975.35996094
 39
-975.35996094
 10
1680.61953586
 20
-1799.75980044
 10
1708.36959087
 20
-1799.75980379
 10
1774.42534587
 20
-1761.62249586
 10
1762.7882034
 20
-1740.62852913
 10
1680.61953727
 20
-1788.06863064
  0
HATCH
  5
558
100
AcDbEntity
  8
Sc.1_5
 62
     9
  6
CONTINUOUS
100
AcDbHatch
 10
0.0
 20
0.0
 30
0.0
210
0.0
220
0.0
230
1.0
  2
Wood
 70
     0
 71
     1
 91
        1
 92
        7
 72
     0
 73
     1
 93
        5
 10
1680.61953586
 20
-1799.75980044
 10
1708.36959087
 20
-1799.75980379
 10
1774.42534587
 20
-1761.62249586
 10
1762.7882034
 20
-1740.62852913
 10
1680.61953727
 20
-1788.06863064
 97
        1
330
557
 75
     0
 76
     2
 52
29.84139633
 41
1.0
 77
     0
 78
    66
 53
29.84139633
 43
0.0
 44
0.0
 45
-20.51662718
 46
35.76410863
 79
     4
 49
8.24619961
 49
-12.36929989
 49
4.1230998
 49
-16.49239922
 53
29.84139633
 43
24.52188959
 44
15.25572712
 45
-20.51662718
 46
35.76410863
 79
     2
 49
8.24619961
 49
-32.98479843
 53
29.84139633
 43
19.91968298
 44
14.99222691
 45
-20.51662718
 46
35.76410863
 79
     2
 49
4.1230998
 49
-37.10800171
 53
29.84139633
 43
-0.26341322
 44
4.60225596
 45
-20.51662718
 46
35.76410863
 79
     4
 49
2.06159997
 49
-28.86170006
 49
2.06159997
 49
-8.24619961
 53
29.84139633
 43
11.22809707
 44
13.57127784
 45
-20.51662718
 46
35.76410863
 79
     4
 49
8.24619961
 49
-12.36929989
 49
2.06159997
 49
-18.55400085
 53
29.84139633
 43
1.77425802
 44
9.33619425
 45
-20.51662718
 46
35.76410863
 79
     2
 49
6.18470001
 49
-35.04639816
 53
29.84139633
 43
10.20229324
 44
15.35943529
 45
-20.51662718
 46
35.76410863
 79
     2
 49
12.36929989
 49
-28.86170006
 53
29.84139633
 43
-1.0398406
 44
10.09858507
 45
-20.51662718
 46
35.76410863
 79
     2
 49
8.24619961
 49
-32.98479843
 53
29.84139633
 43
12.75284169
 44
19.19933841
 45
-20.51662718
 46
35.76410863
 79
     2
 49
20.6154995
 49
-20.6154995
 53
29.84139633
 43
0.99783091
 44
14.83252241
 45
-20.51662718
 46
35.76410863
 79
     4
 49
4.1230998
 49
-12.36929989
 49
8.24619961
 49
-16.49239922
 53
29.84139633
 43
25.51980907
 44
30.08830021
 45
-20.51662718
 46
35.76410863
 79
     2
 49
8.24619961
 49
-32.98479843
 53
29.84139633
 43
17.85398937
 44
26.87905611
 45
-20.51662718
 46
35.76410863
 79
     2
 49
4.1230998
 49
-37.10800171
 53
29.84139633
 43
10.18830671
 44
23.66977629
 45
-20.51662718
 46
35.76410863
 79
     2
 49
4.1230998
 49
-37.10800171
 53
29.84139633
 43
-8.20663094
 44
14.30560871
 45
-20.51662718
 46
35.76410863
 79
     2
 49
8.24619961
 49
-32.98479843
 53
29.84139633
 43
9.16245353
 44
25.45801978
 45
-20.51662718
 46
35.76410863
 79
     2
 49
8.24619961
 49
-32.98479843
 53
29.84139633
 43
8.13659891
 44
27.24626574
 45
-20.51662718
 46
35.76410863
 79
     4
 49
8.24619961
 49
-8.24619961
 49
8.24619961
 49
-16.49239922
 53
29.84139633
 43
-0.0420088
 44
24.9311069
 45
-20.51662718
 46
35.76410863
 79
     4
 49
4.1230998
 49
-20.6154995
 49
8.24619961
 49
-8.24619961
 53
29.84139633
 43
6.59786872
 44
29.92854452
 45
-20.51662718
 46
35.76410863
 79
     2
 49
12.36929989
 49
-28.86170006
 53
29.84139633
 43
5.57206441
 44
31.7167028
 45
-20.51662718
 46
35.76410863
 79
     2
 49
8.24619961
 49
-32.98479843
 53
29.84139633
 43
-9.24647154
 44
24.40419378
 45
-20.51662718
 46
35.76410863
 79
     4
 49
12.36929989
 49
-16.49239922
 49
4.1230998
 49
-8.24619961
 53
29.84139633
 43
-10.2723252
 44
26.19243809
 45
-20.51662718
 46
35.76410863
 79
     2
 49
20.6154995
 49
-20.6154995
 53
29.84139633
 43
10.67321162
 44
39.39642134
 45
-20.51662718
 46
35.76410863
 79
     2
 49
4.1230998
 49
-37.10800171
 53
29.84139633
 43
-0.56892298
 44
34.13556958
 45
-20.51662718
 46
35.76410863
 79
     2
 49
8.24619961
 49
-32.98479843
 53
29.84139633
 43
-8.23465417
 44
30.92637626
 45
-20.51662718
 46
35.76410863
 79
     4
 49
4.1230998
 49
-16.49239922
 49
4.1230998
 49
-16.49239922
 53
29.84139633
 43
-12.32398318
 44
29.76884068
 45
-20.51662718
 46
35.76410863
 79
     4
 49
4.1230998
 49
-12.36929989
 49
8.24619961
 49
-16.49239922
 53
29.84139633
 43
-5.68405494
 44
34.76619086
 45
-20.51662718
 46
35.76410863
 79
     4
 49
4.1230998
 49
-20.6154995
 49
4.1230998
 49
-12.36929989
 53
29.84139633
 43
0.95582258
 44
39.76362848
 45
-20.51662718
 46
35.76410863
 79
     2
 49
12.36929989
 49
-28.86170006
 53
29.84139633
 43
-14.3756421
 44
33.34524492
 45
-20.51662718
 46
35.76410863
 79
     2
 49
8.24619961
 49
-32.98479843
 53
29.84139633
 43
2.99344278
 44
44.49765623
 45
-20.51662718
 46
35.76410863
 79
     2
 49
4.1230998
 49
-37.10800171
 53
29.84139633
 43
9.63337073
 44
49.49500404
 45
-20.51662718
 46
35.76410863
 79
     2
 49
4.1230998
 49
-37.10800171
 53
43.8775959
 43
23.49608557
 44
17.04388488
 45
-35.76408799
 46
-20.51657892
 79
     2
 49
4.24679995
 49
-165.75320435
 53
43.8775959
 43
22.45624397
 44
27.14246883
 45
-35.76408799
 46
-20.51657892
 79
     2
 49
4.24679995
 49
-165.75320435
 53
43.8775959
 43
6.56984537
 44
46.5493142
 45
-35.76408799
 46
-20.51657892
 79
     2
 49
4.24679995
 49
-165.75320435
 53
43.8775959
 43
3.53439296
 44
26.98276439
 45
-35.76408799
 46
-20.51657892
 79
     2
 49
4.24679995
 49
-165.75320435
 53
43.8775959
 43
7.60968651
 44
36.45072724
 45
-35.76408799
 46
-20.51657892
 79
     2
 49
4.24679995
 49
-165.75320435
 53
43.8775959
 43
12.72486959
 44
35.82001875
 45
-35.76408799
 46
-20.51657892
 79
     2
 49
4.24679995
 49
-165.75320435
 53
43.8775959
 43
-8.747581
 44
31.82049842
 45
-35.76408799
 46
-20.51657892
 79
     2
 49
4.24679995
 49
-165.75320435
 53
43.8775959
 43
6.5838822
 44
38.23888552
 45
-35.76408799
 46
-20.51657892
 79
     2
 49
4.24679995
 49
-165.75320435
 53
43.8775959
 43
21.43039031
 44
28.93071314
 45
-35.76408799
 46
-20.51657892
 79
     2
 49
8.49359989
 49
-161.50639343
 53
43.8775959
 43
16.31525871
 44
29.56133572
 45
-35.76408799
 46
-20.51657892
 79
     2
 49
8.49359989
 49
-161.50639343
 53
43.8775959
 43
15.28940409
 44
31.34958169
 45
-35.76408799
 46
-20.51657892
 79
     2
 49
8.49359989
 49
-161.50639343
 53
195.80520248
 43
11.22809707
 44
13.57127784
 45
-35.7640545
 46
-20.51663729
 79
     4
 49
4.24679995
 49
-8.49359989
 49
4.24679995
 49
-153.01280212
 53
195.80520248
 43
0.99783091
 44
14.83252241
 45
-35.7640545
 46
-20.51663729
 79
     2
 49
4.24679995
 49
-165.75320435
 53
195.80520248
 43
-8.23465417
 44
30.92637626
 45
-35.7640545
 46
-20.51663729
 79
     2
 49
8.49359989
 49
-161.50639343
 53
223.87759018
 43
24.52188959
 44
15.25572712
 45
35.76409003
 46
20.51657535
 79
     2
 49
4.24679995
 49
-165.75320435
 53
375.80511093
 43
31.67478245
 44
19.35909337
 45
35.76408728
 46
20.51658015
 79
     2
 49
4.24679995
 49
-165.75320435
 53
375.80511093
 43
13.7647093
 44
25.72143427
 45
35.76408728
 46
20.51658015
 79
     2
 49
4.24679995
 49
-165.75320435
 53
375.80511093
 43
17.32707484
 44
36.08351749
 45
35.76408728
 46
20.51658015
 79
     2
 49
4.24679995
 49
-165.75320435
 53
375.80511093
 43
1.48273499
 44
30.55916698
 45
35.76408728
 46
20.51658015
 79
     2
 49
4.24679995
 49
-165.75320435
 53
375.80511093
 43
-4.65825158
 44
32.97803423
 45
35.76408728
 46
20.51658015
 79
     2
 49
4.24679995
 49
-165.75320435
 53
375.80511093
 43
-2.10765318
 44
36.81784836
 45
35.76408728
 46
20.51658015
 79
     2
 49
4.24679995
 49
-165.75320435
 53
375.80511093
 43
1.48273499
 44
30.55916698
 45
35.76408728
 46
20.51658015
 79
     2
 49
4.24679995
 49
-165.75320435
 53
375.80511093
 43
9.13443113
 44
42.0787878
 45
35.76408728
 46
20.51658015
 79
     2
 49
16.98719978
 49
-153.01280212
 53
375.80511093
 43
1.52474444
 44
5.62805991
 45
35.76408728
 46
20.51658015
 79
     2
 49
16.98719978
 49
-153.01280212
 53
375.80511093
 43
3.56241548
 44
10.36199808
 45
35.76408728
 46
20.51658015
 79
     2
 49
16.98719978
 49
-153.01280212
 53
375.80511093
 43
6.11296417
 44
14.20190078
 45
35.76408728
 46
20.51658015
 79
     4
 49
4.24679995
 49
-8.49359989
 49
8.49359989
 49
-148.76600647
 53
375.80511093
 43
4.5742335
 44
16.88418039
 45
35.76408728
 46
20.51658015
 79
     4
 49
8.49359989
 49
-8.49359989
 49
8.49359989
 49
-144.51919556
 53
375.80511093
 43
-1.05382659
 44
18.40892418
 45
35.76408728
 46
20.51658015
 79
     2
 49
16.98719978
 49
-153.01280212
 53
375.80511093
 43
-6.16901021
 44
19.03963456
 45
35.76408728
 46
20.51658015
 79
     2
 49
16.98719978
 49
-153.01280212
 53
375.80511093
 43
-7.19481357
 44
20.82779119
 45
35.76408728
 46
20.51658015
 79
     2
 49
16.98719978
 49
-153.01280212
 53
375.80511093
 43
11.6850287
 44
45.91860145
 45
35.76408728
 46
20.51658015
 79
     2
 49
4.24679995
 49
-165.75320435
 53
375.80520248
 43
13.20986266
 44
51.54671327
 45
35.7640545
 46
20.51663729
 79
     2
 49
8.49359989
 49
-161.50639343
 53
375.80520248
 43
-7.22283733
 44
37.44856063
 45
35.7640545
 46
20.51663729
 79
     2
 49
8.49359989
 49
-161.50639343
 53
375.80511093
 43
7.15280435
 44
4.10331547
 45
35.76408728
 46
20.51658015
 79
     2
 49
16.98719978
 49
-153.01280212
 53
375.80511093
 43
14.24961256
 44
41.44807836
 45
35.76408728
 46
20.51658015
 79
     2
 49
12.74040031
 49
-157.25959778
 53
375.80511093
 43
19.36483563
 44
40.81750715
 45
35.76408728
 46
20.51658015
 79
     2
 49
25.48080063
 49
-144.51919556
 47
0.775229
 98
        1
 10
0.0
 20
0.0
  0
LINE
  5
559
100
AcDbEntity
  8
Sc.1_5
 62
     9
  6
CONTINUOUS
 48
0.25
370
    20
100
AcDbLine
 10
1669.6195604
 20
-1769.01611383
 30
548.63999023
 11
1679.4137649
 21
-1767.98017302
 31
548.63999023
  0
LINE
  5
55A
100
AcDbEntity
  8
Sc.1_5
 62
     9
  6
CONTINUOUS
 48
0.25
370
    20
100
AcDbLine
 10
1678.61953708
 20
-1784.60452913
 30
548.63999023
 11
1688.41374158
 21
-1783.56858833
 31
548.63999023
  0
LINE
  5
55B
100
AcDbEntity
  8
Sc.1_5
 62
     9
  6
CONTINUOUS
 48
0.25
370
    20
100
AcDbLine
 10
1743.99402222
 20
-1726.07605463
 30
548.63999023
 11
1753.78822672
 21
-1725.04011382
 31
548.63999023
  0
LINE
  5
55C
100
AcDbEntity
  8
Sc.1_5
 62
     9
  6
CONTINUOUS
 48
0.25
370
    20
100
AcDbLine
 10
1752.9939989
 20
-1741.66446994
 30
548.63999023
 11
1762.7882034
 21
-1740.62852913
 31
548.63999023
  0
TEXT
  5
55D
100
AcDbEntity
  8
Sc.1_5
 62
     7
370
    35
100
AcDbText
 10
1752.54575005
 20
-1796.24360801
 30
0.0
 40
2.5
  1
Woodspan PLT roof panel
  7
TAHOMA
 50
0.0
 41
0.8
 51
0.0
100
AcDbText
  0
TEXT
  5
55E
100
AcDbEntity
  8
Sc.1_5
 62
     7
370
    18
100
AcDbText
 10
1752.54575005
 20
-1800.49360801
 30
0.0
 40
2.5
  1
fixings per engineer's details
  7
TAHOMA
 50
0.0
 41
0.8
 51
0.0
100
AcDbText
  0
TEXT
  5
55F
100
AcDbEntity
  8
Sc.1_5
 62
     7
370
    18
100
AcDbText
 10
1752.54575005
 20
-1822.57586978
 30
0.0
 40
2.5
  1
Ceiling (if required)
  7
TAHOMA
 50
0.0
 41
0.8
 51
0.0
100
AcDbText
  0
TEXT
  5
560
100
AcDbEntity
  8
Sc.1_5
 62
     7
370
    18
100
AcDbText
 10
1666.85169065
 20
-1726.6136093
 30
0.0
 40
2.5
  1
Insulation, roofing underlay, roofing
  7
TAHOMA
 50
0.0
 41
0.8
 51
0.0
100
AcDbText
  0
TEXT
  5
561
100
AcDbEntity
  8
Sc.1_5
 62
     7
370
    18
100
AcDbText
 10
1752.54575005
 20
-1849.33018518
 30
0.0
 40
2.5
  1
Stud frame wall to NZS3604:2011
  7
TAHOMA
 50
0.0
 41
0.8
 51
0.0
100
AcDbText
  0
TEXT
  5
562
100
AcDbEntity
  8
Sc.1_5
 62
     7
370
    18
100
AcDbText
 10
1666.85169065
 20
-1730.8636093
 30
0.0
 40
2.5
  1
as per architect's details
  7
TAHOMA
 50
0.0
 41
0.8
 51
0.0
100
AcDbText
  0
TEXT
  5
563
100
AcDbEntity
  8
Sc.1_5
 62
     7
370
    18
100
AcDbText
 10
1691.55105594
 20
-1708.60801631
 30
0.0
 40
2.5
  1
Castellated spacer over purlin
  7
TAHOMA
 50
0.0
 41
0.8
 51
0.0
100
AcDbText
  0
TEXT
  5
564
100
AcDbEntity
  8
Sc.1_5
 62
     7
370
    18
100
AcDbText
 10
1696.6455288
 20
-1712.17016642
 30
0.0
 40
2.5
  1
Purlin on spaced packers
  7
TAHOMA
 50
0.0
 41
0.8
 51
0.0
100
AcDbText
  0
TEXT
  5
565
100
AcDbEntity
  8
Sc.1_5
 62
     7
370
    18
100
AcDbText
 10
1752.54575005
 20
-1826.07586978
 30
0.0
 40
2.5
  1
fixed over battens/strapping
  7
TAHOMA
 50
0.0
 41
0.8
 51
0.0
100
AcDbText
  0
TEXT
  5
566
100
AcDbEntity
  8
LEGEND
 62
     7
370
    -3
100
AcDbText
 10
1782.84527623
 20
-1927.55865138
 30
0.0
 40
1.60000002
  1
Date
  7
TAHOMA
 50
0.0
 41
1.0
 51
0.0
100
AcDbText
  0
TEXT
  5
567
100
AcDbEntity
  8
LEGEND
 62
     7
370
    -3
100
AcDbText
 10
1767.93702756
 20
-1936.18983213
 30
0.0
 40
1.60000002
  1
Detail
  7
TAHOMA
 50
0.0
 41
1.0
 51
0.0
100
AcDbText
  0
TEXT
  5
568
100
AcDbEntity
  8
LEGEND
 62
     7
370
    18
100
AcDbText
 10
1771.3646428
 20
-1931.99980399
 30
0.0
 40
2.79999995
  1
1.0
  7
TAHOMA
 50
0.0
 41
1.0
 51
0.0
100
AcDbText
  0
TEXT
  5
569
100
AcDbEntity
  8
LEGEND
 62
     7
370
    -3
100
AcDbText
 10
1767.93702756
 20
-1927.55865138
 30
0.0
 40
1.60000002
  1
Version
  7
TAHOMA
 50
0.0
 41
1.0
 51
0.0
100
AcDbText
  0
TEXT
  5
56A
100
AcDbEntity
  8
LEGEND
 62
     7
370
    -3
100
AcDbText
 10
1636.99623625
 20
-1927.55865138
 30
0.0
 40
1.60000002
  1
Phone:
  7
TAHOMA
 50
0.0
 41
1.0
 51
0.0
100
AcDbText
  0
TEXT
  5
56B
100
AcDbEntity
  8
LEGEND
 62
     7
370
    -3
100
AcDbText
 10
1636.99623625
 20
-1931.67943855
 30
0.0
 40
1.60000002
  1
Email:
  7
TAHOMA
 50
0.0
 41
1.0
 51
0.0
100
AcDbText
  0
TEXT
  5
56C
100
AcDbEntity
  8
LEGEND
 62
     7
370
    -3
100
AcDbText
 10
1636.99623625
 20
-1935.80022571
 30
0.0
 40
1.60000002
  1
Web:
  7
TAHOMA
 50
0.0
 41
1.0
 51
0.0
100
AcDbText
  0
TEXT
  5
56D
100
AcDbEntity
  8
LEGEND
 62
     7
370
    18
100
AcDbText
 10
1646.89821722
 20
-1928.35865138
 30
0.0
 40
2.4000001
  1
06 755 9000
  7
TAHOMA
 50
0.0
 41
1.0
 51
0.0
100
AcDbText
  0
TEXT
  5
56E
100
AcDbEntity
  8
LEGEND
 62
     7
370
    18
100
AcDbText
 10
1646.89821722
 20
-1932.47943855
 30
0.0
 40
2.4000001
  1
info@woodspan.co.nz
  7
TAHOMA
 50
0.0
 41
1.0
 51
0.0
100
AcDbText
  0
TEXT
  5
56F
100
AcDbEntity
  8
LEGEND
 62
     7
370
    18
100
AcDbText
 10
1646.89821722
 20
-1936.60022571
 30
0.0
 40
2.4000001
  1
www.woodspan.co.nz
  7
TAHOMA
 50
0.0
 41
1.0
 51
0.0
100
AcDbText
  0
TEXT
  5
570
100
AcDbEntity
  8
LEGEND
 62
     7
370
    18
100
AcDbText
 10
1636.94860197
 20
-1940.72101287
 30
0.0
 40
2.4000001
  1
Connett Road, Bell Block, New Plymouth
  7
TAHOMA
 50
0.0
 41
1.0
 51
0.0
100
AcDbText
  0
TEXT
  5
571
100
AcDbEntity
  8
LEGEND
 62
     7
370
    18
100
AcDbText
 10
1783.9309257
 20
-1931.79980399
 30
0.0
 40
2.4000001
  1
11.07.2019
  7
TAHOMA
 50
0.0
 41
1.0
 51
0.0
100
AcDbText
  0
TEXT
  5
572
100
AcDbEntity
  8
LEGEND
 62
     7
370
    18
100
AcDbText
 10
1775.96430393
 20
-1939.73315868
 30
0.0
 40
4.0
  1

  7
TAHOMA
 50
0.0
 41
0.95
 51
0.0
100
AcDbText
  0
TEXT
  5
573
100
AcDbEntity
  8
LEGEND
 62
     7
370
    18
100
AcDbText
 10
1776.73000716
 20
-1940.05624061
 30
0.0
 40
4.0
  1
PLT 4.1
  7
TAHOMA
 50
0.0
 41
0.95
 51
0.0
100
AcDbText
  0
TEXT
  5
574
100
AcDbEntity
  8
LEGEND
 62
     7
370
    18
100
AcDbText
 10
1695.94010079
 20
-1932.13297832
 30
0.0
 40
4.0
  1
Eave - seat cut
  7
TAHOMA
 50
0.0
 41
0.95
 51
0.0
100
AcDbText
  0
TEXT
  5
575
100
AcDbEntity
  8
LEGEND
 62
     7
370
    18
100
AcDbText
 10
1695.94010079
 20
-1938.8921527
 30
0.0
 40
4.0
  1
PLT roof - Eave
  7
TAHOMA
 50
0.0
 41
0.95
 51
0.0
100
AcDbText
  0
TEXT
  5
576
100
AcDbEntity
  8
LEGEND
 62
     7
370
    18
100
AcDbText
 10
1688.57146122
 20
-1922.5982645
 30
0.0
 40
2.4000001
  1
Indicative details only
  7
TAHOMA
 50
0.0
 41
1.0
 51
0.0
100
AcDbText
  0
ENDSEC
  0
SECTION
  2
OBJECTS
  0
DICTIONARY
  5
1
100
AcDbDictionary
  3
ACAD_GROUP
350
2
  3
ACAD_MLINESTYLE
350
3
  0
DICTIONARY
  5
2
102
{CDWK_REACTORS
330
1
102
}
100
AcDbDictionary
  0
DICTIONARY
  5
3
102
{CDWK_REACTORS
330
1
102
}
100
AcDbDictionary
  3
STANDARD
350
4
  0
MLINESTYLE
  5
4
102
{CDWK_REACTORS
330
3
102
}
100
AcDbMlineStyle
  2
STANDARD
 70
     0
  3

 62
     0
 51
90.0
 52
90.0
 71
     2
 49
0.5
 62
   256
  6
BYLAYER
 49
-0.5
 62
   256
  6
BYLAYER
  0
ENDSEC
  0
EOF
