  0
SECTION
  2
HEADER
  9
$ACADVER
  1
AC1014
  9
$DWGCODEPAGE
  3
ANSI_1252
  9
$INSBASE
 10
0.0
 20
0.0
 30
0.0
  9
$EXTMIN
 10
1841.31837012
 20
-1942.22101287
  9
$EXTMAX
 10
2038.63517151
 20
-1671.22101287
  9
$LIMMIN
 10
1841.31837012
 20
-1942.22101287
  9
$LIMMAX
 10
2038.63517151
 20
-1671.22101287
  9
$ORTHOMODE
 70
     0
  9
$REGENMODE
 70
     1
  9
$FILLMODE
 70
     1
  9
$QTEXTMODE
 70
     0
  9
$MIRRTEXT
 70
     1
  9
$DRAGMODE
 70
     2
  9
$LTSCALE
 40
1.0
  9
$OSMODE
 70
     0
  9
$ATTMODE
 70
     1
  9
$TEXTSIZE
 40
3.5
  9
$TRACEWID
 40
1.0
  9
$TEXTSTYLE
  7
STANDARD
  9
$CLAYER
  8
0
  9
$CELTYPE
  6
BYLAYER
  9
$CECOLOR
 62
   256
  9
$DIMSCALE
 40
1.0
  9
$DIMASZ
 40
2.0
  9
$DIMEXO
 40
5.0
  9
$DIMDLI
 40
10.0
  9
$DIMRND
 40
0.0
  9
$DIMDLE
 40
2.0
  9
$DIMEXE
 40
2.0
  9
$DIMTP
 40
0.0
  9
$DIMTM
 40
0.0
  9
$DIMTXT
 40
2.1
  9
$DIMCEN
 40
1.5
  9
$DIMTSZ
 40
0.0
  9
$DIMTOL
 70
     0
  9
$DIMLIM
 70
     0
  9
$DIMTIH
 70
     1
  9
$DIMTOH
 70
     0
  9
$DIMSE1
 70
     0
  9
$DIMSE2
 70
     0
  9
$DIMTAD
 70
     1
  9
$DIMZIN
 70
     8
  9
$DIMBLK
  1

  9
$DIMASO
 70
     1
  9
$DIMSHO
 70
     1
  9
$DIMPOST
  1

  9
$DIMAPOST
  1

  9
$DIMALT
 70
     0
  9
$DIMALTD
 70
     2
  9
$DIMALTF
 40
25.4
  9
$DIMLFAC
 40
1.0
  9
$DIMTOFL
 70
     0
  9
$DIMTVP
 40
0.0
  9
$DIMTIX
 70
     0
  9
$DIMSOXD
 70
     0
  9
$DIMSAH
 70
     0
  9
$DIMBLK1
  1

  9
$DIMBLK2
  1

  9
$DIMSTYLE
  2
*UNNAMED
  9
$DIMCLRD
 70
     5
  9
$DIMCLRE
 70
     5
  9
$DIMCLRT
 70
     5
  9
$DIMTFAC
 40
1.0
  9
$DIMGAP
 40
0.09
  9
$DIMUNIT
 70
     2
  9
$LUNITS
 70
     2
  9
$LUPREC
 70
     6
  9
$AXISMODE
 70
     0
  9
$AXISUNIT
 10
0.0
 20
0.0
  9
$SKETCHINC
 40
0.1
  9
$FILLETRAD
 40
0.0
  9
$AUNITS
 70
     0
  9
$AUPREC
 70
     0
  9
$MENU
  1
ACAD
  9
$ELEVATION
 40
0.0
  9
$PELEVATION
 40
0.0
  9
$THICKNESS
 40
0.0
  9
$LIMCHECK
 70
     0
  9
$BLIPMODE
 70
     1
  9
$CHAMFERA
 40
0.0
  9
$CHAMFERB
 40
0.0
  9
$SKPOLY
 70
     1
  9
$TDCREATE
 40
2458675.0000000000
  9
$TDUPDATE
 40
2458675.0000000000
  9
$TDINDWG
 40
0.0
  9
$TDUSRTIMER
 40
0.0
  9
$USRTIMER
 70
     1
  9
$ANGBASE
 50
0.0
  9
$ANGDIR
 70
     0
  9
$PDMODE
 70
     0
  9
$PDSIZE
 40
0.0
  9
$PLINEWID
 40
0.0
  9
$COORDS
 70
     2
  9
$SPLFRAME
 70
     0
  9
$SPLINETYPE
 70
     6
  9
$SPLINESEGS
 70
     8
  9
$ATTDIA
 70
     1
  9
$ATTREQ
 70
     1
  9
$HANDLING
 70
     1
  9
$HANDSEED
  5
     60A
  9
$SURFTAB1
 70
     6
  9
$SURFTAB2
 70
     6
  9
$SURFTYPE
 70
     6
  9
$SURFU
 70
     6
  9
$SURFV
 70
     6
  9
$UCSNAME
  2

  9
$UCSORG
 10
0.0
 20
0.0
 30
0.0
  9
$UCSXDIR
 10
1.0
 20
0.0
 30
0.0
  9
$UCSYDIR
 10
0.0
 20
1.0
 30
0.0
  9
$PUCSNAME
  2

  9
$PUCSORG
 10
0.0
 20
0.0
 30
0.0
  9
$PUCSXDIR
 10
1.0
 20
0.0
 30
0.0
  9
$PUCSYDIR
 10
0.0
 20
1.0
 30
0.0
  9
$USERI1
 70
     0
  9
$USERI2
 70
     0
  9
$USERI3
 70
     0
  9
$USERI4
 70
     0
  9
$USERI5
 70
     0
  9
$USERR1
 40
0.0
  9
$USERR2
 40
0.0
  9
$USERR3
 40
0.0
  9
$USERR4
 40
0.0
  9
$USERR5
 40
0.0
  9
$WORLDVIEW
 70
     1
  9
$SHADEDGE
 70
     3
  9
$SHADEDIF
 70
    70
  9
$TILEMODE
 70
     1
  9
$MAXACTVP
 70
    16
  9
$PINSBASE
 10
0.0
 20
0.0
 30
0.0
  9
$PLIMCHECK
 70
     0
  9
$PEXTMIN
 10
1.0000000000000E+20
 20
1.0000000000000E+20
 30
1.0000000000000E+20
  9
$PEXTMAX
 10
-1.0000000000000E+20
 20
-1.0000000000000E+20
 30
-1.0000000000000E+20
  9
$PLIMMIN
 10
0.0
 20
0.0
  9
$UNITMODE
 70
     0
  9
$VISRETAIN
 70
     0
  9
$MEASUREMENT
 70
     1
  0
ENDSEC
  0
SECTION
  2
TABLES
  0
TABLE
  2
VPORT
  5
1B2
100
AcDbSymbolTable
 70
     1
  0
ENDTAB
  0
TABLE
  2
STYLE
  5
1B3
100
AcDbSymbolTable
 70
     3
  0
STYLE
  5
1B4
100
AcDbSymbolTableRecord
100
AcDbTextStyleTableRecord
  2
STANDARD
 70
     0
 40
0.0
 41
1.0
 50
0.0
 71
     0
 42
3.5
  3
MONOTXT
  4

  0
STYLE
  5
1B5
100
AcDbSymbolTableRecord
100
AcDbTextStyleTableRecord
  2
SYMAP
 70
     0
 40
0.0
 41
1.0
 50
0.0
 71
     0
 42
3.5
  3
SYMAP
  4

  0
STYLE
  5
1B6
100
AcDbSymbolTableRecord
100
AcDbTextStyleTableRecord
  2
CADWORK1
 70
     0
 40
0.0
 41
1.0
 50
0.0
 71
     0
 42
3.5
  3
MONOTXT
  4

  0
STYLE
  5
1B7
100
AcDbSymbolTableRecord
100
AcDbTextStyleTableRecord
  2
MONOTXT
 70
     0
 40
0.0
 41
1.0
 50
0.0
 71
     0
 42
3.5
  3
MONOTXT
  4

  0
STYLE
  5
1B8
100
AcDbSymbolTableRecord
100
AcDbTextStyleTableRecord
  2
TAHOMA
 70
     0
 40
0.0
 41
1.0
 50
0.0
 71
     0
 42
3.5
  3

  4

1001
ACAD
1000
Tahoma
1071
        0
  0
ENDTAB
  0
TABLE
  2
LTYPE
  5
1B9
100
AcDbSymbolTable
 70
    15
  0
LTYPE
  5
1BA
100
AcDbSymbolTableRecord
100
AcDbLinetypeTableRecord
  2
BYBLOCK
 70
    64
  3

 72
    65
 73
     0
 40
0.0
  0
LTYPE
  5
1BB
100
AcDbSymbolTableRecord
100
AcDbLinetypeTableRecord
  2
BYLAYER
 70
    64
  3

 72
    65
 73
     0
 40
0.0
  0
LTYPE
  5
1BC
100
AcDbSymbolTableRecord
100
AcDbLinetypeTableRecord
  2
CONTINUOUS
 70
    64
  3
Solid line
 72
    65
 73
     0
 40
0.0
  0
LTYPE
  5
1BD
100
AcDbSymbolTableRecord
100
AcDbLinetypeTableRecord
  2
DOT2
 70
    64
  3
...............................................
 72
    65
 73
     2
 40
1.25
 49
0.0
 74
     0
 49
-1.25
 74
     0
  0
LTYPE
  5
1BE
100
AcDbSymbolTableRecord
100
AcDbLinetypeTableRecord
  2
CADWORK_13
 70
    64
  3
13 =======================================
 72
    65
 73
     2
 40
4.0
 49
2.0
 74
     0
 49
-2.0
 74
     0
  0
LTYPE
  5
1BF
100
AcDbSymbolTableRecord
100
AcDbLinetypeTableRecord
  2
DASHED
 70
    64
  3
__ __ __ __ __ __ __ __ __ __ __ __ __ __ __ __
 72
    65
 73
     2
 40
7.5
 49
5.0
 74
     0
 49
-2.5
 74
     0
  0
LTYPE
  5
1C0
100
AcDbSymbolTableRecord
100
AcDbLinetypeTableRecord
  2
DASHDOT
 70
    64
  3
 __ . __ . __ . __ . __ . __ . __ . __ . __ . __
 72
    65
 73
     4
 40
10.0
 49
5.0
 74
     0
 49
-2.5
 74
     0
 49
0.0
 74
     0
 49
-2.5
 74
     0
  0
LTYPE
  5
1C1
100
AcDbSymbolTableRecord
100
AcDbLinetypeTableRecord
  2
CADWORK_16
 70
    64
  3
--´\,----´\,----´\,----´\,----´\,----´\,----´\,--
 72
    65
 73
     5
 40
17.0
 49
2.0
 74
     0
 49
0.0
 74
     2
 75
     0
340
1B4
 46
6.0
 50
170.0
 44
3.01999998
 45
5.57999992
  9
|
 49
-2.0999999
 74
     2
 75
     0
340
1B4
 46
12.0
 50
10.0
 44
-2.9000001
 45
-6.5999999
  9
|
 49
-2.0999999
 74
     2
 75
     0
340
1B4
 46
6.0
 50
170.0
 44
1.96000004
 45
-0.36000001
  9
|
 49
10.80000019
 74
     0
  0
LTYPE
  5
1C2
100
AcDbSymbolTableRecord
100
AcDbLinetypeTableRecord
  2
CADWORK_15
 70
    64
  3
15 =======================================
 72
    65
 73
     0
 40
0.0
  0
LTYPE
  5
1C3
100
AcDbSymbolTableRecord
100
AcDbLinetypeTableRecord
  2
DAL
 70
    64
  3
Solid line (for MAPS)
 72
    65
 73
     0
 40
0.0
  0
LTYPE
  5
1C4
100
AcDbSymbolTableRecord
100
AcDbLinetypeTableRecord
  2
MUR
 70
    64
  3
Solid line (for MAPS)
 72
    65
 73
     0
 40
0.0
  0
LTYPE
  5
1C5
100
AcDbSymbolTableRecord
100
AcDbLinetypeTableRecord
  2
SOM
 70
    64
  3
Solid line (for MAPS)
 72
    65
 73
     0
 40
0.0
  0
LTYPE
  5
1C6
100
AcDbSymbolTableRecord
100
AcDbLinetypeTableRecord
  2
COL
 70
    64
  3
Solid line (for MAPS)
 72
    65
 73
     0
 40
0.0
  0
LTYPE
  5
1C7
100
AcDbSymbolTableRecord
100
AcDbLinetypeTableRecord
  2
LGN
 70
    64
  3
Solid line (for MAPS)
 72
    65
 73
     0
 40
0.0
  0
LTYPE
  5
1C8
100
AcDbSymbolTableRecord
100
AcDbLinetypeTableRecord
  2
PNT
 70
    64
  3
Solid line (for MAPS)
 72
    65
 73
     0
 40
0.0
  0
ENDTAB
  0
TABLE
  2
LAYER
  5
1C9
100
AcDbSymbolTable
 70
    16
  0
LAYER
  5
1CA
100
AcDbSymbolTableRecord
100
AcDbLayerTableRecord
  2
0
 70
     0
 62
     1
  6
CONTINUOUS
370
    -3
  0
LAYER
  5
1CB
100
AcDbSymbolTableRecord
100
AcDbLayerTableRecord
  2
Standard
 70
     0
 62
     7
  6
CONTINUOUS
370
    -3
  0
LAYER
  5
1CC
100
AcDbSymbolTableRecord
100
AcDbLayerTableRecord
  2
Sc.1_1
 70
     0
 62
     7
  6
CONTINUOUS
370
    -3
  0
LAYER
  5
1CD
100
AcDbSymbolTableRecord
100
AcDbLayerTableRecord
  2
Sc.1_2
 70
     0
 62
     7
  6
CONTINUOUS
370
    -3
  0
LAYER
  5
1CE
100
AcDbSymbolTableRecord
100
AcDbLayerTableRecord
  2
Sc.1_5
 70
     0
 62
     7
  6
CONTINUOUS
370
    -3
  0
LAYER
  5
1CF
100
AcDbSymbolTableRecord
100
AcDbLayerTableRecord
  2
Sc.1_10
 70
     0
 62
     7
  6
CONTINUOUS
370
    -3
  0
LAYER
  5
1D0
100
AcDbSymbolTableRecord
100
AcDbLayerTableRecord
  2
Sc.1_20
 70
     0
 62
     7
  6
CONTINUOUS
370
    -3
  0
LAYER
  5
1D1
100
AcDbSymbolTableRecord
100
AcDbLayerTableRecord
  2
Sc.1_25
 70
     0
 62
     7
  6
CONTINUOUS
370
    -3
  0
LAYER
  5
1D2
100
AcDbSymbolTableRecord
100
AcDbLayerTableRecord
  2
Sc.1_33
 70
     0
 62
     7
  6
CONTINUOUS
370
    -3
  0
LAYER
  5
1D3
100
AcDbSymbolTableRecord
100
AcDbLayerTableRecord
  2
Sc.1_50
 70
     0
 62
     7
  6
CONTINUOUS
370
    -3
  0
LAYER
  5
1D4
100
AcDbSymbolTableRecord
100
AcDbLayerTableRecord
  2
Sc.1_75
 70
     0
 62
     7
  6
CONTINUOUS
370
    -3
  0
LAYER
  5
1D5
100
AcDbSymbolTableRecord
100
AcDbLayerTableRecord
  2
Sc.1_100
 70
     0
 62
     7
  6
CONTINUOUS
370
    -3
  0
LAYER
  5
1D6
100
AcDbSymbolTableRecord
100
AcDbLayerTableRecord
  2
Sc.1_200
 70
     0
 62
     7
  6
CONTINUOUS
370
    -3
  0
LAYER
  5
1D7
100
AcDbSymbolTableRecord
100
AcDbLayerTableRecord
  2
Sc.1_500
 70
     0
 62
     7
  6
CONTINUOUS
370
    -3
  0
LAYER
  5
1D8
100
AcDbSymbolTableRecord
100
AcDbLayerTableRecord
  2
Sc.1_1000
 70
     0
 62
     7
  6
CONTINUOUS
370
    -3
  0
LAYER
  5
1D9
100
AcDbSymbolTableRecord
100
AcDbLayerTableRecord
  2
Laser frames
 70
     0
 62
     7
  6
CONTINUOUS
370
    18
  0
LAYER
  5
1DA
100
AcDbSymbolTableRecord
100
AcDbLayerTableRecord
  2
LEGEND
 70
     0
 62
     7
  6
CONTINUOUS
370
    -3
  0
ENDTAB
  0
TABLE
  2
VIEW
  5
1DB
100
AcDbSymbolTable
 70
     0
  0
ENDTAB
  0
TABLE
  2
UCS
  5
1DC
100
AcDbSymbolTable
 70
     0
  0
ENDTAB
  0
TABLE
  2
APPID
  5
1DD
100
AcDbSymbolTable
 70
     1
  0
APPID
  5
1DE
100
AcDbSymbolTableRecord
100
AcDbRegAppTableRecord
  2
ACAD
 70
     0
  0
ENDTAB
  0
TABLE
  2
DIMSTYLE
  5
1DF
100
AcDbSymbolTable
 70
     0
  0
ENDTAB
  0
TABLE
  2
BLOCK_RECORD
  5
1E0
100
AcDbSymbolTable
 70
     0
  0
BLOCK_RECORD
  5
1E1
100
AcDbSymbolTableRecord
100
AcDbBlockTableRecord
  2
*MODEL_SPACE
  0
BLOCK_RECORD
  5
1E2
100
AcDbSymbolTableRecord
100
AcDbBlockTableRecord
  2
*PAPER_SPACE
  0
BLOCK_RECORD
  5
1E3
100
AcDbSymbolTableRecord
100
AcDbBlockTableRecord
  2
CDWK_EXTR_0
  0
BLOCK_RECORD
  5
1E4
100
AcDbSymbolTableRecord
100
AcDbBlockTableRecord
  2
CDWK_EXTR_1D
  0
BLOCK_RECORD
  5
1E5
100
AcDbSymbolTableRecord
100
AcDbBlockTableRecord
  2
CDWK_EXTR_1G
  0
BLOCK_RECORD
  5
1E6
100
AcDbSymbolTableRecord
100
AcDbBlockTableRecord
  2
CDWK_EXTR_2
  0
BLOCK_RECORD
  5
1E7
100
AcDbSymbolTableRecord
100
AcDbBlockTableRecord
  2
CDWK_EXTR_3
  0
BLOCK_RECORD
  5
1E8
100
AcDbSymbolTableRecord
100
AcDbBlockTableRecord
  2
CDWK_EXTR_4
  0
BLOCK_RECORD
  5
1E9
100
AcDbSymbolTableRecord
100
AcDbBlockTableRecord
  2
CDWK_PTTYP0
  0
BLOCK_RECORD
  5
1EA
100
AcDbSymbolTableRecord
100
AcDbBlockTableRecord
  2
*X1222
  0
BLOCK_RECORD
  5
1EB
100
AcDbSymbolTableRecord
100
AcDbBlockTableRecord
  2
*X1223
  0
BLOCK_RECORD
  5
1EC
100
AcDbSymbolTableRecord
100
AcDbBlockTableRecord
  2
*X1224
  0
BLOCK_RECORD
  5
1ED
100
AcDbSymbolTableRecord
100
AcDbBlockTableRecord
  2
*X1225
  0
BLOCK_RECORD
  5
1EE
100
AcDbSymbolTableRecord
100
AcDbBlockTableRecord
  2
*X1227
  0
BLOCK_RECORD
  5
1EF
100
AcDbSymbolTableRecord
100
AcDbBlockTableRecord
  2
*X2009
  0
BLOCK_RECORD
  5
1F0
100
AcDbSymbolTableRecord
100
AcDbBlockTableRecord
  2
*X2236
  0
BLOCK_RECORD
  5
1F1
100
AcDbSymbolTableRecord
100
AcDbBlockTableRecord
  2
*X2237
  0
BLOCK_RECORD
  5
1F2
100
AcDbSymbolTableRecord
100
AcDbBlockTableRecord
  2
*X2241
  0
BLOCK_RECORD
  5
1F3
100
AcDbSymbolTableRecord
100
AcDbBlockTableRecord
  2
*X2297
  0
BLOCK_RECORD
  5
1F4
100
AcDbSymbolTableRecord
100
AcDbBlockTableRecord
  2
*X2298
  0
BLOCK_RECORD
  5
1F5
100
AcDbSymbolTableRecord
100
AcDbBlockTableRecord
  2
*X2299
  0
BLOCK_RECORD
  5
1F6
100
AcDbSymbolTableRecord
100
AcDbBlockTableRecord
  2
*X2524
  0
BLOCK_RECORD
  5
1F7
100
AcDbSymbolTableRecord
100
AcDbBlockTableRecord
  2
*X2864
  0
ENDTAB
  0
ENDSEC
  0
SECTION
  2
BLOCKS
  0
BLOCK
  5
1F8
100
AcDbEntity
  8
0
100
AcDbBlockBegin
  2
*MODEL_SPACE
 70
     0
 10
0.0
 20
0.0
 30
0.0
  3
*MODEL_SPACE
  1

  0
ENDBLK
  5
1F9
100
AcDbEntity
100
AcDbBlockEnd
  0
BLOCK
  5
1FA
100
AcDbEntity
  8
0
100
AcDbBlockBegin
  2
*PAPER_SPACE
 70
     0
 10
0.0
 20
0.0
 30
0.0
  3
*PAPER_SPACE
  1

  0
ENDBLK
  5
1FB
100
AcDbEntity
100
AcDbBlockEnd
  0
BLOCK
  5
1FC
100
AcDbEntity
  8
0
100
AcDbBlockBegin
  2
CDWK_EXTR_0
 70
     0
 10
0.0
 20
0.0
 30
0.0
  3
CDWK_EXTR_0
  1

  4
Cadwork line-extremity
  0
LINE
  5
1FD
100
AcDbEntity
  8
0
 62
     0
370
    -2
100
AcDbLine
 10
0.0
 20
0.0
 30
0.0
 11
2.0
 21
0.5
 31
0.0
  0
LINE
  5
1FE
100
AcDbEntity
  8
0
 62
     0
370
    -2
100
AcDbLine
 10
0.0
 20
0.0
 30
0.0
 11
2.0
 21
-0.5
 31
0.0
  0
LINE
  5
1FF
100
AcDbEntity
  8
0
 62
     0
370
    -2
100
AcDbLine
 10
2.0
 20
0.5
 30
0.0
 11
2.0
 21
-0.5
 31
0.0
  0
ENDBLK
  5
200
100
AcDbEntity
100
AcDbBlockEnd
  0
BLOCK
  5
201
100
AcDbEntity
  8
0
100
AcDbBlockBegin
  2
CDWK_EXTR_1D
 70
     0
 10
0.0
 20
0.0
 30
0.0
  3
CDWK_EXTR_1D
  1

  4
Cadwork line-extremity
  0
LINE
  5
202
100
AcDbEntity
  8
0
 62
     0
370
    -2
100
AcDbLine
 10
0.0
 20
0.0
 30
0.0
 11
0.0
 21
1.0
 31
0.0
  0
LINE
  5
203
100
AcDbEntity
  8
0
 62
     0
370
    -2
100
AcDbLine
 10
0.0
 20
1.0
 30
0.0
 11
0.5
 21
1.5
 31
0.0
  0
LINE
  5
204
100
AcDbEntity
  8
0
 62
     0
370
    -2
100
AcDbLine
 10
0.5
 20
1.5
 30
0.0
 11
1.5
 21
1.5
 31
0.0
  0
ENDBLK
  5
205
100
AcDbEntity
100
AcDbBlockEnd
  0
BLOCK
  5
206
100
AcDbEntity
  8
0
100
AcDbBlockBegin
  2
CDWK_EXTR_1G
 70
     0
 10
0.0
 20
0.0
 30
0.0
  3
CDWK_EXTR_1G
  1

  4
Cadwork line-extremity
  0
LINE
  5
207
100
AcDbEntity
  8
0
 62
     0
370
    -2
100
AcDbLine
 10
0.0
 20
0.0
 30
0.0
 11
0.0
 21
-1.0
 31
0.0
  0
LINE
  5
208
100
AcDbEntity
  8
0
 62
     0
370
    -2
100
AcDbLine
 10
0.0
 20
-1.0
 30
0.0
 11
0.5
 21
-1.5
 31
0.0
  0
LINE
  5
209
100
AcDbEntity
  8
0
 62
     0
370
    -2
100
AcDbLine
 10
0.5
 20
-1.5
 30
0.0
 11
1.5
 21
-1.5
 31
0.0
  0
ENDBLK
  5
20A
100
AcDbEntity
100
AcDbBlockEnd
  0
BLOCK
  5
20B
100
AcDbEntity
  8
0
100
AcDbBlockBegin
  2
CDWK_EXTR_2
 70
     0
 10
0.0
 20
0.0
 30
0.0
  3
CDWK_EXTR_2
  1

  4
Cadwork line-extremity
  0
SOLID
  5
20C
100
AcDbEntity
  8
0
 62
     0
100
AcDbTrace
 10
0.0
 20
0.0
 11
2.0
 21
0.5
 12
2.0
 22
-0.5
 13
2.0
 23
-0.5
  0
ENDBLK
  5
20D
100
AcDbEntity
100
AcDbBlockEnd
  0
BLOCK
  5
20E
100
AcDbEntity
  8
0
100
AcDbBlockBegin
  2
CDWK_EXTR_3
 70
     0
 10
0.0
 20
0.0
 30
0.0
  3
CDWK_EXTR_3
  1

  4
Cadwork line-extremity
  0
SOLID
  5
20F
100
AcDbEntity
  8
0
 62
     0
100
AcDbTrace
 10
0.0
 20
0.0
 11
2.0
 21
0.5
 12
2.0
 22
-0.5
 13
2.0
 23
-0.5
  0
LINE
  5
210
100
AcDbEntity
  8
0
 62
     0
370
    -2
100
AcDbLine
 10
0.0
 20
1.0
 30
0.0
 11
0.0
 21
-1.0
 31
0.0
  0
ENDBLK
  5
211
100
AcDbEntity
100
AcDbBlockEnd
  0
BLOCK
  5
212
100
AcDbEntity
  8
0
100
AcDbBlockBegin
  2
CDWK_EXTR_4
 70
     0
 10
0.0
 20
0.0
 30
0.0
  3
CDWK_EXTR_4
  1

  4
Cadwork line-extremity
  0
HATCH
  5
213
100
AcDbEntity
  8
0
 62
     0
370
    -2
100
AcDbHatch
 10
0.0
 20
0.0
 30
0.0
210
0.0
220
0.0
230
1.0
  2
SOLID
 70
     1
 71
     0
 91
        1
 92
        1
 93
        1
 72
     2
 10
0.0
 20
0.0
 40
0.5
 50
0.0
 51
360.0
 73
     1
 97
        0
 75
     0
 76
     1
 98
        1
 10
0.0
 20
0.0
  0
ENDBLK
  5
214
100
AcDbEntity
100
AcDbBlockEnd
  0
BLOCK
  5
215
100
AcDbEntity
  8
0
100
AcDbBlockBegin
  2
CDWK_PTTYP0
 70
     0
 10
0.0
 20
0.0
 30
0.0
  3
CDWK_PTTYP0
  1

  4
Cadwork point
  0
POINT
  5
216
100
AcDbEntity
  8
0
 62
     0
100
AcDbPoint
 10
0.0
 20
0.0
 30
0.0
  0
ENDBLK
  5
217
100
AcDbEntity
100
AcDbBlockEnd
  0
BLOCK
  5
218
100
AcDbEntity
  8
Sc.1_5
100
AcDbBlockBegin
  2
*X1222
 70
     1
 10
0.0
 20
0.0
 30
0.0
  3
*X1222
  1

  4
Cadwork hatch
  0
LINE
  5
219
100
AcDbEntity
  8
Sc.1_5
 62
     9
  6
CONTINUOUS
370
    -2
100
AcDbLine
 10
2008.16542005
 20
-1741.66447231
 30
0.0
 11
2015.95965752
 21
-1737.16442799
 31
0.0
  0
LINE
  5
21A
100
AcDbEntity
  8
Sc.1_5
 62
     9
  6
CONTINUOUS
370
    -2
100
AcDbLine
 10
2017.95961868
 20
-1740.62853353
 30
0.0
 11
2017.95961868
 21
-1740.62853353
 31
0.0
  0
ENDBLK
  5
21B
100
AcDbEntity
100
AcDbBlockEnd
  0
BLOCK
  5
21C
100
AcDbEntity
  8
Sc.1_5
100
AcDbBlockBegin
  2
*X1223
 70
     1
 10
0.0
 20
0.0
 30
0.0
  3
*X1223
  1

  4
Cadwork hatch
  0
LINE
  5
21D
100
AcDbEntity
  8
Sc.1_5
 62
     9
  6
CONTINUOUS
370
    -2
100
AcDbLine
 10
1997.16550195
 20
-1722.61189184
 30
0.0
 11
2004.95973942
 21
-1718.11197922
 31
0.0
  0
LINE
  5
21E
100
AcDbEntity
  8
Sc.1_5
 62
     9
  6
CONTINUOUS
370
    -2
100
AcDbLine
 10
2006.95970058
 20
-1721.57595305
 30
0.0
 11
1999.16546311
 21
-1726.07599738
 31
0.0
  0
ENDBLK
  5
21F
100
AcDbEntity
100
AcDbBlockEnd
  0
BLOCK
  5
220
100
AcDbEntity
  8
Sc.1_5
100
AcDbBlockBegin
  2
*X1224
 70
     1
 10
0.0
 20
0.0
 30
0.0
  3
*X1224
  1

  4
Cadwork hatch
  0
LINE
  5
221
100
AcDbEntity
  8
Sc.1_5
 62
     9
  6
CONTINUOUS
370
    -2
100
AcDbLine
 10
1933.79094236
 20
-1784.60462894
 30
0.0
 11
1941.58517983
 21
-1780.10458462
 31
0.0
  0
LINE
  5
222
100
AcDbEntity
  8
Sc.1_5
 62
     9
  6
CONTINUOUS
370
    -2
100
AcDbLine
 10
1943.58514099
 20
-1783.56869016
 30
0.0
 11
1943.58514099
 21
-1783.56869016
 31
0.0
  0
ENDBLK
  5
223
100
AcDbEntity
100
AcDbBlockEnd
  0
BLOCK
  5
224
100
AcDbEntity
  8
Sc.1_5
100
AcDbBlockBegin
  2
*X1225
 70
     1
 10
0.0
 20
0.0
 30
0.0
  3
*X1225
  1

  4
Cadwork hatch
  0
LINE
  5
225
100
AcDbEntity
  8
Sc.1_5
 62
     9
  6
CONTINUOUS
370
    -2
100
AcDbLine
 10
1932.58522289
 20
-1764.51610968
 30
0.0
 11
1924.79098542
 21
-1769.01615401
 31
0.0
  0
LINE
  5
226
100
AcDbEntity
  8
Sc.1_5
 62
     9
  6
CONTINUOUS
370
    -2
100
AcDbLine
 10
1930.58513002
 20
-1761.05200414
 30
0.0
 11
1932.58522289
 21
-1764.51610968
 31
0.0
  0
ENDBLK
  5
227
100
AcDbEntity
100
AcDbBlockEnd
  0
BLOCK
  5
228
100
AcDbEntity
  8
Sc.1_5
100
AcDbBlockBegin
  2
*X1227
 70
     1
 10
0.0
 20
0.0
 30
0.0
  3
*X1227
  1

  4
Cadwork hatch
  0
LINE
  5
229
100
AcDbEntity
  8
Sc.1_5
 62
     9
  6
CONTINUOUS
370
    -2
100
AcDbLine
 10
1887.652086
 20
-1790.45844045
 30
0.0
 11
1879.85784853
 21
-1794.95835306
 31
0.0
  0
LINE
  5
22A
100
AcDbEntity
  8
Sc.1_5
 62
     9
  6
CONTINUOUS
370
    -2
100
AcDbLine
 10
1885.65199312
 20
-1786.99433491
 30
0.0
 11
1887.652086
 21
-1790.45844045
 31
0.0
  0
ENDBLK
  5
22B
100
AcDbEntity
100
AcDbBlockEnd
  0
BLOCK
  5
22C
100
AcDbEntity
  8
Sc.1_5
100
AcDbBlockBegin
  2
*X2009
 70
     1
 10
0.0
 20
0.0
 30
0.0
  3
*X2009
  1

  4
Cadwork hatch
  0
LINE
  5
22D
100
AcDbEntity
  8
Sc.1_5
 62
     9
  6
CONTINUOUS
370
    -2
100
AcDbLine
 10
1928.67657909
 20
-1801.25986399
 30
0.0
 11
1932.67663313
 21
-1809.25984035
 31
0.0
  0
LINE
  5
22E
100
AcDbEntity
  8
Sc.1_5
 62
     9
  6
CONTINUOUS
370
    -2
100
AcDbLine
 10
1932.67663313
 20
-1801.25986399
 30
0.0
 11
1928.67657909
 21
-1809.25984035
 31
0.0
  0
ENDBLK
  5
22F
100
AcDbEntity
100
AcDbBlockEnd
  0
BLOCK
  5
230
100
AcDbEntity
  8
Sc.1_5
100
AcDbBlockBegin
  2
*X2236
 70
     1
 10
0.0
 20
0.0
 30
0.0
  3
*X2236
  1

  4
Cadwork hatch
  0
LINE
  5
231
100
AcDbEntity
  8
Sc.1_5
 62
     9
  6
CONTINUOUS
370
    -2
100
AcDbLine
 10
1935.5410401
 20
-1800.25975169
 30
0.0
 11
1963.54102321
 21
-1809.25984035
 31
0.0
  0
LINE
  5
232
100
AcDbEntity
  8
Sc.1_5
 62
     9
  6
CONTINUOUS
370
    -2
100
AcDbLine
 10
1935.5410401
 20
-1809.25984035
 30
0.0
 11
1963.54102321
 21
-1800.25975169
 31
0.0
  0
ENDBLK
  5
233
100
AcDbEntity
100
AcDbBlockEnd
  0
BLOCK
  5
234
100
AcDbEntity
  8
Sc.1_5
100
AcDbBlockBegin
  2
*X2237
 70
     1
 10
0.0
 20
0.0
 30
0.0
  3
*X2237
  1

  4
Cadwork hatch
  0
LINE
  5
235
100
AcDbEntity
  8
Sc.1_5
 62
     9
  6
CONTINUOUS
370
    -2
100
AcDbLine
 10
1935.5410401
 20
-1809.25984035
 30
0.0
 11
1963.54102321
 21
-1818.25979729
 31
0.0
  0
LINE
  5
236
100
AcDbEntity
  8
Sc.1_5
 62
     9
  6
CONTINUOUS
370
    -2
100
AcDbLine
 10
1935.5410401
 20
-1818.25979729
 30
0.0
 11
1963.54102321
 21
-1809.25984035
 31
0.0
  0
ENDBLK
  5
237
100
AcDbEntity
100
AcDbBlockEnd
  0
BLOCK
  5
238
100
AcDbEntity
  8
Sc.1_5
100
AcDbBlockBegin
  2
*X2241
 70
     1
 10
0.0
 20
0.0
 30
0.0
  3
*X2241
  1

  4
Cadwork hatch
  0
LINE
  5
239
100
AcDbEntity
  8
Sc.1_5
 62
     9
  6
CONTINUOUS
370
    -2
100
AcDbLine
 10
1963.54096162
 20
-1818.25980529
 30
0.0
 11
1963.54096162
 21
-1818.88475463
 31
0.0
  0
LINE
  5
23A
100
AcDbEntity
  8
Sc.1_5
 62
     9
  6
CONTINUOUS
370
    -2
100
AcDbLine
 10
1963.54096162
 20
-1822.30150681
 30
0.0
 11
1963.54096162
 21
-1823.55140551
 31
0.0
  0
LINE
  5
23B
100
AcDbEntity
  8
Sc.1_5
 62
     9
  6
CONTINUOUS
370
    -2
100
AcDbLine
 10
1963.54096162
 20
-1826.96815768
 30
0.0
 11
1963.54096162
 21
-1828.21805638
 31
0.0
  0
LINE
  5
23C
100
AcDbEntity
  8
Sc.1_5
 62
     9
  6
CONTINUOUS
370
    -2
100
AcDbLine
 10
1963.54096162
 20
-1831.63480855
 30
0.0
 11
1963.54096162
 21
-1832.88470725
 31
0.0
  0
LINE
  5
23D
100
AcDbEntity
  8
Sc.1_5
 62
     9
  6
CONTINUOUS
370
    -2
100
AcDbLine
 10
1963.54096162
 20
-1836.30145942
 30
0.0
 11
1963.54096162
 21
-1837.55135812
 31
0.0
  0
LINE
  5
23E
100
AcDbEntity
  8
Sc.1_5
 62
     9
  6
CONTINUOUS
370
    -2
100
AcDbLine
 10
1963.54096162
 20
-1840.96811029
 30
0.0
 11
1963.54096162
 21
-1842.21800899
 31
0.0
  0
LINE
  5
23F
100
AcDbEntity
  8
Sc.1_5
 62
     9
  6
CONTINUOUS
370
    -2
100
AcDbLine
 10
1963.54096162
 20
-1845.63476116
 30
0.0
 11
1963.54096162
 21
-1846.88465986
 31
0.0
  0
LINE
  5
240
100
AcDbEntity
  8
Sc.1_5
 62
     9
  6
CONTINUOUS
370
    -2
100
AcDbLine
 10
1963.54096162
 20
-1850.30141204
 30
0.0
 11
1963.54096162
 21
-1851.55131073
 31
0.0
  0
LINE
  5
241
100
AcDbEntity
  8
Sc.1_5
 62
     9
  6
CONTINUOUS
370
    -2
100
AcDbLine
 10
1963.54096162
 20
-1854.96806291
 30
0.0
 11
1963.54096162
 21
-1856.21796161
 31
0.0
  0
LINE
  5
242
100
AcDbEntity
  8
Sc.1_5
 62
     9
  6
CONTINUOUS
370
    -2
100
AcDbLine
 10
1963.54096162
 20
-1859.63471378
 30
0.0
 11
1963.54096162
 21
-1860.88461248
 31
0.0
  0
LINE
  5
243
100
AcDbEntity
  8
Sc.1_5
 62
     9
  6
CONTINUOUS
370
    -2
100
AcDbLine
 10
1963.54096162
 20
-1864.30136465
 30
0.0
 11
1963.54096162
 21
-1865.55126335
 31
0.0
  0
LINE
  5
244
100
AcDbEntity
  8
Sc.1_5
 62
     9
  6
CONTINUOUS
370
    -2
100
AcDbLine
 10
1963.54096162
 20
-1868.96801552
 30
0.0
 11
1963.54096162
 21
-1870.21791422
 31
0.0
  0
LINE
  5
245
100
AcDbEntity
  8
Sc.1_5
 62
     9
  6
CONTINUOUS
370
    -2
100
AcDbLine
 10
1963.54096162
 20
-1873.63466639
 30
0.0
 11
1963.54096162
 21
-1874.88456509
 31
0.0
  0
LINE
  5
246
100
AcDbEntity
  8
Sc.1_5
 62
     9
  6
CONTINUOUS
370
    -2
100
AcDbLine
 10
1939.45042037
 20
-1822.92645607
 30
0.0
 11
1940.20771402
 21
-1822.92645607
 31
0.0
  0
LINE
  5
247
100
AcDbEntity
  8
Sc.1_5
 62
     9
  6
CONTINUOUS
370
    -2
100
AcDbLine
 10
1939.45042037
 20
-1832.25975498
 30
0.0
 11
1940.20771402
 21
-1832.25975498
 31
0.0
  0
LINE
  5
248
100
AcDbEntity
  8
Sc.1_5
 62
     9
  6
CONTINUOUS
370
    -2
100
AcDbLine
 10
1939.45042037
 20
-1841.59305388
 30
0.0
 11
1940.20771402
 21
-1841.59305388
 31
0.0
  0
LINE
  5
249
100
AcDbEntity
  8
Sc.1_5
 62
     9
  6
CONTINUOUS
370
    -2
100
AcDbLine
 10
1939.45042037
 20
-1850.92635279
 30
0.0
 11
1940.20771402
 21
-1850.92635279
 31
0.0
  0
LINE
  5
24A
100
AcDbEntity
  8
Sc.1_5
 62
     9
  6
CONTINUOUS
370
    -2
100
AcDbLine
 10
1939.45042037
 20
-1860.2596517
 30
0.0
 11
1940.20771402
 21
-1860.2596517
 31
0.0
  0
LINE
  5
24B
100
AcDbEntity
  8
Sc.1_5
 62
     9
  6
CONTINUOUS
370
    -2
100
AcDbLine
 10
1939.45042037
 20
-1869.5929506
 30
0.0
 11
1940.20771402
 21
-1869.5929506
 31
0.0
  0
LINE
  5
24C
100
AcDbEntity
  8
Sc.1_5
 62
     9
  6
CONTINUOUS
370
    -2
100
AcDbLine
 10
1958.87431183
 20
-1818.25980629
 30
0.0
 11
1959.63160549
 21
-1818.25980629
 31
0.0
  0
LINE
  5
24D
100
AcDbEntity
  8
Sc.1_5
 62
     9
  6
CONTINUOUS
370
    -2
100
AcDbLine
 10
1958.87431183
 20
-1827.59310519
 30
0.0
 11
1959.63160549
 21
-1827.59310519
 31
0.0
  0
LINE
  5
24E
100
AcDbEntity
  8
Sc.1_5
 62
     9
  6
CONTINUOUS
370
    -2
100
AcDbLine
 10
1958.87431183
 20
-1836.9264041
 30
0.0
 11
1959.63160549
 21
-1836.9264041
 31
0.0
  0
LINE
  5
24F
100
AcDbEntity
  8
Sc.1_5
 62
     9
  6
CONTINUOUS
370
    -2
100
AcDbLine
 10
1958.87431183
 20
-1846.259703
 30
0.0
 11
1959.63160549
 21
-1846.259703
 31
0.0
  0
LINE
  5
250
100
AcDbEntity
  8
Sc.1_5
 62
     9
  6
CONTINUOUS
370
    -2
100
AcDbLine
 10
1958.87431183
 20
-1855.59300191
 30
0.0
 11
1959.63160549
 21
-1855.59300191
 31
0.0
  0
LINE
  5
251
100
AcDbEntity
  8
Sc.1_5
 62
     9
  6
CONTINUOUS
370
    -2
100
AcDbLine
 10
1958.87431183
 20
-1864.92630081
 30
0.0
 11
1959.63160549
 21
-1864.92630081
 31
0.0
  0
LINE
  5
252
100
AcDbEntity
  8
Sc.1_5
 62
     9
  6
CONTINUOUS
370
    -2
100
AcDbLine
 10
1958.87431183
 20
-1874.25959972
 30
0.0
 11
1959.63160549
 21
-1874.25959972
 31
0.0
  0
LINE
  5
253
100
AcDbEntity
  8
Sc.1_5
 62
     9
  6
CONTINUOUS
370
    -2
100
AcDbLine
 10
1941.20891097
 20
-1822.81574046
 30
0.0
 11
1957.8734131
 21
-1818.37154692
 31
0.0
  0
LINE
  5
254
100
AcDbEntity
  8
Sc.1_5
 62
     9
  6
CONTINUOUS
370
    -2
100
AcDbLine
 10
1941.20889497
 20
-1832.14903747
 30
0.0
 11
1957.87339709
 21
-1827.70484393
 31
0.0
  0
LINE
  5
255
100
AcDbEntity
  8
Sc.1_5
 62
     9
  6
CONTINUOUS
370
    -2
100
AcDbLine
 10
1941.20887896
 20
-1841.48233448
 30
0.0
 11
1957.87338108
 21
-1837.03814093
 31
0.0
  0
LINE
  5
256
100
AcDbEntity
  8
Sc.1_5
 62
     9
  6
CONTINUOUS
370
    -2
100
AcDbLine
 10
1941.20886295
 20
-1850.81563148
 30
0.0
 11
1957.87336508
 21
-1846.37143794
 31
0.0
  0
LINE
  5
257
100
AcDbEntity
  8
Sc.1_5
 62
     9
  6
CONTINUOUS
370
    -2
100
AcDbLine
 10
1941.20884694
 20
-1860.14892849
 30
0.0
 11
1957.87334907
 21
-1855.70473495
 31
0.0
  0
LINE
  5
258
100
AcDbEntity
  8
Sc.1_5
 62
     9
  6
CONTINUOUS
370
    -2
100
AcDbLine
 10
1941.20883094
 20
-1869.48222549
 30
0.0
 11
1957.87333306
 21
-1865.03803195
 31
0.0
  0
LINE
  5
259
100
AcDbEntity
  8
Sc.1_5
 62
     9
  6
CONTINUOUS
370
    -2
100
AcDbLine
 10
1950.11803613
 20
-1876.43955573
 30
0.0
 11
1957.87331706
 21
-1874.37132896
 31
0.0
  0
LINE
  5
25A
100
AcDbEntity
  8
Sc.1_5
 62
     9
  6
CONTINUOUS
370
    -2
100
AcDbLine
 10
1941.20891097
 20
-1823.03716901
 30
0.0
 11
1957.8734131
 21
-1827.48136255
 31
0.0
  0
LINE
  5
25B
100
AcDbEntity
  8
Sc.1_5
 62
     9
  6
CONTINUOUS
370
    -2
100
AcDbLine
 10
1941.20892698
 20
-1832.37046602
 30
0.0
 11
1957.8734291
 21
-1836.81465956
 31
0.0
  0
LINE
  5
25C
100
AcDbEntity
  8
Sc.1_5
 62
     9
  6
CONTINUOUS
370
    -2
100
AcDbLine
 10
1941.20894299
 20
-1841.70376302
 30
0.0
 11
1957.87344511
 21
-1846.14795657
 31
0.0
  0
LINE
  5
25D
100
AcDbEntity
  8
Sc.1_5
 62
     9
  6
CONTINUOUS
370
    -2
100
AcDbLine
 10
1941.20895899
 20
-1851.03706003
 30
0.0
 11
1957.87346112
 21
-1855.48125357
 31
0.0
  0
LINE
  5
25E
100
AcDbEntity
  8
Sc.1_5
 62
     9
  6
CONTINUOUS
370
    -2
100
AcDbLine
 10
1941.208975
 20
-1860.37035704
 30
0.0
 11
1957.87347713
 21
-1864.81455058
 31
0.0
  0
LINE
  5
25F
100
AcDbEntity
  8
Sc.1_5
 62
     9
  6
CONTINUOUS
370
    -2
100
AcDbLine
 10
1941.20899101
 20
-1869.70365404
 30
0.0
 11
1957.87349313
 21
-1874.14784758
 31
0.0
  0
LINE
  5
260
100
AcDbEntity
  8
Sc.1_5
 62
     9
  6
CONTINUOUS
370
    -2
100
AcDbLine
 10
1935.54106231
 20
-1818.88475271
 30
0.0
 11
1935.87482625
 21
-1820.10855376
 31
0.0
  0
LINE
  5
261
100
AcDbEntity
  8
Sc.1_5
 62
     9
  6
CONTINUOUS
370
    -2
100
AcDbLine
 10
1935.54106231
 20
-1828.21805224
 30
0.0
 11
1935.874826
 21
-1829.44185237
 31
0.0
  0
LINE
  5
262
100
AcDbEntity
  8
Sc.1_5
 62
     9
  6
CONTINUOUS
370
    -2
100
AcDbLine
 10
1935.54106231
 20
-1837.55135177
 30
0.0
 11
1935.87482575
 21
-1838.77515099
 31
0.0
  0
LINE
  5
263
100
AcDbEntity
  8
Sc.1_5
 62
     9
  6
CONTINUOUS
370
    -2
100
AcDbLine
 10
1935.54106231
 20
-1846.8846513
 30
0.0
 11
1935.8748255
 21
-1848.1084496
 31
0.0
  0
LINE
  5
264
100
AcDbEntity
  8
Sc.1_5
 62
     9
  6
CONTINUOUS
370
    -2
100
AcDbLine
 10
1935.54106231
 20
-1856.21795083
 30
0.0
 11
1935.87482525
 21
-1857.44174821
 31
0.0
  0
LINE
  5
265
100
AcDbEntity
  8
Sc.1_5
 62
     9
  6
CONTINUOUS
370
    -2
100
AcDbLine
 10
1935.54106231
 20
-1865.55125036
 30
0.0
 11
1935.874825
 21
-1866.77504682
 31
0.0
  0
LINE
  5
266
100
AcDbEntity
  8
Sc.1_5
 62
     9
  6
CONTINUOUS
370
    -2
100
AcDbLine
 10
1935.54106231
 20
-1874.88454989
 30
0.0
 11
1935.87482475
 21
-1876.10834544
 31
0.0
  0
LINE
  5
267
100
AcDbEntity
  8
Sc.1_5
 62
     9
  6
CONTINUOUS
370
    -2
100
AcDbLine
 10
1935.54106231
 20
-1826.96816567
 30
0.0
 11
1935.87482758
 21
-1825.74435911
 31
0.0
  0
LINE
  5
268
100
AcDbEntity
  8
Sc.1_5
 62
     9
  6
CONTINUOUS
370
    -2
100
AcDbLine
 10
1935.54106231
 20
-1836.30146976
 30
0.0
 11
1935.87482907
 21
-1835.07765772
 31
0.0
  0
LINE
  5
269
100
AcDbEntity
  8
Sc.1_5
 62
     9
  6
CONTINUOUS
370
    -2
100
AcDbLine
 10
1935.5410636
 20
-1845.63476913
 30
0.0
 11
1935.87483057
 21
-1844.41095633
 31
0.0
  0
LINE
  5
26A
100
AcDbEntity
  8
Sc.1_5
 62
     9
  6
CONTINUOUS
370
    -2
100
AcDbLine
 10
1935.54106509
 20
-1854.96806774
 30
0.0
 11
1935.87483206
 21
-1853.74425494
 31
0.0
  0
LINE
  5
26B
100
AcDbEntity
  8
Sc.1_5
 62
     9
  6
CONTINUOUS
370
    -2
100
AcDbLine
 10
1935.54106659
 20
-1864.30136635
 30
0.0
 11
1935.87483355
 21
-1863.07755356
 31
0.0
  0
LINE
  5
26C
100
AcDbEntity
  8
Sc.1_5
 62
     9
  6
CONTINUOUS
370
    -2
100
AcDbLine
 10
1935.54106808
 20
-1873.63466496
 30
0.0
 11
1935.87483505
 21
-1872.41085217
 31
0.0
  0
LINE
  5
26D
100
AcDbEntity
  8
Sc.1_5
 62
     9
  6
CONTINUOUS
370
    -2
100
AcDbLine
 10
1963.20719239
 20
-1821.07767914
 30
0.0
 11
1963.54095952
 21
-1822.30149189
 31
0.0
  0
LINE
  5
26E
100
AcDbEntity
  8
Sc.1_5
 62
     9
  6
CONTINUOUS
370
    -2
100
AcDbLine
 10
1963.20719214
 20
-1830.41097775
 30
0.0
 11
1963.54095927
 21
-1831.6347905
 31
0.0
  0
LINE
  5
26F
100
AcDbEntity
  8
Sc.1_5
 62
     9
  6
CONTINUOUS
370
    -2
100
AcDbLine
 10
1963.20719189
 20
-1839.74427637
 30
0.0
 11
1963.54095902
 21
-1840.96808912
 31
0.0
  0
LINE
  5
270
100
AcDbEntity
  8
Sc.1_5
 62
     9
  6
CONTINUOUS
370
    -2
100
AcDbLine
 10
1963.20719164
 20
-1849.07757498
 30
0.0
 11
1963.54095877
 21
-1850.30138773
 31
0.0
  0
LINE
  5
271
100
AcDbEntity
  8
Sc.1_5
 62
     9
  6
CONTINUOUS
370
    -2
100
AcDbLine
 10
1963.20719139
 20
-1858.41087359
 30
0.0
 11
1963.54095852
 21
-1859.63468634
 31
0.0
  0
LINE
  5
272
100
AcDbEntity
  8
Sc.1_5
 62
     9
  6
CONTINUOUS
370
    -2
100
AcDbLine
 10
1963.20719114
 20
-1867.7441722
 30
0.0
 11
1963.54095827
 21
-1868.96798495
 31
0.0
  0
LINE
  5
273
100
AcDbEntity
  8
Sc.1_5
 62
     9
  6
CONTINUOUS
370
    -2
100
AcDbLine
 10
1963.54095976
 20
-1870.2179094
 30
0.0
 11
1963.20719263
 21
-1871.44172215
 31
0.0
  0
LINE
  5
274
100
AcDbEntity
  8
Sc.1_5
 62
     9
  6
CONTINUOUS
370
    -2
100
AcDbLine
 10
1963.54095951
 20
-1860.88461079
 30
0.0
 11
1963.20719238
 21
-1862.10842354
 31
0.0
  0
LINE
  5
275
100
AcDbEntity
  8
Sc.1_5
 62
     9
  6
CONTINUOUS
370
    -2
100
AcDbLine
 10
1963.54095926
 20
-1851.55131217
 30
0.0
 11
1963.20719213
 21
-1852.77512492
 31
0.0
  0
LINE
  5
276
100
AcDbEntity
  8
Sc.1_5
 62
     9
  6
CONTINUOUS
370
    -2
100
AcDbLine
 10
1963.54095901
 20
-1842.21801356
 30
0.0
 11
1963.20719188
 21
-1843.44182631
 31
0.0
  0
LINE
  5
277
100
AcDbEntity
  8
Sc.1_5
 62
     9
  6
CONTINUOUS
370
    -2
100
AcDbLine
 10
1963.54095876
 20
-1832.88471495
 30
0.0
 11
1963.20719163
 21
-1834.1085277
 31
0.0
  0
LINE
  5
278
100
AcDbEntity
  8
Sc.1_5
 62
     9
  6
CONTINUOUS
370
    -2
100
AcDbLine
 10
1963.54095851
 20
-1823.55141633
 30
0.0
 11
1963.20719138
 21
-1824.77522908
 31
0.0
  0
LINE
  5
279
100
AcDbEntity
  8
Sc.1_5
 62
     9
  6
CONTINUOUS
370
    -2
100
AcDbLine
 10
1935.87483208
 20
-1820.1085718
 30
0.0
 11
1936.50182706
 21
-1821.15356344
 31
0.0
  0
LINE
  5
27A
100
AcDbEntity
  8
Sc.1_5
 62
     9
  6
CONTINUOUS
370
    -2
100
AcDbLine
 10
1935.87483214
 20
-1829.44187232
 30
0.0
 11
1936.50182712
 21
-1830.48686396
 31
0.0
  0
LINE
  5
27B
100
AcDbEntity
  8
Sc.1_5
 62
     9
  6
CONTINUOUS
370
    -2
100
AcDbLine
 10
1935.8748322
 20
-1838.77517284
 30
0.0
 11
1936.50182719
 21
-1839.82016448
 31
0.0
  0
LINE
  5
27C
100
AcDbEntity
  8
Sc.1_5
 62
     9
  6
CONTINUOUS
370
    -2
100
AcDbLine
 10
1935.87483226
 20
-1848.10847336
 30
0.0
 11
1936.50182725
 21
-1849.153465
 31
0.0
  0
LINE
  5
27D
100
AcDbEntity
  8
Sc.1_5
 62
     9
  6
CONTINUOUS
370
    -2
100
AcDbLine
 10
1935.87483233
 20
-1857.44177388
 30
0.0
 11
1936.50182731
 21
-1858.48676552
 31
0.0
  0
LINE
  5
27E
100
AcDbEntity
  8
Sc.1_5
 62
     9
  6
CONTINUOUS
370
    -2
100
AcDbLine
 10
1935.87483239
 20
-1866.7750744
 30
0.0
 11
1936.50182737
 21
-1867.82006603
 31
0.0
  0
LINE
  5
27F
100
AcDbEntity
  8
Sc.1_5
 62
     9
  6
CONTINUOUS
370
    -2
100
AcDbLine
 10
1935.87483245
 20
-1876.10837491
 30
0.0
 11
1936.07354094
 21
-1876.43955573
 31
0.0
  0
LINE
  5
280
100
AcDbEntity
  8
Sc.1_5
 62
     9
  6
CONTINUOUS
370
    -2
100
AcDbLine
 10
1935.8748314
 20
-1825.73743275
 30
0.0
 11
1936.50182645
 21
-1824.69244115
 31
0.0
  0
LINE
  5
281
100
AcDbEntity
  8
Sc.1_5
 62
     9
  6
CONTINUOUS
370
    -2
100
AcDbLine
 10
1935.87483071
 20
-1835.07073327
 30
0.0
 11
1936.50182576
 21
-1834.02574167
 31
0.0
  0
LINE
  5
282
100
AcDbEntity
  8
Sc.1_5
 62
     9
  6
CONTINUOUS
370
    -2
100
AcDbLine
 10
1935.87483003
 20
-1844.40403378
 30
0.0
 11
1936.50182508
 21
-1843.35904219
 31
0.0
  0
LINE
  5
283
100
AcDbEntity
  8
Sc.1_5
 62
     9
  6
CONTINUOUS
370
    -2
100
AcDbLine
 10
1935.87482934
 20
-1853.7373343
 30
0.0
 11
1936.5018244
 21
-1852.69234271
 31
0.0
  0
LINE
  5
284
100
AcDbEntity
  8
Sc.1_5
 62
     9
  6
CONTINUOUS
370
    -2
100
AcDbLine
 10
1935.87482866
 20
-1863.07063482
 30
0.0
 11
1936.50182371
 21
-1862.02564323
 31
0.0
  0
LINE
  5
285
100
AcDbEntity
  8
Sc.1_5
 62
     9
  6
CONTINUOUS
370
    -2
100
AcDbLine
 10
1935.87482798
 20
-1872.40393534
 30
0.0
 11
1936.50182303
 21
-1871.35894374
 31
0.0
  0
LINE
  5
286
100
AcDbEntity
  8
Sc.1_5
 62
     9
  6
CONTINUOUS
370
    -2
100
AcDbLine
 10
1962.58020073
 20
-1820.03270886
 30
0.0
 11
1963.20719571
 21
-1821.0777005
 31
0.0
  0
LINE
  5
287
100
AcDbEntity
  8
Sc.1_5
 62
     9
  6
CONTINUOUS
370
    -2
100
AcDbLine
 10
1962.58020079
 20
-1829.36600938
 30
0.0
 11
1963.20719578
 21
-1830.41100101
 31
0.0
  0
LINE
  5
288
100
AcDbEntity
  8
Sc.1_5
 62
     9
  6
CONTINUOUS
370
    -2
100
AcDbLine
 10
1962.58020085
 20
-1838.6993099
 30
0.0
 11
1963.20719584
 21
-1839.74430153
 31
0.0
  0
LINE
  5
289
100
AcDbEntity
  8
Sc.1_5
 62
     9
  6
CONTINUOUS
370
    -2
100
AcDbLine
 10
1962.58020092
 20
-1848.03261041
 30
0.0
 11
1963.2071959
 21
-1849.07760205
 31
0.0
  0
LINE
  5
28A
100
AcDbEntity
  8
Sc.1_5
 62
     9
  6
CONTINUOUS
370
    -2
100
AcDbLine
 10
1962.58020098
 20
-1857.36591093
 30
0.0
 11
1963.20719596
 21
-1858.41090257
 31
0.0
  0
LINE
  5
28B
100
AcDbEntity
  8
Sc.1_5
 62
     9
  6
CONTINUOUS
370
    -2
100
AcDbLine
 10
1962.58020104
 20
-1866.69921145
 30
0.0
 11
1963.20719602
 21
-1867.74420309
 31
0.0
  0
LINE
  5
28C
100
AcDbEntity
  8
Sc.1_5
 62
     9
  6
CONTINUOUS
370
    -2
100
AcDbLine
 10
1962.5802011
 20
-1876.03251197
 30
0.0
 11
1962.82442736
 21
-1876.43955573
 31
0.0
  0
LINE
  5
28D
100
AcDbEntity
  8
Sc.1_5
 62
     9
  6
CONTINUOUS
370
    -2
100
AcDbLine
 10
1963.20719783
 20
-1871.44171342
 30
0.0
 11
1962.58020285
 21
-1872.48670506
 31
0.0
  0
LINE
  5
28E
100
AcDbEntity
  8
Sc.1_5
 62
     9
  6
CONTINUOUS
370
    -2
100
AcDbLine
 10
1963.20719789
 20
-1862.1084129
 30
0.0
 11
1962.58020291
 21
-1863.15340454
 31
0.0
  0
LINE
  5
28F
100
AcDbEntity
  8
Sc.1_5
 62
     9
  6
CONTINUOUS
370
    -2
100
AcDbLine
 10
1963.20719796
 20
-1852.77511238
 30
0.0
 11
1962.58020297
 21
-1853.82010402
 31
0.0
  0
LINE
  5
290
100
AcDbEntity
  8
Sc.1_5
 62
     9
  6
CONTINUOUS
370
    -2
100
AcDbLine
 10
1963.20719802
 20
-1843.44181187
 30
0.0
 11
1962.58020304
 21
-1844.4868035
 31
0.0
  0
LINE
  5
291
100
AcDbEntity
  8
Sc.1_5
 62
     9
  6
CONTINUOUS
370
    -2
100
AcDbLine
 10
1963.20719808
 20
-1834.10851135
 30
0.0
 11
1962.5802031
 21
-1835.15350298
 31
0.0
  0
LINE
  5
292
100
AcDbEntity
  8
Sc.1_5
 62
     9
  6
CONTINUOUS
370
    -2
100
AcDbLine
 10
1963.20719814
 20
-1824.77521083
 30
0.0
 11
1962.58020316
 21
-1825.82020247
 31
0.0
  0
LINE
  5
293
100
AcDbEntity
  8
Sc.1_5
 62
     9
  6
CONTINUOUS
370
    -2
100
AcDbLine
 10
1936.5018259
 20
-1821.15355972
 30
0.0
 11
1937.23464128
 21
-1821.8863751
 31
0.0
  0
LINE
  5
294
100
AcDbEntity
  8
Sc.1_5
 62
     9
  6
CONTINUOUS
370
    -2
100
AcDbLine
 10
1936.5018259
 20
-1830.48686109
 30
0.0
 11
1937.23464128
 21
-1831.21967647
 31
0.0
  0
LINE
  5
295
100
AcDbEntity
  8
Sc.1_5
 62
     9
  6
CONTINUOUS
370
    -2
100
AcDbLine
 10
1936.5018259
 20
-1839.82016246
 30
0.0
 11
1937.23464128
 21
-1840.55297784
 31
0.0
  0
LINE
  5
296
100
AcDbEntity
  8
Sc.1_5
 62
     9
  6
CONTINUOUS
370
    -2
100
AcDbLine
 10
1936.5018259
 20
-1849.15346382
 30
0.0
 11
1937.23464128
 21
-1849.8862792
 31
0.0
  0
LINE
  5
297
100
AcDbEntity
  8
Sc.1_5
 62
     9
  6
CONTINUOUS
370
    -2
100
AcDbLine
 10
1936.5018259
 20
-1858.48676519
 30
0.0
 11
1937.23464128
 21
-1859.21958057
 31
0.0
  0
LINE
  5
298
100
AcDbEntity
  8
Sc.1_5
 62
     9
  6
CONTINUOUS
370
    -2
100
AcDbLine
 10
1936.5018259
 20
-1867.82006656
 30
0.0
 11
1937.23464128
 21
-1868.55288194
 31
0.0
  0
LINE
  5
299
100
AcDbEntity
  8
Sc.1_5
 62
     9
  6
CONTINUOUS
370
    -2
100
AcDbLine
 10
1936.5018259
 20
-1824.69935221
 30
0.0
 11
1937.23464128
 21
-1823.96653684
 31
0.0
  0
LINE
  5
29A
100
AcDbEntity
  8
Sc.1_5
 62
     9
  6
CONTINUOUS
370
    -2
100
AcDbLine
 10
1936.5018259
 20
-1834.03265358
 30
0.0
 11
1937.23464128
 21
-1833.2998382
 31
0.0
  0
LINE
  5
29B
100
AcDbEntity
  8
Sc.1_5
 62
     9
  6
CONTINUOUS
370
    -2
100
AcDbLine
 10
1936.5018259
 20
-1843.36595495
 30
0.0
 11
1937.23464128
 21
-1842.63313957
 31
0.0
  0
LINE
  5
29C
100
AcDbEntity
  8
Sc.1_5
 62
     9
  6
CONTINUOUS
370
    -2
100
AcDbLine
 10
1936.5018259
 20
-1852.69925631
 30
0.0
 11
1937.23464128
 21
-1851.96644094
 31
0.0
  0
LINE
  5
29D
100
AcDbEntity
  8
Sc.1_5
 62
     9
  6
CONTINUOUS
370
    -2
100
AcDbLine
 10
1936.5018259
 20
-1862.03255768
 30
0.0
 11
1937.23464128
 21
-1861.2997423
 31
0.0
  0
LINE
  5
29E
100
AcDbEntity
  8
Sc.1_5
 62
     9
  6
CONTINUOUS
370
    -2
100
AcDbLine
 10
1936.5018259
 20
-1871.36585905
 30
0.0
 11
1937.23464128
 21
-1870.63304367
 31
0.0
  0
LINE
  5
29F
100
AcDbEntity
  8
Sc.1_5
 62
     9
  6
CONTINUOUS
370
    -2
100
AcDbLine
 10
1961.84738585
 20
-1819.29989353
 30
0.0
 11
1962.58020123
 21
-1820.03270891
 31
0.0
  0
LINE
  5
2A0
100
AcDbEntity
  8
Sc.1_5
 62
     9
  6
CONTINUOUS
370
    -2
100
AcDbLine
 10
1961.84738585
 20
-1828.6331949
 30
0.0
 11
1962.58020123
 21
-1829.36601028
 31
0.0
  0
LINE
  5
2A1
100
AcDbEntity
  8
Sc.1_5
 62
     9
  6
CONTINUOUS
370
    -2
100
AcDbLine
 10
1961.84738585
 20
-1837.96649627
 30
0.0
 11
1962.58020123
 21
-1838.69931165
 31
0.0
  0
LINE
  5
2A2
100
AcDbEntity
  8
Sc.1_5
 62
     9
  6
CONTINUOUS
370
    -2
100
AcDbLine
 10
1961.84738585
 20
-1847.29979763
 30
0.0
 11
1962.58020123
 21
-1848.03261301
 31
0.0
  0
LINE
  5
2A3
100
AcDbEntity
  8
Sc.1_5
 62
     9
  6
CONTINUOUS
370
    -2
100
AcDbLine
 10
1961.84738585
 20
-1856.633099
 30
0.0
 11
1962.58020123
 21
-1857.36591438
 31
0.0
  0
LINE
  5
2A4
100
AcDbEntity
  8
Sc.1_5
 62
     9
  6
CONTINUOUS
370
    -2
100
AcDbLine
 10
1961.84738585
 20
-1865.96640037
 30
0.0
 11
1962.58020123
 21
-1866.69921575
 31
0.0
  0
LINE
  5
2A5
100
AcDbEntity
  8
Sc.1_5
 62
     9
  6
CONTINUOUS
370
    -2
100
AcDbLine
 10
1961.84738585
 20
-1875.29970174
 30
0.0
 11
1962.58020123
 21
-1876.03251711
 31
0.0
  0
LINE
  5
2A6
100
AcDbEntity
  8
Sc.1_5
 62
     9
  6
CONTINUOUS
370
    -2
100
AcDbLine
 10
1962.58019839
 20
-1872.48670966
 30
0.0
 11
1961.84738301
 21
-1873.21952503
 31
0.0
  0
LINE
  5
2A7
100
AcDbEntity
  8
Sc.1_5
 62
     9
  6
CONTINUOUS
370
    -2
100
AcDbLine
 10
1962.58019839
 20
-1863.15340829
 30
0.0
 11
1961.84738301
 21
-1863.88622367
 31
0.0
  0
LINE
  5
2A8
100
AcDbEntity
  8
Sc.1_5
 62
     9
  6
CONTINUOUS
370
    -2
100
AcDbLine
 10
1962.58019839
 20
-1853.82010692
 30
0.0
 11
1961.84738301
 21
-1854.5529223
 31
0.0
  0
LINE
  5
2A9
100
AcDbEntity
  8
Sc.1_5
 62
     9
  6
CONTINUOUS
370
    -2
100
AcDbLine
 10
1962.58019839
 20
-1844.48680555
 30
0.0
 11
1961.84738301
 21
-1845.21962093
 31
0.0
  0
LINE
  5
2AA
100
AcDbEntity
  8
Sc.1_5
 62
     9
  6
CONTINUOUS
370
    -2
100
AcDbLine
 10
1962.58019839
 20
-1835.15350419
 30
0.0
 11
1961.84738301
 21
-1835.88631957
 31
0.0
  0
LINE
  5
2AB
100
AcDbEntity
  8
Sc.1_5
 62
     9
  6
CONTINUOUS
370
    -2
100
AcDbLine
 10
1962.58019839
 20
-1825.82020282
 30
0.0
 11
1961.84738301
 21
-1826.5530182
 31
0.0
  0
LINE
  5
2AC
100
AcDbEntity
  8
Sc.1_5
 62
     9
  6
CONTINUOUS
370
    -2
100
AcDbLine
 10
1937.23464309
 20
-1821.8863737
 30
0.0
 11
1938.13911283
 21
-1822.48935352
 31
0.0
  0
LINE
  5
2AD
100
AcDbEntity
  8
Sc.1_5
 62
     9
  6
CONTINUOUS
370
    -2
100
AcDbLine
 10
1937.23464415
 20
-1831.21967397
 30
0.0
 11
1938.13911388
 21
-1831.82265378
 31
0.0
  0
LINE
  5
2AE
100
AcDbEntity
  8
Sc.1_5
 62
     9
  6
CONTINUOUS
370
    -2
100
AcDbLine
 10
1937.23464521
 20
-1840.55297423
 30
0.0
 11
1938.13911494
 21
-1841.15595405
 31
0.0
  0
LINE
  5
2AF
100
AcDbEntity
  8
Sc.1_5
 62
     9
  6
CONTINUOUS
370
    -2
100
AcDbLine
 10
1937.23464626
 20
-1849.8862745
 30
0.0
 11
1938.139116
 21
-1850.48925432
 31
0.0
  0
LINE
  5
2B0
100
AcDbEntity
  8
Sc.1_5
 62
     9
  6
CONTINUOUS
370
    -2
100
AcDbLine
 10
1937.23464732
 20
-1859.21957477
 30
0.0
 11
1938.13911705
 21
-1859.82255458
 31
0.0
  0
LINE
  5
2B1
100
AcDbEntity
  8
Sc.1_5
 62
     9
  6
CONTINUOUS
370
    -2
100
AcDbLine
 10
1937.23464838
 20
-1868.55287503
 30
0.0
 11
1938.13911811
 21
-1869.15585485
 31
0.0
  0
LINE
  5
2B2
100
AcDbEntity
  8
Sc.1_5
 62
     9
  6
CONTINUOUS
370
    -2
100
AcDbLine
 10
1937.23464142
 20
-1823.96653527
 30
0.0
 11
1938.13911119
 21
-1823.36355552
 31
0.0
  0
LINE
  5
2B3
100
AcDbEntity
  8
Sc.1_5
 62
     9
  6
CONTINUOUS
370
    -2
100
AcDbLine
 10
1937.23463974
 20
-1833.29983554
 30
0.0
 11
1938.13910951
 21
-1832.69685578
 31
0.0
  0
LINE
  5
2B4
100
AcDbEntity
  8
Sc.1_5
 62
     9
  6
CONTINUOUS
370
    -2
100
AcDbLine
 10
1937.23463806
 20
-1842.63313581
 30
0.0
 11
1938.13910783
 21
-1842.03015605
 31
0.0
  0
LINE
  5
2B5
100
AcDbEntity
  8
Sc.1_5
 62
     9
  6
CONTINUOUS
370
    -2
100
AcDbLine
 10
1937.23463638
 20
-1851.96643607
 30
0.0
 11
1938.13910615
 21
-1851.36345632
 31
0.0
  0
LINE
  5
2B6
100
AcDbEntity
  8
Sc.1_5
 62
     9
  6
CONTINUOUS
370
    -2
100
AcDbLine
 10
1937.2346347
 20
-1861.29973634
 30
0.0
 11
1938.13910448
 21
-1860.69675658
 31
0.0
  0
LINE
  5
2B7
100
AcDbEntity
  8
Sc.1_5
 62
     9
  6
CONTINUOUS
370
    -2
100
AcDbLine
 10
1937.23463303
 20
-1870.63303661
 30
0.0
 11
1938.1391028
 21
-1870.03005685
 31
0.0
  0
LINE
  5
2B8
100
AcDbEntity
  8
Sc.1_5
 62
     9
  6
CONTINUOUS
370
    -2
100
AcDbLine
 10
1960.94291829
 20
-1818.69691071
 30
0.0
 11
1961.84738802
 21
-1819.29989053
 31
0.0
  0
LINE
  5
2B9
100
AcDbEntity
  8
Sc.1_5
 62
     9
  6
CONTINUOUS
370
    -2
100
AcDbLine
 10
1960.94291935
 20
-1828.03021098
 30
0.0
 11
1961.84738908
 21
-1828.63319079
 31
0.0
  0
LINE
  5
2BA
100
AcDbEntity
  8
Sc.1_5
 62
     9
  6
CONTINUOUS
370
    -2
100
AcDbLine
 10
1960.9429204
 20
-1837.36351124
 30
0.0
 11
1961.84739013
 21
-1837.96649106
 31
0.0
  0
LINE
  5
2BB
100
AcDbEntity
  8
Sc.1_5
 62
     9
  6
CONTINUOUS
370
    -2
100
AcDbLine
 10
1960.94292146
 20
-1846.69681151
 30
0.0
 11
1961.84739119
 21
-1847.29979133
 31
0.0
  0
LINE
  5
2BC
100
AcDbEntity
  8
Sc.1_5
 62
     9
  6
CONTINUOUS
370
    -2
100
AcDbLine
 10
1960.94292251
 20
-1856.03011178
 30
0.0
 11
1961.84739225
 21
-1856.63309159
 31
0.0
  0
LINE
  5
2BD
100
AcDbEntity
  8
Sc.1_5
 62
     9
  6
CONTINUOUS
370
    -2
100
AcDbLine
 10
1960.94292357
 20
-1865.36341204
 30
0.0
 11
1961.8473933
 21
-1865.96639186
 31
0.0
  0
LINE
  5
2BE
100
AcDbEntity
  8
Sc.1_5
 62
     9
  6
CONTINUOUS
370
    -2
100
AcDbLine
 10
1960.94292463
 20
-1874.69671231
 30
0.0
 11
1961.84739436
 21
-1875.29969213
 31
0.0
  0
LINE
  5
2BF
100
AcDbEntity
  8
Sc.1_5
 62
     9
  6
CONTINUOUS
370
    -2
100
AcDbLine
 10
1961.8473844
 20
-1873.21952226
 30
0.0
 11
1960.94291466
 21
-1873.82250208
 31
0.0
  0
LINE
  5
2C0
100
AcDbEntity
  8
Sc.1_5
 62
     9
  6
CONTINUOUS
370
    -2
100
AcDbLine
 10
1961.84738545
 20
-1863.88622199
 30
0.0
 11
1960.94291572
 21
-1864.48920181
 31
0.0
  0
LINE
  5
2C1
100
AcDbEntity
  8
Sc.1_5
 62
     9
  6
CONTINUOUS
370
    -2
100
AcDbLine
 10
1961.84738651
 20
-1854.55292173
 30
0.0
 11
1960.94291678
 21
-1855.15590154
 31
0.0
  0
LINE
  5
2C2
100
AcDbEntity
  8
Sc.1_5
 62
     9
  6
CONTINUOUS
370
    -2
100
AcDbLine
 10
1961.84738757
 20
-1845.21962146
 30
0.0
 11
1960.94291783
 21
-1845.82260128
 31
0.0
  0
LINE
  5
2C3
100
AcDbEntity
  8
Sc.1_5
 62
     9
  6
CONTINUOUS
370
    -2
100
AcDbLine
 10
1961.84738862
 20
-1835.88632119
 30
0.0
 11
1960.94291889
 21
-1836.48930101
 31
0.0
  0
LINE
  5
2C4
100
AcDbEntity
  8
Sc.1_5
 62
     9
  6
CONTINUOUS
370
    -2
100
AcDbLine
 10
1961.84738968
 20
-1826.55302093
 30
0.0
 11
1960.94291995
 21
-1827.15600074
 31
0.0
  0
LINE
  5
2C5
100
AcDbEntity
  8
Sc.1_5
 62
     9
  6
CONTINUOUS
370
    -2
100
AcDbLine
 10
1938.13910921
 20
-1822.48935178
 30
0.0
 11
1939.45042008
 21
-1822.92645548
 31
0.0
  0
LINE
  5
2C6
100
AcDbEntity
  8
Sc.1_5
 62
     9
  6
CONTINUOUS
370
    -2
100
AcDbLine
 10
1938.13910968
 20
-1831.82265271
 30
0.0
 11
1939.45042054
 21
-1832.25975641
 31
0.0
  0
LINE
  5
2C7
100
AcDbEntity
  8
Sc.1_5
 62
     9
  6
CONTINUOUS
370
    -2
100
AcDbLine
 10
1938.13911015
 20
-1841.15595364
 30
0.0
 11
1939.45042101
 21
-1841.59305733
 31
0.0
  0
LINE
  5
2C8
100
AcDbEntity
  8
Sc.1_5
 62
     9
  6
CONTINUOUS
370
    -2
100
AcDbLine
 10
1938.13911062
 20
-1850.48925457
 30
0.0
 11
1939.45042148
 21
-1850.92635826
 31
0.0
  0
LINE
  5
2C9
100
AcDbEntity
  8
Sc.1_5
 62
     9
  6
CONTINUOUS
370
    -2
100
AcDbLine
 10
1938.13911108
 20
-1859.8225555
 30
0.0
 11
1939.45042195
 21
-1860.25965919
 31
0.0
  0
LINE
  5
2CA
100
AcDbEntity
  8
Sc.1_5
 62
     9
  6
CONTINUOUS
370
    -2
100
AcDbLine
 10
1938.13911155
 20
-1869.15585643
 30
0.0
 11
1939.45042242
 21
-1869.59296012
 31
0.0
  0
LINE
  5
2CB
100
AcDbEntity
  8
Sc.1_5
 62
     9
  6
CONTINUOUS
370
    -2
100
AcDbLine
 10
1938.13910874
 20
-1823.36355972
 30
0.0
 11
1939.45041961
 21
-1822.92645602
 31
0.0
  0
LINE
  5
2CC
100
AcDbEntity
  8
Sc.1_5
 62
     9
  6
CONTINUOUS
370
    -2
100
AcDbLine
 10
1938.13910828
 20
-1832.69686065
 30
0.0
 11
1939.45041914
 21
-1832.25975695
 31
0.0
  0
LINE
  5
2CD
100
AcDbEntity
  8
Sc.1_5
 62
     9
  6
CONTINUOUS
370
    -2
100
AcDbLine
 10
1938.13910781
 20
-1842.03016158
 30
0.0
 11
1939.45041867
 21
-1841.59305788
 31
0.0
  0
LINE
  5
2CE
100
AcDbEntity
  8
Sc.1_5
 62
     9
  6
CONTINUOUS
370
    -2
100
AcDbLine
 10
1938.13910734
 20
-1851.36346251
 30
0.0
 11
1939.4504182
 21
-1850.92635881
 31
0.0
  0
LINE
  5
2CF
100
AcDbEntity
  8
Sc.1_5
 62
     9
  6
CONTINUOUS
370
    -2
100
AcDbLine
 10
1938.13910687
 20
-1860.69676344
 30
0.0
 11
1939.45041774
 21
-1860.25965974
 31
0.0
  0
LINE
  5
2D0
100
AcDbEntity
  8
Sc.1_5
 62
     9
  6
CONTINUOUS
370
    -2
100
AcDbLine
 10
1938.1391064
 20
-1870.03006437
 30
0.0
 11
1939.45041727
 21
-1869.59296067
 31
0.0
  0
LINE
  5
2D1
100
AcDbEntity
  8
Sc.1_5
 62
     9
  6
CONTINUOUS
370
    -2
100
AcDbLine
 10
1959.63160737
 20
-1818.25980529
 30
0.0
 11
1960.94291604
 21
-1818.69690825
 31
0.0
  0
LINE
  5
2D2
100
AcDbEntity
  8
Sc.1_5
 62
     9
  6
CONTINUOUS
370
    -2
100
AcDbLine
 10
1959.63160564
 20
-1827.59310548
 30
0.0
 11
1960.9429165
 21
-1828.03020918
 31
0.0
  0
LINE
  5
2D3
100
AcDbEntity
  8
Sc.1_5
 62
     9
  6
CONTINUOUS
370
    -2
100
AcDbLine
 10
1959.63160611
 20
-1836.92640641
 30
0.0
 11
1960.94291697
 21
-1837.36351011
 31
0.0
  0
LINE
  5
2D4
100
AcDbEntity
  8
Sc.1_5
 62
     9
  6
CONTINUOUS
370
    -2
100
AcDbLine
 10
1959.63160658
 20
-1846.25970734
 30
0.0
 11
1960.94291744
 21
-1846.69681104
 31
0.0
  0
LINE
  5
2D5
100
AcDbEntity
  8
Sc.1_5
 62
     9
  6
CONTINUOUS
370
    -2
100
AcDbLine
 10
1959.63160704
 20
-1855.59300827
 30
0.0
 11
1960.94291791
 21
-1856.03011197
 31
0.0
  0
LINE
  5
2D6
100
AcDbEntity
  8
Sc.1_5
 62
     9
  6
CONTINUOUS
370
    -2
100
AcDbLine
 10
1959.63160751
 20
-1864.9263092
 30
0.0
 11
1960.94291838
 21
-1865.36341289
 31
0.0
  0
LINE
  5
2D7
100
AcDbEntity
  8
Sc.1_5
 62
     9
  6
CONTINUOUS
370
    -2
100
AcDbLine
 10
1959.63160798
 20
-1874.25961013
 30
0.0
 11
1960.94291884
 21
-1874.69671382
 31
0.0
  0
LINE
  5
2D8
100
AcDbEntity
  8
Sc.1_5
 62
     9
  6
CONTINUOUS
370
    -2
100
AcDbLine
 10
1960.94291251
 20
-1873.82250568
 30
0.0
 11
1959.63160165
 21
-1874.25960937
 31
0.0
  0
LINE
  5
2D9
100
AcDbEntity
  8
Sc.1_5
 62
     9
  6
CONTINUOUS
370
    -2
100
AcDbLine
 10
1960.94291298
 20
-1864.48920475
 30
0.0
 11
1959.63160212
 21
-1864.92630844
 31
0.0
  0
LINE
  5
2DA
100
AcDbEntity
  8
Sc.1_5
 62
     9
  6
CONTINUOUS
370
    -2
100
AcDbLine
 10
1960.94291345
 20
-1855.15590382
 30
0.0
 11
1959.63160258
 21
-1855.59300752
 31
0.0
  0
LINE
  5
2DB
100
AcDbEntity
  8
Sc.1_5
 62
     9
  6
CONTINUOUS
370
    -2
100
AcDbLine
 10
1960.94291392
 20
-1845.82260289
 30
0.0
 11
1959.63160305
 21
-1846.25970659
 31
0.0
  0
LINE
  5
2DC
100
AcDbEntity
  8
Sc.1_5
 62
     9
  6
CONTINUOUS
370
    -2
100
AcDbLine
 10
1960.94291438
 20
-1836.48930196
 30
0.0
 11
1959.63160352
 21
-1836.92640566
 31
0.0
  0
LINE
  5
2DD
100
AcDbEntity
  8
Sc.1_5
 62
     9
  6
CONTINUOUS
370
    -2
100
AcDbLine
 10
1960.94291485
 20
-1827.15600103
 30
0.0
 11
1959.63160399
 21
-1827.59310473
 31
0.0
  0
LINE
  5
2DE
100
AcDbEntity
  8
Sc.1_5
 62
     9
  6
CONTINUOUS
370
    -2
100
AcDbLine
 10
1940.20772705
 20
-1822.92645486
 30
0.0
 11
1941.20877629
 21
-1823.0376826
 31
0.0
  0
LINE
  5
2DF
100
AcDbEntity
  8
Sc.1_5
 62
     9
  6
CONTINUOUS
370
    -2
100
AcDbLine
 10
1940.20773845
 20
-1832.25975413
 30
0.0
 11
1941.20878769
 21
-1832.37098187
 31
0.0
  0
LINE
  5
2E0
100
AcDbEntity
  8
Sc.1_5
 62
     9
  6
CONTINUOUS
370
    -2
100
AcDbLine
 10
1940.20774986
 20
-1841.5930534
 30
0.0
 11
1941.2087991
 21
-1841.70428115
 31
0.0
  0
LINE
  5
2E1
100
AcDbEntity
  8
Sc.1_5
 62
     9
  6
CONTINUOUS
370
    -2
100
AcDbLine
 10
1940.20776127
 20
-1850.92635267
 30
0.0
 11
1941.2088105
 21
-1851.03758042
 31
0.0
  0
LINE
  5
2E2
100
AcDbEntity
  8
Sc.1_5
 62
     9
  6
CONTINUOUS
370
    -2
100
AcDbLine
 10
1940.20777267
 20
-1860.25965194
 30
0.0
 11
1941.20882191
 21
-1860.37087969
 31
0.0
  0
LINE
  5
2E3
100
AcDbEntity
  8
Sc.1_5
 62
     9
  6
CONTINUOUS
370
    -2
100
AcDbLine
 10
1940.20778408
 20
-1869.59295122
 30
0.0
 11
1941.20883332
 21
-1869.70417896
 31
0.0
  0
LINE
  5
2E4
100
AcDbEntity
  8
Sc.1_5
 62
     9
  6
CONTINUOUS
370
    -2
100
AcDbLine
 10
1940.20771564
 20
-1822.92645499
 30
0.0
 11
1941.20876488
 21
-1822.81522724
 31
0.0
  0
LINE
  5
2E5
100
AcDbEntity
  8
Sc.1_5
 62
     9
  6
CONTINUOUS
370
    -2
100
AcDbLine
 10
1940.20770424
 20
-1832.25975426
 30
0.0
 11
1941.20875347
 21
-1832.14852651
 31
0.0
  0
LINE
  5
2E6
100
AcDbEntity
  8
Sc.1_5
 62
     9
  6
CONTINUOUS
370
    -2
100
AcDbLine
 10
1940.20769283
 20
-1841.59305353
 30
0.0
 11
1941.20874207
 21
-1841.48182578
 31
0.0
  0
LINE
  5
2E7
100
AcDbEntity
  8
Sc.1_5
 62
     9
  6
CONTINUOUS
370
    -2
100
AcDbLine
 10
1940.20768143
 20
-1850.9263528
 30
0.0
 11
1941.20873066
 21
-1850.81512506
 31
0.0
  0
LINE
  5
2E8
100
AcDbEntity
  8
Sc.1_5
 62
     9
  6
CONTINUOUS
370
    -2
100
AcDbLine
 10
1940.20767002
 20
-1860.25965207
 30
0.0
 11
1941.20871926
 21
-1860.14842433
 31
0.0
  0
LINE
  5
2E9
100
AcDbEntity
  8
Sc.1_5
 62
     9
  6
CONTINUOUS
370
    -2
100
AcDbLine
 10
1940.20765861
 20
-1869.59295135
 30
0.0
 11
1941.20870785
 21
-1869.4817236
 31
0.0
  0
LINE
  5
2EA
100
AcDbEntity
  8
Sc.1_5
 62
     9
  6
CONTINUOUS
370
    -2
100
AcDbLine
 10
1958.87439947
 20
-1874.25960679
 30
0.0
 11
1957.87335021
 21
-1874.14837931
 31
0.0
  0
LINE
  5
2EB
100
AcDbEntity
  8
Sc.1_5
 62
     9
  6
CONTINUOUS
370
    -2
100
AcDbLine
 10
1958.87438558
 20
-1864.92630752
 30
0.0
 11
1957.87333632
 21
-1864.81508004
 31
0.0
  0
LINE
  5
2EC
100
AcDbEntity
  8
Sc.1_5
 62
     9
  6
CONTINUOUS
370
    -2
100
AcDbLine
 10
1958.87437169
 20
-1855.59300825
 30
0.0
 11
1957.87332242
 21
-1855.48178077
 31
0.0
  0
LINE
  5
2ED
100
AcDbEntity
  8
Sc.1_5
 62
     9
  6
CONTINUOUS
370
    -2
100
AcDbLine
 10
1958.8743578
 20
-1846.25970898
 30
0.0
 11
1957.87330853
 21
-1846.1484815
 31
0.0
  0
LINE
  5
2EE
100
AcDbEntity
  8
Sc.1_5
 62
     9
  6
CONTINUOUS
370
    -2
100
AcDbLine
 10
1958.87434391
 20
-1836.9264097
 30
0.0
 11
1957.87329464
 21
-1836.81518222
 31
0.0
  0
LINE
  5
2EF
100
AcDbEntity
  8
Sc.1_5
 62
     9
  6
CONTINUOUS
370
    -2
100
AcDbLine
 10
1958.87433002
 20
-1827.59311043
 30
0.0
 11
1957.87328075
 21
-1827.48188295
 31
0.0
  0
LINE
  5
2F0
100
AcDbEntity
  8
Sc.1_5
 62
     9
  6
CONTINUOUS
370
    -2
100
AcDbLine
 10
1958.87431612
 20
-1818.25981116
 30
0.0
 11
1958.87426326
 21
-1818.25980529
 31
0.0
  0
LINE
  5
2F1
100
AcDbEntity
  8
Sc.1_5
 62
     9
  6
CONTINUOUS
370
    -2
100
AcDbLine
 10
1958.87424769
 20
-1874.2596025
 30
0.0
 11
1957.87319845
 21
-1874.37083025
 31
0.0
  0
LINE
  5
2F2
100
AcDbEntity
  8
Sc.1_5
 62
     9
  6
CONTINUOUS
370
    -2
100
AcDbLine
 10
1958.8742591
 20
-1864.92630323
 30
0.0
 11
1957.87320986
 21
-1865.03753097
 31
0.0
  0
LINE
  5
2F3
100
AcDbEntity
  8
Sc.1_5
 62
     9
  6
CONTINUOUS
370
    -2
100
AcDbLine
 10
1958.8742705
 20
-1855.59300396
 30
0.0
 11
1957.87322126
 21
-1855.7042317
 31
0.0
  0
LINE
  5
2F4
100
AcDbEntity
  8
Sc.1_5
 62
     9
  6
CONTINUOUS
370
    -2
100
AcDbLine
 10
1958.87428191
 20
-1846.25970468
 30
0.0
 11
1957.87323267
 21
-1846.37093243
 31
0.0
  0
LINE
  5
2F5
100
AcDbEntity
  8
Sc.1_5
 62
     9
  6
CONTINUOUS
370
    -2
100
AcDbLine
 10
1958.87429331
 20
-1836.92640541
 30
0.0
 11
1957.87324408
 21
-1837.03763316
 31
0.0
  0
LINE
  5
2F6
100
AcDbEntity
  8
Sc.1_5
 62
     9
  6
CONTINUOUS
370
    -2
100
AcDbLine
 10
1958.87430472
 20
-1827.59310614
 30
0.0
 11
1957.87325548
 21
-1827.70433389
 31
0.0
  0
LINE
  5
2F7
100
AcDbEntity
  8
Sc.1_5
 62
     9
  6
CONTINUOUS
370
    -2
100
AcDbLine
 10
1958.87431612
 20
-1818.25980687
 30
0.0
 11
1957.87326689
 21
-1818.37103461
 31
0.0
  0
ENDBLK
  5
2F8
100
AcDbEntity
100
AcDbBlockEnd
  0
BLOCK
  5
2F9
100
AcDbEntity
  8
Sc.1_5
100
AcDbBlockBegin
  2
*X2297
 70
     1
 10
0.0
 20
0.0
 30
0.0
  3
*X2297
  1

  4
Cadwork hatch
  0
LINE
  5
2FA
100
AcDbEntity
  8
Sc.1_5
 62
     9
  6
CONTINUOUS
370
    -2
100
AcDbLine
 10
1878.65199734
 20
-1795.65446705
 30
0.0
 11
1887.652086
 21
-1811.24294198
 31
0.0
  0
LINE
  5
2FB
100
AcDbEntity
  8
Sc.1_5
 62
     9
  6
CONTINUOUS
370
    -2
100
AcDbLine
 10
1878.65212906
 20
-1816.43910029
 30
0.0
 11
1887.652086
 21
-1790.45844045
 31
0.0
  0
ENDBLK
  5
2FC
100
AcDbEntity
100
AcDbBlockEnd
  0
BLOCK
  5
2FD
100
AcDbEntity
  8
Sc.1_5
100
AcDbBlockBegin
  2
*X2298
 70
     1
 10
0.0
 20
0.0
 30
0.0
  3
*X2298
  1

  4
Cadwork hatch
  0
LINE
  5
2FE
100
AcDbEntity
  8
Sc.1_5
 62
     9
  6
CONTINUOUS
370
    -2
100
AcDbLine
 10
1924.79098542
 20
-1769.01615401
 30
0.0
 11
1941.58517983
 21
-1780.10458462
 31
0.0
  0
LINE
  5
2FF
100
AcDbEntity
  8
Sc.1_5
 62
     9
  6
CONTINUOUS
370
    -2
100
AcDbLine
 10
1932.58522289
 20
-1764.51610968
 30
0.0
 11
1933.79094236
 21
-1784.60462894
 31
0.0
  0
ENDBLK
  5
300
100
AcDbEntity
100
AcDbBlockEnd
  0
BLOCK
  5
301
100
AcDbEntity
  8
Sc.1_5
100
AcDbBlockBegin
  2
*X2299
 70
     1
 10
0.0
 20
0.0
 30
0.0
  3
*X2299
  1

  4
Cadwork hatch
  0
LINE
  5
302
100
AcDbEntity
  8
Sc.1_5
 62
     9
  6
CONTINUOUS
370
    -2
100
AcDbLine
 10
1999.16546311
 20
-1726.07599738
 30
0.0
 11
2015.95965752
 21
-1737.16442799
 31
0.0
  0
LINE
  5
303
100
AcDbEntity
  8
Sc.1_5
 62
     9
  6
CONTINUOUS
370
    -2
100
AcDbLine
 10
2006.95970058
 20
-1721.57595305
 30
0.0
 11
2008.16542005
 21
-1741.66447231
 31
0.0
  0
ENDBLK
  5
304
100
AcDbEntity
100
AcDbBlockEnd
  0
BLOCK
  5
305
100
AcDbEntity
  8
Sc.1_5
100
AcDbBlockBegin
  2
*X2524
 70
     1
 10
0.0
 20
0.0
 30
0.0
  3
*X2524
  1

  4
Cadwork hatch
  0
LINE
  5
306
100
AcDbEntity
  8
Sc.1_5
 62
     9
  6
CONTINUOUS
370
    -2
100
AcDbLine
 10
2009.64491365
 20
-1744.22694129
 30
0.0
 11
2009.33564221
 21
-1744.40549924
 31
0.0
  0
LINE
  5
307
100
AcDbEntity
  8
Sc.1_5
 62
     9
  6
CONTINUOUS
370
    -2
100
AcDbLine
 10
2007.64478229
 20
-1745.38171767
 30
0.0
 11
2007.02624061
 21
-1745.73883288
 31
0.0
  0
LINE
  5
308
100
AcDbEntity
  8
Sc.1_5
 62
     9
  6
CONTINUOUS
370
    -2
100
AcDbLine
 10
2005.3353807
 20
-1746.7150513
 30
0.0
 11
2004.71683902
 21
-1747.07216651
 31
0.0
  0
LINE
  5
309
100
AcDbEntity
  8
Sc.1_5
 62
     9
  6
CONTINUOUS
370
    -2
100
AcDbLine
 10
2003.0259791
 20
-1748.04838494
 30
0.0
 11
2002.40743743
 21
-1748.40550014
 31
0.0
  0
LINE
  5
30A
100
AcDbEntity
  8
Sc.1_5
 62
     9
  6
CONTINUOUS
370
    -2
100
AcDbLine
 10
2000.71657751
 20
-1749.38171857
 30
0.0
 11
2000.09803583
 21
-1749.73883377
 31
0.0
  0
LINE
  5
30B
100
AcDbEntity
  8
Sc.1_5
 62
     9
  6
CONTINUOUS
370
    -2
100
AcDbLine
 10
1998.40717592
 20
-1750.7150522
 30
0.0
 11
1997.78863424
 21
-1751.0721674
 31
0.0
  0
LINE
  5
30C
100
AcDbEntity
  8
Sc.1_5
 62
     9
  6
CONTINUOUS
370
    -2
100
AcDbLine
 10
1996.09777432
 20
-1752.04838583
 30
0.0
 11
1995.47923265
 21
-1752.40550103
 31
0.0
  0
LINE
  5
30D
100
AcDbEntity
  8
Sc.1_5
 62
     9
  6
CONTINUOUS
370
    -2
100
AcDbLine
 10
1993.78837273
 20
-1753.38171946
 30
0.0
 11
1993.16983106
 21
-1753.73883466
 31
0.0
  0
LINE
  5
30E
100
AcDbEntity
  8
Sc.1_5
 62
     9
  6
CONTINUOUS
370
    -2
100
AcDbLine
 10
1991.47897114
 20
-1754.71505309
 30
0.0
 11
1990.86042946
 21
-1755.0721683
 31
0.0
  0
LINE
  5
30F
100
AcDbEntity
  8
Sc.1_5
 62
     9
  6
CONTINUOUS
370
    -2
100
AcDbLine
 10
1989.16956954
 20
-1756.04838672
 30
0.0
 11
1988.55102787
 21
-1756.40550193
 31
0.0
  0
LINE
  5
310
100
AcDbEntity
  8
Sc.1_5
 62
     9
  6
CONTINUOUS
370
    -2
100
AcDbLine
 10
1986.86016795
 20
-1757.38172036
 30
0.0
 11
1986.24162628
 21
-1757.73883556
 31
0.0
  0
LINE
  5
311
100
AcDbEntity
  8
Sc.1_5
 62
     9
  6
CONTINUOUS
370
    -2
100
AcDbLine
 10
1984.55076636
 20
-1758.71505399
 30
0.0
 11
1983.93222468
 21
-1759.07216919
 31
0.0
  0
LINE
  5
312
100
AcDbEntity
  8
Sc.1_5
 62
     9
  6
CONTINUOUS
370
    -2
100
AcDbLine
 10
1982.24136477
 20
-1760.04838762
 30
0.0
 11
1981.62282309
 21
-1760.40550282
 31
0.0
  0
LINE
  5
313
100
AcDbEntity
  8
Sc.1_5
 62
     9
  6
CONTINUOUS
370
    -2
100
AcDbLine
 10
1979.93196317
 20
-1761.38172125
 30
0.0
 11
1979.3134215
 21
-1761.73883645
 31
0.0
  0
LINE
  5
314
100
AcDbEntity
  8
Sc.1_5
 62
     9
  6
CONTINUOUS
370
    -2
100
AcDbLine
 10
1977.62256158
 20
-1762.71505488
 30
0.0
 11
1977.0040199
 21
-1763.07217008
 31
0.0
  0
LINE
  5
315
100
AcDbEntity
  8
Sc.1_5
 62
     9
  6
CONTINUOUS
370
    -2
100
AcDbLine
 10
1975.31315999
 20
-1764.04838851
 30
0.0
 11
1974.69461831
 21
-1764.40550371
 31
0.0
  0
LINE
  5
316
100
AcDbEntity
  8
Sc.1_5
 62
     9
  6
CONTINUOUS
370
    -2
100
AcDbLine
 10
1973.00375839
 20
-1765.38172214
 30
0.0
 11
1972.38521672
 21
-1765.73883735
 31
0.0
  0
LINE
  5
317
100
AcDbEntity
  8
Sc.1_5
 62
     9
  6
CONTINUOUS
370
    -2
100
AcDbLine
 10
1970.6943568
 20
-1766.71505577
 30
0.0
 11
1970.07581513
 21
-1767.07217098
 31
0.0
  0
LINE
  5
318
100
AcDbEntity
  8
Sc.1_5
 62
     9
  6
CONTINUOUS
370
    -2
100
AcDbLine
 10
1968.38495521
 20
-1768.04838941
 30
0.0
 11
1967.76641353
 21
-1768.40550461
 31
0.0
  0
LINE
  5
319
100
AcDbEntity
  8
Sc.1_5
 62
     9
  6
CONTINUOUS
370
    -2
100
AcDbLine
 10
1966.07555361
 20
-1769.38172304
 30
0.0
 11
1965.45701194
 21
-1769.73883824
 31
0.0
  0
LINE
  5
31A
100
AcDbEntity
  8
Sc.1_5
 62
     9
  6
CONTINUOUS
370
    -2
100
AcDbLine
 10
1963.76615202
 20
-1770.71505667
 30
0.0
 11
1963.14761035
 21
-1771.07217187
 31
0.0
  0
LINE
  5
31B
100
AcDbEntity
  8
Sc.1_5
 62
     9
  6
CONTINUOUS
370
    -2
100
AcDbLine
 10
1961.45675043
 20
-1772.0483903
 30
0.0
 11
1960.83820875
 21
-1772.4055055
 31
0.0
  0
LINE
  5
31C
100
AcDbEntity
  8
Sc.1_5
 62
     9
  6
CONTINUOUS
370
    -2
100
AcDbLine
 10
1959.14734884
 20
-1773.38172393
 30
0.0
 11
1958.52880716
 21
-1773.73883913
 31
0.0
  0
LINE
  5
31D
100
AcDbEntity
  8
Sc.1_5
 62
     9
  6
CONTINUOUS
370
    -2
100
AcDbLine
 10
1956.83794724
 20
-1774.71505756
 30
0.0
 11
1956.21940557
 21
-1775.07217277
 31
0.0
  0
LINE
  5
31E
100
AcDbEntity
  8
Sc.1_5
 62
     9
  6
CONTINUOUS
370
    -2
100
AcDbLine
 10
1954.52854565
 20
-1776.04839119
 30
0.0
 11
1953.91000398
 21
-1776.4055064
 31
0.0
  0
LINE
  5
31F
100
AcDbEntity
  8
Sc.1_5
 62
     9
  6
CONTINUOUS
370
    -2
100
AcDbLine
 10
1952.21914406
 20
-1777.38172483
 30
0.0
 11
1951.60060238
 21
-1777.73884003
 31
0.0
  0
LINE
  5
320
100
AcDbEntity
  8
Sc.1_5
 62
     9
  6
CONTINUOUS
370
    -2
100
AcDbLine
 10
1949.90974246
 20
-1778.71505846
 30
0.0
 11
1949.29120079
 21
-1779.07217366
 31
0.0
  0
LINE
  5
321
100
AcDbEntity
  8
Sc.1_5
 62
     9
  6
CONTINUOUS
370
    -2
100
AcDbLine
 10
1947.60034087
 20
-1780.04839209
 30
0.0
 11
1946.9817992
 21
-1780.40550729
 31
0.0
  0
LINE
  5
322
100
AcDbEntity
  8
Sc.1_5
 62
     9
  6
CONTINUOUS
370
    -2
100
AcDbLine
 10
1945.29093928
 20
-1781.38172572
 30
0.0
 11
1944.6723976
 21
-1781.73884092
 31
0.0
  0
LINE
  5
323
100
AcDbEntity
  8
Sc.1_5
 62
     9
  6
CONTINUOUS
370
    -2
100
AcDbLine
 10
2000.45247509
 20
-1733.63850648
 30
0.0
 11
2000.66884548
 21
-1734.013271
 31
0.0
  0
LINE
  5
324
100
AcDbEntity
  8
Sc.1_5
 62
     9
  6
CONTINUOUS
370
    -2
100
AcDbLine
 10
1995.8336733
 20
-1736.30517294
 30
0.0
 11
1996.0500437
 21
-1736.67993745
 31
0.0
  0
LINE
  5
325
100
AcDbEntity
  8
Sc.1_5
 62
     9
  6
CONTINUOUS
370
    -2
100
AcDbLine
 10
1991.21487152
 20
-1738.97183939
 30
0.0
 11
1991.43124192
 21
-1739.34660391
 31
0.0
  0
LINE
  5
326
100
AcDbEntity
  8
Sc.1_5
 62
     9
  6
CONTINUOUS
370
    -2
100
AcDbLine
 10
1986.59606974
 20
-1741.63850584
 30
0.0
 11
1986.81244013
 21
-1742.01327036
 31
0.0
  0
LINE
  5
327
100
AcDbEntity
  8
Sc.1_5
 62
     9
  6
CONTINUOUS
370
    -2
100
AcDbLine
 10
1981.97726796
 20
-1744.30517229
 30
0.0
 11
1982.19363835
 21
-1744.67993681
 31
0.0
  0
LINE
  5
328
100
AcDbEntity
  8
Sc.1_5
 62
     9
  6
CONTINUOUS
370
    -2
100
AcDbLine
 10
1977.35846618
 20
-1746.97183874
 30
0.0
 11
1977.57483657
 21
-1747.34660326
 31
0.0
  0
LINE
  5
329
100
AcDbEntity
  8
Sc.1_5
 62
     9
  6
CONTINUOUS
370
    -2
100
AcDbLine
 10
1972.73966439
 20
-1749.6385052
 30
0.0
 11
1972.95603479
 21
-1750.01326971
 31
0.0
  0
LINE
  5
32A
100
AcDbEntity
  8
Sc.1_5
 62
     9
  6
CONTINUOUS
370
    -2
100
AcDbLine
 10
1968.12086261
 20
-1752.30517165
 30
0.0
 11
1968.33723301
 21
-1752.67993617
 31
0.0
  0
LINE
  5
32B
100
AcDbEntity
  8
Sc.1_5
 62
     9
  6
CONTINUOUS
370
    -2
100
AcDbLine
 10
1963.50206083
 20
-1754.9718381
 30
0.0
 11
1963.71843123
 21
-1755.34660262
 31
0.0
  0
LINE
  5
32C
100
AcDbEntity
  8
Sc.1_5
 62
     9
  6
CONTINUOUS
370
    -2
100
AcDbLine
 10
1958.88325905
 20
-1757.63850455
 30
0.0
 11
1959.09962944
 21
-1758.01326907
 31
0.0
  0
LINE
  5
32D
100
AcDbEntity
  8
Sc.1_5
 62
     9
  6
CONTINUOUS
370
    -2
100
AcDbLine
 10
1954.26445727
 20
-1760.305171
 30
0.0
 11
1954.48082766
 21
-1760.67993552
 31
0.0
  0
LINE
  5
32E
100
AcDbEntity
  8
Sc.1_5
 62
     9
  6
CONTINUOUS
370
    -2
100
AcDbLine
 10
1949.64565548
 20
-1762.97183746
 30
0.0
 11
1949.86202588
 21
-1763.34660197
 31
0.0
  0
LINE
  5
32F
100
AcDbEntity
  8
Sc.1_5
 62
     9
  6
CONTINUOUS
370
    -2
100
AcDbLine
 10
1945.0268537
 20
-1765.63850391
 30
0.0
 11
1945.2432241
 21
-1766.01326843
 31
0.0
  0
LINE
  5
330
100
AcDbEntity
  8
Sc.1_5
 62
     9
  6
CONTINUOUS
370
    -2
100
AcDbLine
 10
1940.40805192
 20
-1768.30517036
 30
0.0
 11
1940.62442232
 21
-1768.67993488
 31
0.0
  0
LINE
  5
331
100
AcDbEntity
  8
Sc.1_5
 62
     9
  6
CONTINUOUS
370
    -2
100
AcDbLine
 10
2008.31157907
 20
-1741.91754146
 30
0.0
 11
2008.52794947
 21
-1742.29230597
 31
0.0
  0
LINE
  5
332
100
AcDbEntity
  8
Sc.1_5
 62
     9
  6
CONTINUOUS
370
    -2
100
AcDbLine
 10
2003.69277729
 20
-1744.58420791
 30
0.0
 11
2003.90914768
 21
-1744.95897243
 31
0.0
  0
LINE
  5
333
100
AcDbEntity
  8
Sc.1_5
 62
     9
  6
CONTINUOUS
370
    -2
100
AcDbLine
 10
1999.07397551
 20
-1747.25087436
 30
0.0
 11
1999.2903459
 21
-1747.62563888
 31
0.0
  0
LINE
  5
334
100
AcDbEntity
  8
Sc.1_5
 62
     9
  6
CONTINUOUS
370
    -2
100
AcDbLine
 10
1994.45517372
 20
-1749.91754081
 30
0.0
 11
1994.67154412
 21
-1750.29230533
 31
0.0
  0
LINE
  5
335
100
AcDbEntity
  8
Sc.1_5
 62
     9
  6
CONTINUOUS
370
    -2
100
AcDbLine
 10
1989.83637194
 20
-1752.58420727
 30
0.0
 11
1990.05274234
 21
-1752.95897178
 31
0.0
  0
LINE
  5
336
100
AcDbEntity
  8
Sc.1_5
 62
     9
  6
CONTINUOUS
370
    -2
100
AcDbLine
 10
1985.21757016
 20
-1755.25087372
 30
0.0
 11
1985.43394056
 21
-1755.62563824
 31
0.0
  0
LINE
  5
337
100
AcDbEntity
  8
Sc.1_5
 62
     9
  6
CONTINUOUS
370
    -2
100
AcDbLine
 10
1980.59876838
 20
-1757.91754017
 30
0.0
 11
1980.81513877
 21
-1758.29230469
 31
0.0
  0
LINE
  5
338
100
AcDbEntity
  8
Sc.1_5
 62
     9
  6
CONTINUOUS
370
    -2
100
AcDbLine
 10
1975.9799666
 20
-1760.58420662
 30
0.0
 11
1976.19633699
 21
-1760.95897114
 31
0.0
  0
LINE
  5
339
100
AcDbEntity
  8
Sc.1_5
 62
     9
  6
CONTINUOUS
370
    -2
100
AcDbLine
 10
1971.36116482
 20
-1763.25087307
 30
0.0
 11
1971.57753521
 21
-1763.62563759
 31
0.0
  0
LINE
  5
33A
100
AcDbEntity
  8
Sc.1_5
 62
     9
  6
CONTINUOUS
370
    -2
100
AcDbLine
 10
1966.74236303
 20
-1765.91753953
 30
0.0
 11
1966.95873343
 21
-1766.29230404
 31
0.0
  0
LINE
  5
33B
100
AcDbEntity
  8
Sc.1_5
 62
     9
  6
CONTINUOUS
370
    -2
100
AcDbLine
 10
1962.12356125
 20
-1768.58420598
 30
0.0
 11
1962.33993165
 21
-1768.9589705
 31
0.0
  0
LINE
  5
33C
100
AcDbEntity
  8
Sc.1_5
 62
     9
  6
CONTINUOUS
370
    -2
100
AcDbLine
 10
1957.50475947
 20
-1771.25087243
 30
0.0
 11
1957.72112986
 21
-1771.62563695
 31
0.0
  0
LINE
  5
33D
100
AcDbEntity
  8
Sc.1_5
 62
     9
  6
CONTINUOUS
370
    -2
100
AcDbLine
 10
1952.88595769
 20
-1773.91753888
 30
0.0
 11
1953.10232808
 21
-1774.2923034
 31
0.0
  0
LINE
  5
33E
100
AcDbEntity
  8
Sc.1_5
 62
     9
  6
CONTINUOUS
370
    -2
100
AcDbLine
 10
1948.26715591
 20
-1776.58420533
 30
0.0
 11
1948.4835263
 21
-1776.95896985
 31
0.0
  0
LINE
  5
33F
100
AcDbEntity
  8
Sc.1_5
 62
     9
  6
CONTINUOUS
370
    -2
100
AcDbLine
 10
1943.64835412
 20
-1779.25087179
 30
0.0
 11
1943.86472452
 21
-1779.6256363
 31
0.0
  0
LINE
  5
340
100
AcDbEntity
  8
Sc.1_5
 62
     9
  6
CONTINUOUS
370
    -2
100
AcDbLine
 10
2001.00990435
 20
-1734.47688247
 30
0.0
 11
2007.97052122
 21
-1741.45392787
 31
0.0
  0
LINE
  5
341
100
AcDbEntity
  8
Sc.1_5
 62
     9
  6
CONTINUOUS
370
    -2
100
AcDbLine
 10
1996.39109894
 20
-1737.14354045
 30
0.0
 11
2003.35171581
 21
-1744.12058586
 31
0.0
  0
LINE
  5
342
100
AcDbEntity
  8
Sc.1_5
 62
     9
  6
CONTINUOUS
370
    -2
100
AcDbLine
 10
1991.77229352
 20
-1739.81019844
 30
0.0
 11
1998.73291039
 21
-1746.78724385
 31
0.0
  0
LINE
  5
343
100
AcDbEntity
  8
Sc.1_5
 62
     9
  6
CONTINUOUS
370
    -2
100
AcDbLine
 10
1987.15348811
 20
-1742.47685643
 30
0.0
 11
1994.11410497
 21
-1749.45390184
 31
0.0
  0
LINE
  5
344
100
AcDbEntity
  8
Sc.1_5
 62
     9
  6
CONTINUOUS
370
    -2
100
AcDbLine
 10
1982.53468269
 20
-1745.14351442
 30
0.0
 11
1989.49529956
 21
-1752.12055983
 31
0.0
  0
LINE
  5
345
100
AcDbEntity
  8
Sc.1_5
 62
     9
  6
CONTINUOUS
370
    -2
100
AcDbLine
 10
1977.91587728
 20
-1747.8101724
 30
0.0
 11
1984.87649414
 21
-1754.78721781
 31
0.0
  0
LINE
  5
346
100
AcDbEntity
  8
Sc.1_5
 62
     9
  6
CONTINUOUS
370
    -2
100
AcDbLine
 10
1973.29707186
 20
-1750.47683039
 30
0.0
 11
1980.25768873
 21
-1757.4538758
 31
0.0
  0
LINE
  5
347
100
AcDbEntity
  8
Sc.1_5
 62
     9
  6
CONTINUOUS
370
    -2
100
AcDbLine
 10
1968.67826645
 20
-1753.14348838
 30
0.0
 11
1975.63888331
 21
-1760.12053379
 31
0.0
  0
LINE
  5
348
100
AcDbEntity
  8
Sc.1_5
 62
     9
  6
CONTINUOUS
370
    -2
100
AcDbLine
 10
1964.05946103
 20
-1755.81014637
 30
0.0
 11
1971.0200779
 21
-1762.78719178
 31
0.0
  0
LINE
  5
349
100
AcDbEntity
  8
Sc.1_5
 62
     9
  6
CONTINUOUS
370
    -2
100
AcDbLine
 10
1959.44065561
 20
-1758.47680436
 30
0.0
 11
1966.40127248
 21
-1765.45384977
 31
0.0
  0
LINE
  5
34A
100
AcDbEntity
  8
Sc.1_5
 62
     9
  6
CONTINUOUS
370
    -2
100
AcDbLine
 10
1954.8218502
 20
-1761.14346234
 30
0.0
 11
1961.78246707
 21
-1768.12050775
 31
0.0
  0
LINE
  5
34B
100
AcDbEntity
  8
Sc.1_5
 62
     9
  6
CONTINUOUS
370
    -2
100
AcDbLine
 10
1950.20304478
 20
-1763.81012033
 30
0.0
 11
1957.16366165
 21
-1770.78716574
 31
0.0
  0
LINE
  5
34C
100
AcDbEntity
  8
Sc.1_5
 62
     9
  6
CONTINUOUS
370
    -2
100
AcDbLine
 10
1945.58423937
 20
-1766.47677832
 30
0.0
 11
1952.54485624
 21
-1773.45382373
 31
0.0
  0
LINE
  5
34D
100
AcDbEntity
  8
Sc.1_5
 62
     9
  6
CONTINUOUS
370
    -2
100
AcDbLine
 10
1940.96543395
 20
-1769.14343631
 30
0.0
 11
1947.92605082
 21
-1776.12048172
 31
0.0
  0
LINE
  5
34E
100
AcDbEntity
  8
Sc.1_5
 62
     9
  6
CONTINUOUS
370
    -2
100
AcDbLine
 10
1937.41410521
 20
-1772.88009044
 30
0.0
 11
1943.30724541
 21
-1778.78713971
 31
0.0
  0
LINE
  5
34F
100
AcDbEntity
  8
Sc.1_5
 62
     9
  6
CONTINUOUS
370
    -2
100
AcDbLine
 10
2000.89981667
 20
-1734.54044162
 30
0.0
 11
2003.4618068
 21
-1744.05703536
 31
0.0
  0
LINE
  5
350
100
AcDbEntity
  8
Sc.1_5
 62
     9
  6
CONTINUOUS
370
    -2
100
AcDbLine
 10
1996.2810204
 20
-1737.20711545
 30
0.0
 11
1998.84301054
 21
-1746.72370919
 31
0.0
  0
LINE
  5
351
100
AcDbEntity
  8
Sc.1_5
 62
     9
  6
CONTINUOUS
370
    -2
100
AcDbLine
 10
1991.66222413
 20
-1739.87378928
 30
0.0
 11
1994.22421427
 21
-1749.39038302
 31
0.0
  0
LINE
  5
352
100
AcDbEntity
  8
Sc.1_5
 62
     9
  6
CONTINUOUS
370
    -2
100
AcDbLine
 10
1987.04342787
 20
-1742.54046311
 30
0.0
 11
1989.605418
 21
-1752.05705685
 31
0.0
  0
LINE
  5
353
100
AcDbEntity
  8
Sc.1_5
 62
     9
  6
CONTINUOUS
370
    -2
100
AcDbLine
 10
1982.4246316
 20
-1745.20713694
 30
0.0
 11
1984.98662173
 21
-1754.72373068
 31
0.0
  0
LINE
  5
354
100
AcDbEntity
  8
Sc.1_5
 62
     9
  6
CONTINUOUS
370
    -2
100
AcDbLine
 10
1977.80583533
 20
-1747.87381077
 30
0.0
 11
1980.36782546
 21
-1757.39040451
 31
0.0
  0
LINE
  5
355
100
AcDbEntity
  8
Sc.1_5
 62
     9
  6
CONTINUOUS
370
    -2
100
AcDbLine
 10
1973.18703906
 20
-1750.5404846
 30
0.0
 11
1975.74902919
 21
-1760.05707834
 31
0.0
  0
LINE
  5
356
100
AcDbEntity
  8
Sc.1_5
 62
     9
  6
CONTINUOUS
370
    -2
100
AcDbLine
 10
1968.56824279
 20
-1753.20715843
 30
0.0
 11
1971.13023293
 21
-1762.72375217
 31
0.0
  0
LINE
  5
357
100
AcDbEntity
  8
Sc.1_5
 62
     9
  6
CONTINUOUS
370
    -2
100
AcDbLine
 10
1963.94944652
 20
-1755.87383226
 30
0.0
 11
1966.51143666
 21
-1765.390426
 31
0.0
  0
LINE
  5
358
100
AcDbEntity
  8
Sc.1_5
 62
     9
  6
CONTINUOUS
370
    -2
100
AcDbLine
 10
1959.33065026
 20
-1758.54050609
 30
0.0
 11
1961.89264039
 21
-1768.05709983
 31
0.0
  0
LINE
  5
359
100
AcDbEntity
  8
Sc.1_5
 62
     9
  6
CONTINUOUS
370
    -2
100
AcDbLine
 10
1954.71185399
 20
-1761.20717992
 30
0.0
 11
1957.27384412
 21
-1770.72377366
 31
0.0
  0
LINE
  5
35A
100
AcDbEntity
  8
Sc.1_5
 62
     9
  6
CONTINUOUS
370
    -2
100
AcDbLine
 10
1950.09305772
 20
-1763.87385375
 30
0.0
 11
1952.65504785
 21
-1773.39044749
 31
0.0
  0
LINE
  5
35B
100
AcDbEntity
  8
Sc.1_5
 62
     9
  6
CONTINUOUS
370
    -2
100
AcDbLine
 10
1945.47426145
 20
-1766.54052759
 30
0.0
 11
1948.03625158
 21
-1776.05712132
 31
0.0
  0
LINE
  5
35C
100
AcDbEntity
  8
Sc.1_5
 62
     9
  6
CONTINUOUS
370
    -2
100
AcDbLine
 10
1940.85546518
 20
-1769.20720142
 30
0.0
 11
1943.41745532
 21
-1778.72379516
 31
0.0
  0
LINE
  5
35D
100
AcDbEntity
  8
Sc.1_5
 62
     9
  6
CONTINUOUS
370
    -2
100
AcDbLine
 10
2001.33564259
 20
-1730.54909344
 30
0.0
 11
2000.82537254
 21
-1731.06392798
 31
0.0
  0
LINE
  5
35E
100
AcDbEntity
  8
Sc.1_5
 62
     9
  6
CONTINUOUS
370
    -2
100
AcDbLine
 10
1996.7168405
 20
-1733.21576007
 30
0.0
 11
1996.20657083
 21
-1733.73059422
 31
0.0
  0
LINE
  5
35F
100
AcDbEntity
  8
Sc.1_5
 62
     9
  6
CONTINUOUS
370
    -2
100
AcDbLine
 10
1992.09803841
 20
-1735.8824267
 30
0.0
 11
1991.58776912
 21
-1736.39726047
 31
0.0
  0
LINE
  5
360
100
AcDbEntity
  8
Sc.1_5
 62
     9
  6
CONTINUOUS
370
    -2
100
AcDbLine
 10
1987.47923631
 20
-1738.54909333
 30
0.0
 11
1986.96896741
 21
-1739.06392671
 31
0.0
  0
LINE
  5
361
100
AcDbEntity
  8
Sc.1_5
 62
     9
  6
CONTINUOUS
370
    -2
100
AcDbLine
 10
1982.86043422
 20
-1741.21575997
 30
0.0
 11
1982.3501657
 21
-1741.73059296
 31
0.0
  0
LINE
  5
362
100
AcDbEntity
  8
Sc.1_5
 62
     9
  6
CONTINUOUS
370
    -2
100
AcDbLine
 10
1978.24163213
 20
-1743.8824266
 30
0.0
 11
1977.73136399
 21
-1744.3972592
 31
0.0
  0
LINE
  5
363
100
AcDbEntity
  8
Sc.1_5
 62
     9
  6
CONTINUOUS
370
    -2
100
AcDbLine
 10
1973.62283004
 20
-1746.54909323
 30
0.0
 11
1973.11256229
 21
-1747.06392545
 31
0.0
  0
LINE
  5
364
100
AcDbEntity
  8
Sc.1_5
 62
     9
  6
CONTINUOUS
370
    -2
100
AcDbLine
 10
1969.00402795
 20
-1749.21575986
 30
0.0
 11
1968.49376058
 21
-1749.73059169
 31
0.0
  0
LINE
  5
365
100
AcDbEntity
  8
Sc.1_5
 62
     9
  6
CONTINUOUS
370
    -2
100
AcDbLine
 10
1964.38522586
 20
-1751.88242649
 30
0.0
 11
1963.87495887
 21
-1752.39725794
 31
0.0
  0
LINE
  5
366
100
AcDbEntity
  8
Sc.1_5
 62
     9
  6
CONTINUOUS
370
    -2
100
AcDbLine
 10
1959.76642377
 20
-1754.54909312
 30
0.0
 11
1959.25615716
 21
-1755.06392418
 31
0.0
  0
LINE
  5
367
100
AcDbEntity
  8
Sc.1_5
 62
     9
  6
CONTINUOUS
370
    -2
100
AcDbLine
 10
1955.14762168
 20
-1757.21575975
 30
0.0
 11
1954.63735545
 21
-1757.73059042
 31
0.0
  0
LINE
  5
368
100
AcDbEntity
  8
Sc.1_5
 62
     9
  6
CONTINUOUS
370
    -2
100
AcDbLine
 10
1950.52881959
 20
-1759.88242638
 30
0.0
 11
1950.01855374
 21
-1760.39725667
 31
0.0
  0
LINE
  5
369
100
AcDbEntity
  8
Sc.1_5
 62
     9
  6
CONTINUOUS
370
    -2
100
AcDbLine
 10
1945.9100175
 20
-1762.54909301
 30
0.0
 11
1945.39975204
 21
-1763.06392291
 31
0.0
  0
LINE
  5
36A
100
AcDbEntity
  8
Sc.1_5
 62
     9
  6
CONTINUOUS
370
    -2
100
AcDbLine
 10
1941.29121541
 20
-1765.21575964
 30
0.0
 11
1940.78095033
 21
-1765.73058916
 31
0.0
  0
LINE
  5
36B
100
AcDbEntity
  8
Sc.1_5
 62
     9
  6
CONTINUOUS
370
    -2
100
AcDbLine
 10
1936.67241332
 20
-1767.88242627
 30
0.0
 11
1936.16214862
 21
-1768.3972554
 31
0.0
  0
LINE
  5
36C
100
AcDbEntity
  8
Sc.1_5
 62
     9
  6
CONTINUOUS
370
    -2
100
AcDbLine
 10
1997.33538305
 20
-1732.85864535
 30
0.0
 11
1998.03637784
 21
-1732.6741557
 31
0.0
  0
LINE
  5
36D
100
AcDbEntity
  8
Sc.1_5
 62
     9
  6
CONTINUOUS
370
    -2
100
AcDbLine
 10
1992.71658184
 20
-1735.52531246
 30
0.0
 11
1993.41757663
 21
-1735.3408228
 31
0.0
  0
LINE
  5
36E
100
AcDbEntity
  8
Sc.1_5
 62
     9
  6
CONTINUOUS
370
    -2
100
AcDbLine
 10
1988.09778063
 20
-1738.19197956
 30
0.0
 11
1988.79877542
 21
-1738.00748991
 31
0.0
  0
LINE
  5
36F
100
AcDbEntity
  8
Sc.1_5
 62
     9
  6
CONTINUOUS
370
    -2
100
AcDbLine
 10
1983.47897942
 20
-1740.85864667
 30
0.0
 11
1984.17997421
 21
-1740.67415702
 31
0.0
  0
LINE
  5
370
100
AcDbEntity
  8
Sc.1_5
 62
     9
  6
CONTINUOUS
370
    -2
100
AcDbLine
 10
1978.86017821
 20
-1743.52531378
 30
0.0
 11
1979.561173
 21
-1743.34082412
 31
0.0
  0
LINE
  5
371
100
AcDbEntity
  8
Sc.1_5
 62
     9
  6
CONTINUOUS
370
    -2
100
AcDbLine
 10
1974.241377
 20
-1746.19198088
 30
0.0
 11
1974.94237179
 21
-1746.00749123
 31
0.0
  0
LINE
  5
372
100
AcDbEntity
  8
Sc.1_5
 62
     9
  6
CONTINUOUS
370
    -2
100
AcDbLine
 10
1969.62257579
 20
-1748.85864799
 30
0.0
 11
1970.32357058
 21
-1748.67415834
 31
0.0
  0
LINE
  5
373
100
AcDbEntity
  8
Sc.1_5
 62
     9
  6
CONTINUOUS
370
    -2
100
AcDbLine
 10
1965.00377458
 20
-1751.5253151
 30
0.0
 11
1965.70476937
 21
-1751.34082545
 31
0.0
  0
LINE
  5
374
100
AcDbEntity
  8
Sc.1_5
 62
     9
  6
CONTINUOUS
370
    -2
100
AcDbLine
 10
1960.38497337
 20
-1754.19198221
 30
0.0
 11
1961.08596816
 21
-1754.00749255
 31
0.0
  0
LINE
  5
375
100
AcDbEntity
  8
Sc.1_5
 62
     9
  6
CONTINUOUS
370
    -2
100
AcDbLine
 10
1955.76617216
 20
-1756.85864931
 30
0.0
 11
1956.46716695
 21
-1756.67415966
 31
0.0
  0
LINE
  5
376
100
AcDbEntity
  8
Sc.1_5
 62
     9
  6
CONTINUOUS
370
    -2
100
AcDbLine
 10
1951.14737095
 20
-1759.52531642
 30
0.0
 11
1951.84836574
 21
-1759.34082677
 31
0.0
  0
LINE
  5
377
100
AcDbEntity
  8
Sc.1_5
 62
     9
  6
CONTINUOUS
370
    -2
100
AcDbLine
 10
1946.52856974
 20
-1762.19198353
 30
0.0
 11
1947.22956453
 21
-1762.00749387
 31
0.0
  0
LINE
  5
378
100
AcDbEntity
  8
Sc.1_5
 62
     9
  6
CONTINUOUS
370
    -2
100
AcDbLine
 10
1941.90976853
 20
-1764.85865063
 30
0.0
 11
1942.61076332
 21
-1764.67416098
 31
0.0
  0
LINE
  5
379
100
AcDbEntity
  8
Sc.1_5
 62
     9
  6
CONTINUOUS
370
    -2
100
AcDbLine
 10
1937.29096732
 20
-1767.52531774
 30
0.0
 11
1937.99196211
 21
-1767.34082809
 31
0.0
  0
LINE
  5
37A
100
AcDbEntity
  8
Sc.1_5
 62
     9
  6
CONTINUOUS
370
    -2
100
AcDbLine
 10
2008.15505377
 20
-1744.86688413
 30
0.0
 11
2007.64478503
 21
-1745.38171734
 31
0.0
  0
LINE
  5
37B
100
AcDbEntity
  8
Sc.1_5
 62
     9
  6
CONTINUOUS
370
    -2
100
AcDbLine
 10
2003.53625206
 20
-1747.53355038
 30
0.0
 11
2003.02598294
 21
-1748.04838397
 31
0.0
  0
LINE
  5
37C
100
AcDbEntity
  8
Sc.1_5
 62
     9
  6
CONTINUOUS
370
    -2
100
AcDbLine
 10
1998.91745035
 20
-1750.20021662
 30
0.0
 11
1998.40718085
 21
-1750.7150506
 31
0.0
  0
LINE
  5
37D
100
AcDbEntity
  8
Sc.1_5
 62
     9
  6
CONTINUOUS
370
    -2
100
AcDbLine
 10
1994.29864864
 20
-1752.86688287
 30
0.0
 11
1993.78837876
 21
-1753.38171723
 31
0.0
  0
LINE
  5
37E
100
AcDbEntity
  8
Sc.1_5
 62
     9
  6
CONTINUOUS
370
    -2
100
AcDbLine
 10
1989.67984693
 20
-1755.53354911
 30
0.0
 11
1989.16957688
 21
-1756.04838365
 31
0.0
  0
LINE
  5
37F
100
AcDbEntity
  8
Sc.1_5
 62
     9
  6
CONTINUOUS
370
    -2
100
AcDbLine
 10
1985.06104522
 20
-1758.20021536
 30
0.0
 11
1984.55077517
 21
-1758.71504989
 31
0.0
  0
LINE
  5
380
100
AcDbEntity
  8
Sc.1_5
 62
     9
  6
CONTINUOUS
370
    -2
100
AcDbLine
 10
1980.44224352
 20
-1760.8668816
 30
0.0
 11
1979.93197347
 21
-1761.38171614
 31
0.0
  0
LINE
  5
381
100
AcDbEntity
  8
Sc.1_5
 62
     9
  6
CONTINUOUS
370
    -2
100
AcDbLine
 10
1975.82344181
 20
-1763.53354785
 30
0.0
 11
1975.31317176
 21
-1764.04838238
 31
0.0
  0
LINE
  5
382
100
AcDbEntity
  8
Sc.1_5
 62
     9
  6
CONTINUOUS
370
    -2
100
AcDbLine
 10
1971.2046401
 20
-1766.20021409
 30
0.0
 11
1970.69437005
 21
-1766.71504863
 31
0.0
  0
LINE
  5
383
100
AcDbEntity
  8
Sc.1_5
 62
     9
  6
CONTINUOUS
370
    -2
100
AcDbLine
 10
1966.58583839
 20
-1768.86688033
 30
0.0
 11
1966.07556834
 21
-1769.38171487
 31
0.0
  0
LINE
  5
384
100
AcDbEntity
  8
Sc.1_5
 62
     9
  6
CONTINUOUS
370
    -2
100
AcDbLine
 10
1961.96703668
 20
-1771.53354658
 30
0.0
 11
1961.45676663
 21
-1772.04838111
 31
0.0
  0
LINE
  5
385
100
AcDbEntity
  8
Sc.1_5
 62
     9
  6
CONTINUOUS
370
    -2
100
AcDbLine
 10
1957.34823497
 20
-1774.20021282
 30
0.0
 11
1956.83796492
 21
-1774.71504736
 31
0.0
  0
LINE
  5
386
100
AcDbEntity
  8
Sc.1_5
 62
     9
  6
CONTINUOUS
370
    -2
100
AcDbLine
 10
1952.72943327
 20
-1776.86687907
 30
0.0
 11
1952.21916322
 21
-1777.3817136
 31
0.0
  0
LINE
  5
387
100
AcDbEntity
  8
Sc.1_5
 62
     9
  6
CONTINUOUS
370
    -2
100
AcDbLine
 10
1948.11063156
 20
-1779.53354531
 30
0.0
 11
1947.60036151
 21
-1780.04837985
 31
0.0
  0
LINE
  5
388
100
AcDbEntity
  8
Sc.1_5
 62
     9
  6
CONTINUOUS
370
    -2
100
AcDbLine
 10
1943.49182985
 20
-1782.20021156
 30
0.0
 11
1943.05154989
 21
-1782.64442993
 31
0.0
  0
LINE
  5
389
100
AcDbEntity
  8
Sc.1_5
 62
     9
  6
CONTINUOUS
370
    -2
100
AcDbLine
 10
1946.98181562
 20
-1780.40549906
 30
0.0
 11
1946.28082733
 21
-1780.5899869
 31
0.0
  0
LINE
  5
38A
100
AcDbEntity
  8
Sc.1_5
 62
     9
  6
CONTINUOUS
370
    -2
100
AcDbLine
 10
1951.60061771
 20
-1777.73883243
 30
0.0
 11
1950.8996289
 21
-1777.92332041
 31
0.0
  0
LINE
  5
38B
100
AcDbEntity
  8
Sc.1_5
 62
     9
  6
CONTINUOUS
370
    -2
100
AcDbLine
 10
1956.2194198
 20
-1775.0721658
 30
0.0
 11
1955.51843047
 21
-1775.25665392
 31
0.0
  0
LINE
  5
38C
100
AcDbEntity
  8
Sc.1_5
 62
     9
  6
CONTINUOUS
370
    -2
100
AcDbLine
 10
1960.8382219
 20
-1772.40549917
 30
0.0
 11
1960.13723203
 21
-1772.58998742
 31
0.0
  0
LINE
  5
38D
100
AcDbEntity
  8
Sc.1_5
 62
     9
  6
CONTINUOUS
370
    -2
100
AcDbLine
 10
1965.45702399
 20
-1769.73883254
 30
0.0
 11
1964.7560336
 21
-1769.92332093
 31
0.0
  0
LINE
  5
38E
100
AcDbEntity
  8
Sc.1_5
 62
     9
  6
CONTINUOUS
370
    -2
100
AcDbLine
 10
1970.07582608
 20
-1767.07216591
 30
0.0
 11
1969.37483516
 21
-1767.25665444
 31
0.0
  0
LINE
  5
38F
100
AcDbEntity
  8
Sc.1_5
 62
     9
  6
CONTINUOUS
370
    -2
100
AcDbLine
 10
1974.69462817
 20
-1764.40549928
 30
0.0
 11
1973.99363673
 21
-1764.58998795
 31
0.0
  0
LINE
  5
390
100
AcDbEntity
  8
Sc.1_5
 62
     9
  6
CONTINUOUS
370
    -2
100
AcDbLine
 10
1979.31343026
 20
-1761.73883264
 30
0.0
 11
1978.61243829
 21
-1761.92332146
 31
0.0
  0
LINE
  5
391
100
AcDbEntity
  8
Sc.1_5
 62
     9
  6
CONTINUOUS
370
    -2
100
AcDbLine
 10
1983.93223235
 20
-1759.07216601
 30
0.0
 11
1983.23123986
 21
-1759.25665496
 31
0.0
  0
LINE
  5
392
100
AcDbEntity
  8
Sc.1_5
 62
     9
  6
CONTINUOUS
370
    -2
100
AcDbLine
 10
1988.55103444
 20
-1756.40549938
 30
0.0
 11
1987.85004142
 21
-1756.58998847
 31
0.0
  0
LINE
  5
393
100
AcDbEntity
  8
Sc.1_5
 62
     9
  6
CONTINUOUS
370
    -2
100
AcDbLine
 10
1993.16983653
 20
-1753.73883275
 30
0.0
 11
1992.46884299
 21
-1753.92332198
 31
0.0
  0
LINE
  5
394
100
AcDbEntity
  8
Sc.1_5
 62
     9
  6
CONTINUOUS
370
    -2
100
AcDbLine
 10
1997.78863862
 20
-1751.07216612
 30
0.0
 11
1997.08764455
 21
-1751.25665549
 31
0.0
  0
LINE
  5
395
100
AcDbEntity
  8
Sc.1_5
 62
     9
  6
CONTINUOUS
370
    -2
100
AcDbLine
 10
2002.40744071
 20
-1748.40549949
 30
0.0
 11
2001.70644612
 21
-1748.58998899
 31
0.0
  0
LINE
  5
396
100
AcDbEntity
  8
Sc.1_5
 62
     9
  6
CONTINUOUS
370
    -2
100
AcDbLine
 10
2007.0262425
 20
-1745.73883294
 30
0.0
 11
2006.32524768
 21
-1745.9233225
 31
0.0
  0
LINE
  5
397
100
AcDbEntity
  8
Sc.1_5
 62
     9
  6
CONTINUOUS
370
    -2
100
AcDbLine
 10
2000.82537328
 20
-1731.0639276
 30
0.0
 11
2000.48737674
 21
-1731.67278088
 31
0.0
  0
LINE
  5
398
100
AcDbEntity
  8
Sc.1_5
 62
     9
  6
CONTINUOUS
370
    -2
100
AcDbLine
 10
1996.20657072
 20
-1733.73059454
 30
0.0
 11
1995.86857418
 21
-1734.33944783
 31
0.0
  0
LINE
  5
399
100
AcDbEntity
  8
Sc.1_5
 62
     9
  6
CONTINUOUS
370
    -2
100
AcDbLine
 10
1991.58776816
 20
-1736.39726149
 30
0.0
 11
1991.24977162
 21
-1737.00611477
 31
0.0
  0
LINE
  5
39A
100
AcDbEntity
  8
Sc.1_5
 62
     9
  6
CONTINUOUS
370
    -2
100
AcDbLine
 10
1986.96896559
 20
-1739.06392843
 30
0.0
 11
1986.63096905
 21
-1739.67278171
 31
0.0
  0
LINE
  5
39B
100
AcDbEntity
  8
Sc.1_5
 62
     9
  6
CONTINUOUS
370
    -2
100
AcDbLine
 10
1982.35016303
 20
-1741.73059537
 30
0.0
 11
1982.01216649
 21
-1742.33944866
 31
0.0
  0
LINE
  5
39C
100
AcDbEntity
  8
Sc.1_5
 62
     9
  6
CONTINUOUS
370
    -2
100
AcDbLine
 10
1977.73136047
 20
-1744.39726232
 30
0.0
 11
1977.39336393
 21
-1745.0061156
 31
0.0
  0
LINE
  5
39D
100
AcDbEntity
  8
Sc.1_5
 62
     9
  6
CONTINUOUS
370
    -2
100
AcDbLine
 10
1973.11255791
 20
-1747.06392926
 30
0.0
 11
1972.77456137
 21
-1747.67278254
 31
0.0
  0
LINE
  5
39E
100
AcDbEntity
  8
Sc.1_5
 62
     9
  6
CONTINUOUS
370
    -2
100
AcDbLine
 10
1968.49375535
 20
-1749.7305962
 30
0.0
 11
1968.1557588
 21
-1750.33944949
 31
0.0
  0
LINE
  5
39F
100
AcDbEntity
  8
Sc.1_5
 62
     9
  6
CONTINUOUS
370
    -2
100
AcDbLine
 10
1963.87495278
 20
-1752.39726315
 30
0.0
 11
1963.53695624
 21
-1753.00611643
 31
0.0
  0
LINE
  5
3A0
100
AcDbEntity
  8
Sc.1_5
 62
     9
  6
CONTINUOUS
370
    -2
100
AcDbLine
 10
1959.25615022
 20
-1755.06393009
 30
0.0
 11
1958.91815368
 21
-1755.67278337
 31
0.0
  0
LINE
  5
3A1
100
AcDbEntity
  8
Sc.1_5
 62
     9
  6
CONTINUOUS
370
    -2
100
AcDbLine
 10
1954.63734766
 20
-1757.73059703
 30
0.0
 11
1954.29935112
 21
-1758.33945032
 31
0.0
  0
LINE
  5
3A2
100
AcDbEntity
  8
Sc.1_5
 62
     9
  6
CONTINUOUS
370
    -2
100
AcDbLine
 10
1950.0185451
 20
-1760.39726398
 30
0.0
 11
1949.68054856
 21
-1761.00611726
 31
0.0
  0
LINE
  5
3A3
100
AcDbEntity
  8
Sc.1_5
 62
     9
  6
CONTINUOUS
370
    -2
100
AcDbLine
 10
1945.39974253
 20
-1763.06393092
 30
0.0
 11
1945.06174599
 21
-1763.67278421
 31
0.0
  0
LINE
  5
3A4
100
AcDbEntity
  8
Sc.1_5
 62
     9
  6
CONTINUOUS
370
    -2
100
AcDbLine
 10
1940.78093997
 20
-1765.73059787
 30
0.0
 11
1940.44294343
 21
-1766.33945115
 31
0.0
  0
LINE
  5
3A5
100
AcDbEntity
  8
Sc.1_5
 62
     9
  6
CONTINUOUS
370
    -2
100
AcDbLine
 10
1936.16213741
 20
-1768.39726481
 30
0.0
 11
1935.82414087
 21
-1769.00611809
 31
0.0
  0
LINE
  5
3A6
100
AcDbEntity
  8
Sc.1_5
 62
     9
  6
CONTINUOUS
370
    -2
100
AcDbLine
 10
1998.03979254
 20
-1732.67218294
 30
0.0
 11
1998.73607322
 21
-1732.68389604
 31
0.0
  0
LINE
  5
3A7
100
AcDbEntity
  8
Sc.1_5
 62
     9
  6
CONTINUOUS
370
    -2
100
AcDbLine
 10
1993.42098976
 20
-1735.33884952
 30
0.0
 11
1994.11727044
 21
-1735.35056261
 31
0.0
  0
LINE
  5
3A8
100
AcDbEntity
  8
Sc.1_5
 62
     9
  6
CONTINUOUS
370
    -2
100
AcDbLine
 10
1988.80218699
 20
-1738.00551609
 30
0.0
 11
1989.49846767
 21
-1738.01722919
 31
0.0
  0
LINE
  5
3A9
100
AcDbEntity
  8
Sc.1_5
 62
     9
  6
CONTINUOUS
370
    -2
100
AcDbLine
 10
1984.18338421
 20
-1740.67218267
 30
0.0
 11
1984.87966489
 21
-1740.68389576
 31
0.0
  0
LINE
  5
3AA
100
AcDbEntity
  8
Sc.1_5
 62
     9
  6
CONTINUOUS
370
    -2
100
AcDbLine
 10
1979.56458144
 20
-1743.33884924
 30
0.0
 11
1980.26086212
 21
-1743.35056234
 31
0.0
  0
LINE
  5
3AB
100
AcDbEntity
  8
Sc.1_5
 62
     9
  6
CONTINUOUS
370
    -2
100
AcDbLine
 10
1974.94577866
 20
-1746.00551581
 30
0.0
 11
1975.64205934
 21
-1746.01722891
 31
0.0
  0
LINE
  5
3AC
100
AcDbEntity
  8
Sc.1_5
 62
     9
  6
CONTINUOUS
370
    -2
100
AcDbLine
 10
1970.32697588
 20
-1748.67218239
 30
0.0
 11
1971.02325657
 21
-1748.68389549
 31
0.0
  0
LINE
  5
3AD
100
AcDbEntity
  8
Sc.1_5
 62
     9
  6
CONTINUOUS
370
    -2
100
AcDbLine
 10
1965.70817311
 20
-1751.33884896
 30
0.0
 11
1966.40445379
 21
-1751.35056206
 31
0.0
  0
LINE
  5
3AE
100
AcDbEntity
  8
Sc.1_5
 62
     9
  6
CONTINUOUS
370
    -2
100
AcDbLine
 10
1961.08937033
 20
-1754.00551554
 30
0.0
 11
1961.78565102
 21
-1754.01722864
 31
0.0
  0
LINE
  5
3AF
100
AcDbEntity
  8
Sc.1_5
 62
     9
  6
CONTINUOUS
370
    -2
100
AcDbLine
 10
1956.47056756
 20
-1756.67218211
 30
0.0
 11
1957.16684824
 21
-1756.68389521
 31
0.0
  0
LINE
  5
3B0
100
AcDbEntity
  8
Sc.1_5
 62
     9
  6
CONTINUOUS
370
    -2
100
AcDbLine
 10
1951.85176478
 20
-1759.33884869
 30
0.0
 11
1952.54804546
 21
-1759.35056178
 31
0.0
  0
LINE
  5
3B1
100
AcDbEntity
  8
Sc.1_5
 62
     9
  6
CONTINUOUS
370
    -2
100
AcDbLine
 10
1947.23296201
 20
-1762.00551526
 30
0.0
 11
1947.92924269
 21
-1762.01722836
 31
0.0
  0
LINE
  5
3B2
100
AcDbEntity
  8
Sc.1_5
 62
     9
  6
CONTINUOUS
370
    -2
100
AcDbLine
 10
1942.61415923
 20
-1764.67218184
 30
0.0
 11
1943.31043991
 21
-1764.68389493
 31
0.0
  0
LINE
  5
3B3
100
AcDbEntity
  8
Sc.1_5
 62
     9
  6
CONTINUOUS
370
    -2
100
AcDbLine
 10
1937.99535646
 20
-1767.33884841
 30
0.0
 11
1938.69163714
 21
-1767.35056151
 31
0.0
  0
LINE
  5
3B4
100
AcDbEntity
  8
Sc.1_5
 62
     9
  6
CONTINUOUS
370
    -2
100
AcDbLine
 10
2008.4930487
 20
-1744.25803018
 30
0.0
 11
2008.15505216
 21
-1744.86688346
 31
0.0
  0
LINE
  5
3B5
100
AcDbEntity
  8
Sc.1_5
 62
     9
  6
CONTINUOUS
370
    -2
100
AcDbLine
 10
2003.87424614
 20
-1746.92469712
 30
0.0
 11
2003.5362496
 21
-1747.5335504
 31
0.0
  0
LINE
  5
3B6
100
AcDbEntity
  8
Sc.1_5
 62
     9
  6
CONTINUOUS
370
    -2
100
AcDbLine
 10
1999.25544357
 20
-1749.59136406
 30
0.0
 11
1998.91744703
 21
-1750.20021735
 31
0.0
  0
LINE
  5
3B7
100
AcDbEntity
  8
Sc.1_5
 62
     9
  6
CONTINUOUS
370
    -2
100
AcDbLine
 10
1994.63664101
 20
-1752.25803101
 30
0.0
 11
1994.29864447
 21
-1752.86688429
 31
0.0
  0
LINE
  5
3B8
100
AcDbEntity
  8
Sc.1_5
 62
     9
  6
CONTINUOUS
370
    -2
100
AcDbLine
 10
1990.01783845
 20
-1754.92469795
 30
0.0
 11
1989.67984191
 21
-1755.53355123
 31
0.0
  0
LINE
  5
3B9
100
AcDbEntity
  8
Sc.1_5
 62
     9
  6
CONTINUOUS
370
    -2
100
AcDbLine
 10
1985.39903589
 20
-1757.59136489
 30
0.0
 11
1985.06103935
 21
-1758.20021818
 31
0.0
  0
LINE
  5
3BA
100
AcDbEntity
  8
Sc.1_5
 62
     9
  6
CONTINUOUS
370
    -2
100
AcDbLine
 10
1980.78023333
 20
-1760.25803184
 30
0.0
 11
1980.44223678
 21
-1760.86688512
 31
0.0
  0
LINE
  5
3BB
100
AcDbEntity
  8
Sc.1_5
 62
     9
  6
CONTINUOUS
370
    -2
100
AcDbLine
 10
1976.16143076
 20
-1762.92469878
 30
0.0
 11
1975.82343422
 21
-1763.53355206
 31
0.0
  0
LINE
  5
3BC
100
AcDbEntity
  8
Sc.1_5
 62
     9
  6
CONTINUOUS
370
    -2
100
AcDbLine
 10
1971.5426282
 20
-1765.59136572
 30
0.0
 11
1971.20463166
 21
-1766.20021901
 31
0.0
  0
LINE
  5
3BD
100
AcDbEntity
  8
Sc.1_5
 62
     9
  6
CONTINUOUS
370
    -2
100
AcDbLine
 10
1966.92382564
 20
-1768.25803267
 30
0.0
 11
1966.5858291
 21
-1768.86688595
 31
0.0
  0
LINE
  5
3BE
100
AcDbEntity
  8
Sc.1_5
 62
     9
  6
CONTINUOUS
370
    -2
100
AcDbLine
 10
1962.30502308
 20
-1770.92469961
 30
0.0
 11
1961.96702654
 21
-1771.5335529
 31
0.0
  0
LINE
  5
3BF
100
AcDbEntity
  8
Sc.1_5
 62
     9
  6
CONTINUOUS
370
    -2
100
AcDbLine
 10
1957.68622051
 20
-1773.59136656
 30
0.0
 11
1957.34822397
 21
-1774.20021984
 31
0.0
  0
LINE
  5
3C0
100
AcDbEntity
  8
Sc.1_5
 62
     9
  6
CONTINUOUS
370
    -2
100
AcDbLine
 10
1953.06741795
 20
-1776.2580335
 30
0.0
 11
1952.72942141
 21
-1776.86688678
 31
0.0
  0
LINE
  5
3C1
100
AcDbEntity
  8
Sc.1_5
 62
     9
  6
CONTINUOUS
370
    -2
100
AcDbLine
 10
1948.44861539
 20
-1778.92470044
 30
0.0
 11
1948.11061885
 21
-1779.53355373
 31
0.0
  0
LINE
  5
3C2
100
AcDbEntity
  8
Sc.1_5
 62
     9
  6
CONTINUOUS
370
    -2
100
AcDbLine
 10
1943.82981283
 20
-1781.59136739
 30
0.0
 11
1943.49181629
 21
-1782.20022067
 31
0.0
  0
LINE
  5
3C3
100
AcDbEntity
  8
Sc.1_5
 62
     9
  6
CONTINUOUS
370
    -2
100
AcDbLine
 10
1946.28081358
 20
-1780.58999283
 30
0.0
 11
1945.5845329
 21
-1780.57827978
 31
0.0
  0
LINE
  5
3C4
100
AcDbEntity
  8
Sc.1_5
 62
     9
  6
CONTINUOUS
370
    -2
100
AcDbLine
 10
1950.89961618
 20
-1777.92332594
 30
0.0
 11
1950.2033355
 21
-1777.91161289
 31
0.0
  0
LINE
  5
3C5
100
AcDbEntity
  8
Sc.1_5
 62
     9
  6
CONTINUOUS
370
    -2
100
AcDbLine
 10
1955.51841878
 20
-1775.25665906
 30
0.0
 11
1954.8221381
 21
-1775.24494601
 31
0.0
  0
LINE
  5
3C6
100
AcDbEntity
  8
Sc.1_5
 62
     9
  6
CONTINUOUS
370
    -2
100
AcDbLine
 10
1960.13722138
 20
-1772.58999218
 30
0.0
 11
1959.4409407
 21
-1772.57827913
 31
0.0
  0
LINE
  5
3C7
100
AcDbEntity
  8
Sc.1_5
 62
     9
  6
CONTINUOUS
370
    -2
100
AcDbLine
 10
1964.75602397
 20
-1769.9233253
 30
0.0
 11
1964.05974329
 21
-1769.91161225
 31
0.0
  0
LINE
  5
3C8
100
AcDbEntity
  8
Sc.1_5
 62
     9
  6
CONTINUOUS
370
    -2
100
AcDbLine
 10
1969.37482657
 20
-1767.25665842
 30
0.0
 11
1968.67854589
 21
-1767.24494536
 31
0.0
  0
LINE
  5
3C9
100
AcDbEntity
  8
Sc.1_5
 62
     9
  6
CONTINUOUS
370
    -2
100
AcDbLine
 10
1973.99362917
 20
-1764.58999153
 30
0.0
 11
1973.29734849
 21
-1764.57827848
 31
0.0
  0
LINE
  5
3CA
100
AcDbEntity
  8
Sc.1_5
 62
     9
  6
CONTINUOUS
370
    -2
100
AcDbLine
 10
1978.61243177
 20
-1761.92332465
 30
0.0
 11
1977.91615109
 21
-1761.9116116
 31
0.0
  0
LINE
  5
3CB
100
AcDbEntity
  8
Sc.1_5
 62
     9
  6
CONTINUOUS
370
    -2
100
AcDbLine
 10
1983.23123437
 20
-1759.25665777
 30
0.0
 11
1982.53495368
 21
-1759.24494472
 31
0.0
  0
LINE
  5
3CC
100
AcDbEntity
  8
Sc.1_5
 62
     9
  6
CONTINUOUS
370
    -2
100
AcDbLine
 10
1987.85003696
 20
-1756.58999089
 30
0.0
 11
1987.15375628
 21
-1756.57827784
 31
0.0
  0
LINE
  5
3CD
100
AcDbEntity
  8
Sc.1_5
 62
     9
  6
CONTINUOUS
370
    -2
100
AcDbLine
 10
1992.46883956
 20
-1753.923324
 30
0.0
 11
1991.77255888
 21
-1753.91161095
 31
0.0
  0
LINE
  5
3CE
100
AcDbEntity
  8
Sc.1_5
 62
     9
  6
CONTINUOUS
370
    -2
100
AcDbLine
 10
1997.08764216
 20
-1751.25665712
 30
0.0
 11
1996.39136148
 21
-1751.24494407
 31
0.0
  0
LINE
  5
3CF
100
AcDbEntity
  8
Sc.1_5
 62
     9
  6
CONTINUOUS
370
    -2
100
AcDbLine
 10
2001.70644476
 20
-1748.58999024
 30
0.0
 11
2001.01016407
 21
-1748.57827719
 31
0.0
  0
LINE
  5
3D0
100
AcDbEntity
  8
Sc.1_5
 62
     9
  6
CONTINUOUS
370
    -2
100
AcDbLine
 10
2006.32524735
 20
-1745.92332336
 30
0.0
 11
2005.62896667
 21
-1745.91161031
 31
0.0
  0
LINE
  5
3D1
100
AcDbEntity
  8
Sc.1_5
 62
     9
  6
CONTINUOUS
370
    -2
100
AcDbLine
 10
2000.48737799
 20
-1731.67278094
 30
0.0
 11
2000.3341037
 21
-1732.24480838
 31
0.0
  0
LINE
  5
3D2
100
AcDbEntity
  8
Sc.1_5
 62
     9
  6
CONTINUOUS
370
    -2
100
AcDbLine
 10
1995.86857499
 20
-1734.33944809
 30
0.0
 11
1995.7153007
 21
-1734.91147554
 31
0.0
  0
LINE
  5
3D3
100
AcDbEntity
  8
Sc.1_5
 62
     9
  6
CONTINUOUS
370
    -2
100
AcDbLine
 10
1991.24977199
 20
-1737.00611525
 30
0.0
 11
1991.0964977
 21
-1737.5781427
 31
0.0
  0
LINE
  5
3D4
100
AcDbEntity
  8
Sc.1_5
 62
     9
  6
CONTINUOUS
370
    -2
100
AcDbLine
 10
1986.63096899
 20
-1739.6727824
 30
0.0
 11
1986.4776947
 21
-1740.24480985
 31
0.0
  0
LINE
  5
3D5
100
AcDbEntity
  8
Sc.1_5
 62
     9
  6
CONTINUOUS
370
    -2
100
AcDbLine
 10
1982.01216599
 20
-1742.33944956
 30
0.0
 11
1981.8588917
 21
-1742.91147701
 31
0.0
  0
LINE
  5
3D6
100
AcDbEntity
  8
Sc.1_5
 62
     9
  6
CONTINUOUS
370
    -2
100
AcDbLine
 10
1977.39336299
 20
-1745.00611671
 30
0.0
 11
1977.2400887
 21
-1745.57814416
 31
0.0
  0
LINE
  5
3D7
100
AcDbEntity
  8
Sc.1_5
 62
     9
  6
CONTINUOUS
370
    -2
100
AcDbLine
 10
1972.77455999
 20
-1747.67278387
 30
0.0
 11
1972.6212857
 21
-1748.24481132
 31
0.0
  0
LINE
  5
3D8
100
AcDbEntity
  8
Sc.1_5
 62
     9
  6
CONTINUOUS
370
    -2
100
AcDbLine
 10
1968.15575699
 20
-1750.33945102
 30
0.0
 11
1968.0024827
 21
-1750.91147847
 31
0.0
  0
LINE
  5
3D9
100
AcDbEntity
  8
Sc.1_5
 62
     9
  6
CONTINUOUS
370
    -2
100
AcDbLine
 10
1963.53695399
 20
-1753.00611818
 30
0.0
 11
1963.3836797
 21
-1753.57814563
 31
0.0
  0
LINE
  5
3DA
100
AcDbEntity
  8
Sc.1_5
 62
     9
  6
CONTINUOUS
370
    -2
100
AcDbLine
 10
1958.91815099
 20
-1755.67278533
 30
0.0
 11
1958.7648767
 21
-1756.24481278
 31
0.0
  0
LINE
  5
3DB
100
AcDbEntity
  8
Sc.1_5
 62
     9
  6
CONTINUOUS
370
    -2
100
AcDbLine
 10
1954.29934799
 20
-1758.33945249
 30
0.0
 11
1954.1460737
 21
-1758.91147994
 31
0.0
  0
LINE
  5
3DC
100
AcDbEntity
  8
Sc.1_5
 62
     9
  6
CONTINUOUS
370
    -2
100
AcDbLine
 10
1949.68054499
 20
-1761.00611964
 30
0.0
 11
1949.5272707
 21
-1761.57814709
 31
0.0
  0
LINE
  5
3DD
100
AcDbEntity
  8
Sc.1_5
 62
     9
  6
CONTINUOUS
370
    -2
100
AcDbLine
 10
1945.06174199
 20
-1763.6727868
 30
0.0
 11
1944.9084677
 21
-1764.24481425
 31
0.0
  0
LINE
  5
3DE
100
AcDbEntity
  8
Sc.1_5
 62
     9
  6
CONTINUOUS
370
    -2
100
AcDbLine
 10
1940.44293899
 20
-1766.33945396
 30
0.0
 11
1940.2896647
 21
-1766.9114814
 31
0.0
  0
LINE
  5
3DF
100
AcDbEntity
  8
Sc.1_5
 62
     9
  6
CONTINUOUS
370
    -2
100
AcDbLine
 10
1935.82413599
 20
-1769.00612111
 30
0.0
 11
1935.6708617
 21
-1769.57814856
 31
0.0
  0
LINE
  5
3E0
100
AcDbEntity
  8
Sc.1_5
 62
     9
  6
CONTINUOUS
370
    -2
100
AcDbLine
 10
1998.73265548
 20
-1732.68587045
 30
0.0
 11
1999.30468292
 21
-1732.83914475
 31
0.0
  0
LINE
  5
3E1
100
AcDbEntity
  8
Sc.1_5
 62
     9
  6
CONTINUOUS
370
    -2
100
AcDbLine
 10
1994.11385248
 20
-1735.35253761
 30
0.0
 11
1994.68587992
 21
-1735.5058119
 31
0.0
  0
LINE
  5
3E2
100
AcDbEntity
  8
Sc.1_5
 62
     9
  6
CONTINUOUS
370
    -2
100
AcDbLine
 10
1989.49504948
 20
-1738.01920476
 30
0.0
 11
1990.06707692
 21
-1738.17247906
 31
0.0
  0
LINE
  5
3E3
100
AcDbEntity
  8
Sc.1_5
 62
     9
  6
CONTINUOUS
370
    -2
100
AcDbLine
 10
1984.87624648
 20
-1740.68587192
 30
0.0
 11
1985.44827392
 21
-1740.83914621
 31
0.0
  0
LINE
  5
3E4
100
AcDbEntity
  8
Sc.1_5
 62
     9
  6
CONTINUOUS
370
    -2
100
AcDbLine
 10
1980.25744348
 20
-1743.35253907
 30
0.0
 11
1980.82947092
 21
-1743.50581337
 31
0.0
  0
LINE
  5
3E5
100
AcDbEntity
  8
Sc.1_5
 62
     9
  6
CONTINUOUS
370
    -2
100
AcDbLine
 10
1975.63864048
 20
-1746.01920623
 30
0.0
 11
1976.21066792
 21
-1746.17248052
 31
0.0
  0
LINE
  5
3E6
100
AcDbEntity
  8
Sc.1_5
 62
     9
  6
CONTINUOUS
370
    -2
100
AcDbLine
 10
1971.01983748
 20
-1748.68587339
 30
0.0
 11
1971.59186492
 21
-1748.83914768
 31
0.0
  0
LINE
  5
3E7
100
AcDbEntity
  8
Sc.1_5
 62
     9
  6
CONTINUOUS
370
    -2
100
AcDbLine
 10
1966.40103448
 20
-1751.35254054
 30
0.0
 11
1966.97306192
 21
-1751.50581483
 31
0.0
  0
LINE
  5
3E8
100
AcDbEntity
  8
Sc.1_5
 62
     9
  6
CONTINUOUS
370
    -2
100
AcDbLine
 10
1961.78223148
 20
-1754.0192077
 30
0.0
 11
1962.35425892
 21
-1754.17248199
 31
0.0
  0
LINE
  5
3E9
100
AcDbEntity
  8
Sc.1_5
 62
     9
  6
CONTINUOUS
370
    -2
100
AcDbLine
 10
1957.16342848
 20
-1756.68587485
 30
0.0
 11
1957.73545592
 21
-1756.83914914
 31
0.0
  0
LINE
  5
3EA
100
AcDbEntity
  8
Sc.1_5
 62
     9
  6
CONTINUOUS
370
    -2
100
AcDbLine
 10
1952.54462548
 20
-1759.35254201
 30
0.0
 11
1953.11665293
 21
-1759.5058163
 31
0.0
  0
LINE
  5
3EB
100
AcDbEntity
  8
Sc.1_5
 62
     9
  6
CONTINUOUS
370
    -2
100
AcDbLine
 10
1947.92582248
 20
-1762.01920916
 30
0.0
 11
1948.49784993
 21
-1762.17248345
 31
0.0
  0
LINE
  5
3EC
100
AcDbEntity
  8
Sc.1_5
 62
     9
  6
CONTINUOUS
370
    -2
100
AcDbLine
 10
1943.30701948
 20
-1764.68587632
 30
0.0
 11
1943.87904693
 21
-1764.83915061
 31
0.0
  0
LINE
  5
3ED
100
AcDbEntity
  8
Sc.1_5
 62
     9
  6
CONTINUOUS
370
    -2
100
AcDbLine
 10
1938.68821648
 20
-1767.35254347
 30
0.0
 11
1939.26024393
 21
-1767.50581777
 31
0.0
  0
LINE
  5
3EE
100
AcDbEntity
  8
Sc.1_5
 62
     9
  6
CONTINUOUS
370
    -2
100
AcDbLine
 10
2008.64632285
 20
-1743.68600468
 30
0.0
 11
2008.49304856
 21
-1744.25803213
 31
0.0
  0
LINE
  5
3EF
100
AcDbEntity
  8
Sc.1_5
 62
     9
  6
CONTINUOUS
370
    -2
100
AcDbLine
 10
2004.02751985
 20
-1746.35267184
 30
0.0
 11
2003.87424556
 21
-1746.92469929
 31
0.0
  0
LINE
  5
3F0
100
AcDbEntity
  8
Sc.1_5
 62
     9
  6
CONTINUOUS
370
    -2
100
AcDbLine
 10
1999.40871685
 20
-1749.01933899
 30
0.0
 11
1999.25544256
 21
-1749.59136644
 31
0.0
  0
LINE
  5
3F1
100
AcDbEntity
  8
Sc.1_5
 62
     9
  6
CONTINUOUS
370
    -2
100
AcDbLine
 10
1994.78991385
 20
-1751.68600615
 30
0.0
 11
1994.63663956
 21
-1752.2580336
 31
0.0
  0
LINE
  5
3F2
100
AcDbEntity
  8
Sc.1_5
 62
     9
  6
CONTINUOUS
370
    -2
100
AcDbLine
 10
1990.17111085
 20
-1754.3526733
 30
0.0
 11
1990.01783656
 21
-1754.92470075
 31
0.0
  0
LINE
  5
3F3
100
AcDbEntity
  8
Sc.1_5
 62
     9
  6
CONTINUOUS
370
    -2
100
AcDbLine
 10
1985.55230785
 20
-1757.01934046
 30
0.0
 11
1985.39903356
 21
-1757.59136791
 31
0.0
  0
LINE
  5
3F4
100
AcDbEntity
  8
Sc.1_5
 62
     9
  6
CONTINUOUS
370
    -2
100
AcDbLine
 10
1980.93350485
 20
-1759.68600761
 30
0.0
 11
1980.78023056
 21
-1760.25803506
 31
0.0
  0
LINE
  5
3F5
100
AcDbEntity
  8
Sc.1_5
 62
     9
  6
CONTINUOUS
370
    -2
100
AcDbLine
 10
1976.31470185
 20
-1762.35267477
 30
0.0
 11
1976.16142756
 21
-1762.92470222
 31
0.0
  0
LINE
  5
3F6
100
AcDbEntity
  8
Sc.1_5
 62
     9
  6
CONTINUOUS
370
    -2
100
AcDbLine
 10
1971.69589885
 20
-1765.01934193
 30
0.0
 11
1971.54262456
 21
-1765.59136937
 31
0.0
  0
LINE
  5
3F7
100
AcDbEntity
  8
Sc.1_5
 62
     9
  6
CONTINUOUS
370
    -2
100
AcDbLine
 10
1967.07709585
 20
-1767.68600908
 30
0.0
 11
1966.92382156
 21
-1768.25803653
 31
0.0
  0
LINE
  5
3F8
100
AcDbEntity
  8
Sc.1_5
 62
     9
  6
CONTINUOUS
370
    -2
100
AcDbLine
 10
1962.45829285
 20
-1770.35267624
 30
0.0
 11
1962.30501856
 21
-1770.92470368
 31
0.0
  0
LINE
  5
3F9
100
AcDbEntity
  8
Sc.1_5
 62
     9
  6
CONTINUOUS
370
    -2
100
AcDbLine
 10
1957.83948985
 20
-1773.01934339
 30
0.0
 11
1957.68621556
 21
-1773.59137084
 31
0.0
  0
LINE
  5
3FA
100
AcDbEntity
  8
Sc.1_5
 62
     9
  6
CONTINUOUS
370
    -2
100
AcDbLine
 10
1953.22068685
 20
-1775.68601055
 30
0.0
 11
1953.06741256
 21
-1776.25803799
 31
0.0
  0
LINE
  5
3FB
100
AcDbEntity
  8
Sc.1_5
 62
     9
  6
CONTINUOUS
370
    -2
100
AcDbLine
 10
1948.60188385
 20
-1778.3526777
 30
0.0
 11
1948.44860956
 21
-1778.92470515
 31
0.0
  0
LINE
  5
3FC
100
AcDbEntity
  8
Sc.1_5
 62
     9
  6
CONTINUOUS
370
    -2
100
AcDbLine
 10
1943.98308085
 20
-1781.01934486
 30
0.0
 11
1943.82980656
 21
-1781.59137231
 31
0.0
  0
LINE
  5
3FD
100
AcDbEntity
  8
Sc.1_5
 62
     9
  6
CONTINUOUS
370
    -2
100
AcDbLine
 10
1945.58452773
 20
-1780.57828169
 30
0.0
 11
1945.01250028
 21
-1780.4250074
 31
0.0
  0
LINE
  5
3FE
100
AcDbEntity
  8
Sc.1_5
 62
     9
  6
CONTINUOUS
370
    -2
100
AcDbLine
 10
1950.20333073
 20
-1777.91161454
 30
0.0
 11
1949.63130328
 21
-1777.75834024
 31
0.0
  0
LINE
  5
3FF
100
AcDbEntity
  8
Sc.1_5
 62
     9
  6
CONTINUOUS
370
    -2
100
AcDbLine
 10
1954.82213373
 20
-1775.24494738
 30
0.0
 11
1954.25010628
 21
-1775.09167309
 31
0.0
  0
LINE
  5
400
100
AcDbEntity
  8
Sc.1_5
 62
     9
  6
CONTINUOUS
370
    -2
100
AcDbLine
 10
1959.44093673
 20
-1772.57828023
 30
0.0
 11
1958.86890928
 21
-1772.42500593
 31
0.0
  0
LINE
  5
401
100
AcDbEntity
  8
Sc.1_5
 62
     9
  6
CONTINUOUS
370
    -2
100
AcDbLine
 10
1964.05973973
 20
-1769.91161307
 30
0.0
 11
1963.48771228
 21
-1769.75833878
 31
0.0
  0
LINE
  5
402
100
AcDbEntity
  8
Sc.1_5
 62
     9
  6
CONTINUOUS
370
    -2
100
AcDbLine
 10
1968.67854273
 20
-1767.24494592
 30
0.0
 11
1968.10651528
 21
-1767.09167162
 31
0.0
  0
LINE
  5
403
100
AcDbEntity
  8
Sc.1_5
 62
     9
  6
CONTINUOUS
370
    -2
100
AcDbLine
 10
1973.29734573
 20
-1764.57827876
 30
0.0
 11
1972.72531828
 21
-1764.42500447
 31
0.0
  0
LINE
  5
404
100
AcDbEntity
  8
Sc.1_5
 62
     9
  6
CONTINUOUS
370
    -2
100
AcDbLine
 10
1977.91614873
 20
-1761.9116116
 30
0.0
 11
1977.34412128
 21
-1761.75833731
 31
0.0
  0
LINE
  5
405
100
AcDbEntity
  8
Sc.1_5
 62
     9
  6
CONTINUOUS
370
    -2
100
AcDbLine
 10
1982.53495173
 20
-1759.24494445
 30
0.0
 11
1981.96292428
 21
-1759.09167016
 31
0.0
  0
LINE
  5
406
100
AcDbEntity
  8
Sc.1_5
 62
     9
  6
CONTINUOUS
370
    -2
100
AcDbLine
 10
1987.15375473
 20
-1756.57827729
 30
0.0
 11
1986.58172728
 21
-1756.425003
 31
0.0
  0
LINE
  5
407
100
AcDbEntity
  8
Sc.1_5
 62
     9
  6
CONTINUOUS
370
    -2
100
AcDbLine
 10
1991.77255773
 20
-1753.91161014
 30
0.0
 11
1991.20053028
 21
-1753.75833585
 31
0.0
  0
LINE
  5
408
100
AcDbEntity
  8
Sc.1_5
 62
     9
  6
CONTINUOUS
370
    -2
100
AcDbLine
 10
1996.39136073
 20
-1751.24494298
 30
0.0
 11
1995.81933328
 21
-1751.09166869
 31
0.0
  0
LINE
  5
409
100
AcDbEntity
  8
Sc.1_5
 62
     9
  6
CONTINUOUS
370
    -2
100
AcDbLine
 10
2001.01016373
 20
-1748.57827583
 30
0.0
 11
2000.43813628
 21
-1748.42500154
 31
0.0
  0
LINE
  5
40A
100
AcDbEntity
  8
Sc.1_5
 62
     9
  6
CONTINUOUS
370
    -2
100
AcDbLine
 10
2005.62896673
 20
-1745.91160867
 30
0.0
 11
2005.05693928
 21
-1745.75833438
 31
0.0
  0
LINE
  5
40B
100
AcDbEntity
  8
Sc.1_5
 62
     9
  6
CONTINUOUS
370
    -2
100
AcDbLine
 10
2000.33410271
 20
-1732.24480763
 30
0.0
 11
2000.29412487
 21
-1732.86468625
 31
0.0
  0
LINE
  5
40C
100
AcDbEntity
  8
Sc.1_5
 62
     9
  6
CONTINUOUS
370
    -2
100
AcDbLine
 10
1995.71530056
 20
-1734.91147499
 30
0.0
 11
1995.67532272
 21
-1735.53135361
 31
0.0
  0
LINE
  5
40D
100
AcDbEntity
  8
Sc.1_5
 62
     9
  6
CONTINUOUS
370
    -2
100
AcDbLine
 10
1991.09649841
 20
-1737.57814236
 30
0.0
 11
1991.05652056
 21
-1738.19802098
 31
0.0
  0
LINE
  5
40E
100
AcDbEntity
  8
Sc.1_5
 62
     9
  6
CONTINUOUS
370
    -2
100
AcDbLine
 10
1986.47769625
 20
-1740.24480972
 30
0.0
 11
1986.43771841
 21
-1740.86468834
 31
0.0
  0
LINE
  5
40F
100
AcDbEntity
  8
Sc.1_5
 62
     9
  6
CONTINUOUS
370
    -2
100
AcDbLine
 10
1981.8588941
 20
-1742.91147708
 30
0.0
 11
1981.81891626
 21
-1743.53135571
 31
0.0
  0
LINE
  5
410
100
AcDbEntity
  8
Sc.1_5
 62
     9
  6
CONTINUOUS
370
    -2
100
AcDbLine
 10
1977.24009195
 20
-1745.57814445
 30
0.0
 11
1977.2001141
 21
-1746.19802307
 31
0.0
  0
LINE
  5
411
100
AcDbEntity
  8
Sc.1_5
 62
     9
  6
CONTINUOUS
370
    -2
100
AcDbLine
 10
1972.62128979
 20
-1748.24481181
 30
0.0
 11
1972.58131195
 21
-1748.86469043
 31
0.0
  0
LINE
  5
412
100
AcDbEntity
  8
Sc.1_5
 62
     9
  6
CONTINUOUS
370
    -2
100
AcDbLine
 10
1968.00248764
 20
-1750.91147918
 30
0.0
 11
1967.9625098
 21
-1751.5313578
 31
0.0
  0
LINE
  5
413
100
AcDbEntity
  8
Sc.1_5
 62
     9
  6
CONTINUOUS
370
    -2
100
AcDbLine
 10
1963.38368549
 20
-1753.57814654
 30
0.0
 11
1963.34370764
 21
-1754.19802516
 31
0.0
  0
LINE
  5
414
100
AcDbEntity
  8
Sc.1_5
 62
     9
  6
CONTINUOUS
370
    -2
100
AcDbLine
 10
1958.76488333
 20
-1756.2448139
 30
0.0
 11
1958.72490549
 21
-1756.86469253
 31
0.0
  0
LINE
  5
415
100
AcDbEntity
  8
Sc.1_5
 62
     9
  6
CONTINUOUS
370
    -2
100
AcDbLine
 10
1954.14608118
 20
-1758.91148127
 30
0.0
 11
1954.10610334
 21
-1759.53135989
 31
0.0
  0
LINE
  5
416
100
AcDbEntity
  8
Sc.1_5
 62
     9
  6
CONTINUOUS
370
    -2
100
AcDbLine
 10
1949.52727902
 20
-1761.57814863
 30
0.0
 11
1949.48730118
 21
-1762.19802725
 31
0.0
  0
LINE
  5
417
100
AcDbEntity
  8
Sc.1_5
 62
     9
  6
CONTINUOUS
370
    -2
100
AcDbLine
 10
1944.90847687
 20
-1764.244816
 30
0.0
 11
1944.86849903
 21
-1764.86469462
 31
0.0
  0
LINE
  5
418
100
AcDbEntity
  8
Sc.1_5
 62
     9
  6
CONTINUOUS
370
    -2
100
AcDbLine
 10
1940.28967472
 20
-1766.91148336
 30
0.0
 11
1940.24969687
 21
-1767.53136198
 31
0.0
  0
LINE
  5
419
100
AcDbEntity
  8
Sc.1_5
 62
     9
  6
CONTINUOUS
370
    -2
100
AcDbLine
 10
1935.67087256
 20
-1769.57815072
 30
0.0
 11
1935.65447977
 21
-1769.83233012
 31
0.0
  0
LINE
  5
41A
100
AcDbEntity
  8
Sc.1_5
 62
     9
  6
CONTINUOUS
370
    -2
100
AcDbLine
 10
1999.30468283
 20
-1732.83914237
 30
0.0
 11
1999.86150236
 21
-1733.11445989
 31
0.0
  0
LINE
  5
41B
100
AcDbEntity
  8
Sc.1_5
 62
     9
  6
CONTINUOUS
370
    -2
100
AcDbLine
 10
1994.68587989
 20
-1735.50580838
 30
0.0
 11
1995.24269943
 21
-1735.7811259
 31
0.0
  0
LINE
  5
41C
100
AcDbEntity
  8
Sc.1_5
 62
     9
  6
CONTINUOUS
370
    -2
100
AcDbLine
 10
1990.06707696
 20
-1738.17247439
 30
0.0
 11
1990.62389649
 21
-1738.44779191
 31
0.0
  0
LINE
  5
41D
100
AcDbEntity
  8
Sc.1_5
 62
     9
  6
CONTINUOUS
370
    -2
100
AcDbLine
 10
1985.44827402
 20
-1740.8391404
 30
0.0
 11
1986.00509356
 21
-1741.11445792
 31
0.0
  0
LINE
  5
41E
100
AcDbEntity
  8
Sc.1_5
 62
     9
  6
CONTINUOUS
370
    -2
100
AcDbLine
 10
1980.82947109
 20
-1743.50580641
 30
0.0
 11
1981.38629062
 21
-1743.78112393
 31
0.0
  0
LINE
  5
41F
100
AcDbEntity
  8
Sc.1_5
 62
     9
  6
CONTINUOUS
370
    -2
100
AcDbLine
 10
1976.21066815
 20
-1746.17247242
 30
0.0
 11
1976.76748769
 21
-1746.44778994
 31
0.0
  0
LINE
  5
420
100
AcDbEntity
  8
Sc.1_5
 62
     9
  6
CONTINUOUS
370
    -2
100
AcDbLine
 10
1971.59186522
 20
-1748.83913843
 30
0.0
 11
1972.14868475
 21
-1749.11445596
 31
0.0
  0
LINE
  5
421
100
AcDbEntity
  8
Sc.1_5
 62
     9
  6
CONTINUOUS
370
    -2
100
AcDbLine
 10
1966.97306228
 20
-1751.50580445
 30
0.0
 11
1967.52988182
 21
-1751.78112197
 31
0.0
  0
LINE
  5
422
100
AcDbEntity
  8
Sc.1_5
 62
     9
  6
CONTINUOUS
370
    -2
100
AcDbLine
 10
1962.35425935
 20
-1754.17247046
 30
0.0
 11
1962.91107888
 21
-1754.44778798
 31
0.0
  0
LINE
  5
423
100
AcDbEntity
  8
Sc.1_5
 62
     9
  6
CONTINUOUS
370
    -2
100
AcDbLine
 10
1957.73545641
 20
-1756.83913647
 30
0.0
 11
1958.29227595
 21
-1757.11445399
 31
0.0
  0
LINE
  5
424
100
AcDbEntity
  8
Sc.1_5
 62
     9
  6
CONTINUOUS
370
    -2
100
AcDbLine
 10
1953.11665348
 20
-1759.50580248
 30
0.0
 11
1953.67347301
 21
-1759.78112
 31
0.0
  0
LINE
  5
425
100
AcDbEntity
  8
Sc.1_5
 62
     9
  6
CONTINUOUS
370
    -2
100
AcDbLine
 10
1948.49785054
 20
-1762.17246849
 30
0.0
 11
1949.05467008
 21
-1762.44778601
 31
0.0
  0
LINE
  5
426
100
AcDbEntity
  8
Sc.1_5
 62
     9
  6
CONTINUOUS
370
    -2
100
AcDbLine
 10
1943.87904761
 20
-1764.8391345
 30
0.0
 11
1944.43586714
 21
-1765.11445202
 31
0.0
  0
LINE
  5
427
100
AcDbEntity
  8
Sc.1_5
 62
     9
  6
CONTINUOUS
370
    -2
100
AcDbLine
 10
1939.26024467
 20
-1767.50580051
 30
0.0
 11
1939.81706421
 21
-1767.78111803
 31
0.0
  0
LINE
  5
428
100
AcDbEntity
  8
Sc.1_5
 62
     9
  6
CONTINUOUS
370
    -2
100
AcDbLine
 10
2008.68630061
 20
-1743.06612502
 30
0.0
 11
2008.64632276
 21
-1743.68600364
 31
0.0
  0
LINE
  5
429
100
AcDbEntity
  8
Sc.1_5
 62
     9
  6
CONTINUOUS
370
    -2
100
AcDbLine
 10
2004.06749845
 20
-1745.73279238
 30
0.0
 11
2004.02752061
 21
-1746.352671
 31
0.0
  0
LINE
  5
42A
100
AcDbEntity
  8
Sc.1_5
 62
     9
  6
CONTINUOUS
370
    -2
100
AcDbLine
 10
1999.4486963
 20
-1748.39945975
 30
0.0
 11
1999.40871846
 21
-1749.01933837
 31
0.0
  0
LINE
  5
42B
100
AcDbEntity
  8
Sc.1_5
 62
     9
  6
CONTINUOUS
370
    -2
100
AcDbLine
 10
1994.82989414
 20
-1751.06612711
 30
0.0
 11
1994.7899163
 21
-1751.68600573
 31
0.0
  0
LINE
  5
42C
100
AcDbEntity
  8
Sc.1_5
 62
     9
  6
CONTINUOUS
370
    -2
100
AcDbLine
 10
1990.21109199
 20
-1753.73279447
 30
0.0
 11
1990.17111415
 21
-1754.3526731
 31
0.0
  0
LINE
  5
42D
100
AcDbEntity
  8
Sc.1_5
 62
     9
  6
CONTINUOUS
370
    -2
100
AcDbLine
 10
1985.59228984
 20
-1756.39946184
 30
0.0
 11
1985.55231199
 21
-1757.01934046
 31
0.0
  0
LINE
  5
42E
100
AcDbEntity
  8
Sc.1_5
 62
     9
  6
CONTINUOUS
370
    -2
100
AcDbLine
 10
1980.97348768
 20
-1759.0661292
 30
0.0
 11
1980.93350984
 21
-1759.68600782
 31
0.0
  0
LINE
  5
42F
100
AcDbEntity
  8
Sc.1_5
 62
     9
  6
CONTINUOUS
370
    -2
100
AcDbLine
 10
1976.35468553
 20
-1761.73279657
 30
0.0
 11
1976.31470769
 21
-1762.35267519
 31
0.0
  0
LINE
  5
430
100
AcDbEntity
  8
Sc.1_5
 62
     9
  6
CONTINUOUS
370
    -2
100
AcDbLine
 10
1971.73588338
 20
-1764.39946393
 30
0.0
 11
1971.69590553
 21
-1765.01934255
 31
0.0
  0
LINE
  5
431
100
AcDbEntity
  8
Sc.1_5
 62
     9
  6
CONTINUOUS
370
    -2
100
AcDbLine
 10
1967.11708122
 20
-1767.06613129
 30
0.0
 11
1967.07710338
 21
-1767.68600992
 31
0.0
  0
LINE
  5
432
100
AcDbEntity
  8
Sc.1_5
 62
     9
  6
CONTINUOUS
370
    -2
100
AcDbLine
 10
1962.49827907
 20
-1769.73279866
 30
0.0
 11
1962.45830123
 21
-1770.35267728
 31
0.0
  0
LINE
  5
433
100
AcDbEntity
  8
Sc.1_5
 62
     9
  6
CONTINUOUS
370
    -2
100
AcDbLine
 10
1957.87947692
 20
-1772.39946602
 30
0.0
 11
1957.83949907
 21
-1773.01934464
 31
0.0
  0
LINE
  5
434
100
AcDbEntity
  8
Sc.1_5
 62
     9
  6
CONTINUOUS
370
    -2
100
AcDbLine
 10
1953.26067476
 20
-1775.06613339
 30
0.0
 11
1953.22069692
 21
-1775.68601201
 31
0.0
  0
LINE
  5
435
100
AcDbEntity
  8
Sc.1_5
 62
     9
  6
CONTINUOUS
370
    -2
100
AcDbLine
 10
1948.64187261
 20
-1777.73280075
 30
0.0
 11
1948.60189477
 21
-1778.35267937
 31
0.0
  0
LINE
  5
436
100
AcDbEntity
  8
Sc.1_5
 62
     9
  6
CONTINUOUS
370
    -2
100
AcDbLine
 10
1944.02307046
 20
-1780.39946811
 30
0.0
 11
1943.98309261
 21
-1781.01934673
 31
0.0
  0
LINE
  5
437
100
AcDbEntity
  8
Sc.1_5
 62
     9
  6
CONTINUOUS
370
    -2
100
AcDbLine
 10
1945.012504
 20
-1780.42499806
 30
0.0
 11
1944.45568445
 21
-1780.14968058
 31
0.0
  0
LINE
  5
438
100
AcDbEntity
  8
Sc.1_5
 62
     9
  6
CONTINUOUS
370
    -2
100
AcDbLine
 10
1949.63130676
 20
-1777.75833175
 30
0.0
 11
1949.0744872
 21
-1777.48301426
 31
0.0
  0
LINE
  5
439
100
AcDbEntity
  8
Sc.1_5
 62
     9
  6
CONTINUOUS
370
    -2
100
AcDbLine
 10
1954.25010952
 20
-1775.09166543
 30
0.0
 11
1953.69328996
 21
-1774.81634794
 31
0.0
  0
LINE
  5
43A
100
AcDbEntity
  8
Sc.1_5
 62
     9
  6
CONTINUOUS
370
    -2
100
AcDbLine
 10
1958.86891227
 20
-1772.42499911
 30
0.0
 11
1958.31209272
 21
-1772.14968163
 31
0.0
  0
LINE
  5
43B
100
AcDbEntity
  8
Sc.1_5
 62
     9
  6
CONTINUOUS
370
    -2
100
AcDbLine
 10
1963.48771503
 20
-1769.75833279
 30
0.0
 11
1962.93089548
 21
-1769.48301531
 31
0.0
  0
LINE
  5
43C
100
AcDbEntity
  8
Sc.1_5
 62
     9
  6
CONTINUOUS
370
    -2
100
AcDbLine
 10
1968.10651779
 20
-1767.09166647
 30
0.0
 11
1967.54969823
 21
-1766.81634899
 31
0.0
  0
LINE
  5
43D
100
AcDbEntity
  8
Sc.1_5
 62
     9
  6
CONTINUOUS
370
    -2
100
AcDbLine
 10
1972.72532054
 20
-1764.42500015
 30
0.0
 11
1972.16850099
 21
-1764.14968267
 31
0.0
  0
LINE
  5
43E
100
AcDbEntity
  8
Sc.1_5
 62
     9
  6
CONTINUOUS
370
    -2
100
AcDbLine
 10
1977.3441233
 20
-1761.75833384
 30
0.0
 11
1976.78730375
 21
-1761.48301635
 31
0.0
  0
LINE
  5
43F
100
AcDbEntity
  8
Sc.1_5
 62
     9
  6
CONTINUOUS
370
    -2
100
AcDbLine
 10
1981.96292606
 20
-1759.09166752
 30
0.0
 11
1981.4061065
 21
-1758.81635004
 31
0.0
  0
LINE
  5
440
100
AcDbEntity
  8
Sc.1_5
 62
     9
  6
CONTINUOUS
370
    -2
100
AcDbLine
 10
1986.58172882
 20
-1756.4250012
 30
0.0
 11
1986.02490926
 21
-1756.14968372
 31
0.0
  0
LINE
  5
441
100
AcDbEntity
  8
Sc.1_5
 62
     9
  6
CONTINUOUS
370
    -2
100
AcDbLine
 10
1991.20053157
 20
-1753.75833488
 30
0.0
 11
1990.64371202
 21
-1753.4830174
 31
0.0
  0
LINE
  5
442
100
AcDbEntity
  8
Sc.1_5
 62
     9
  6
CONTINUOUS
370
    -2
100
AcDbLine
 10
1995.81933433
 20
-1751.09166856
 30
0.0
 11
1995.26251478
 21
-1750.81635108
 31
0.0
  0
LINE
  5
443
100
AcDbEntity
  8
Sc.1_5
 62
     9
  6
CONTINUOUS
370
    -2
100
AcDbLine
 10
2000.43813709
 20
-1748.42500225
 30
0.0
 11
1999.88131753
 21
-1748.14968476
 31
0.0
  0
LINE
  5
444
100
AcDbEntity
  8
Sc.1_5
 62
     9
  6
CONTINUOUS
370
    -2
100
AcDbLine
 10
2005.05693985
 20
-1745.75833593
 30
0.0
 11
2004.50012029
 21
-1745.48301844
 31
0.0
  0
LINE
  5
445
100
AcDbEntity
  8
Sc.1_5
 62
     9
  6
CONTINUOUS
370
    -2
100
AcDbLine
 10
2000.29412444
 20
-1732.86468638
 30
0.0
 11
2000.45247502
 21
-1733.63850653
 31
0.0
  0
LINE
  5
446
100
AcDbEntity
  8
Sc.1_5
 62
     9
  6
CONTINUOUS
370
    -2
100
AcDbLine
 10
1995.67532179
 20
-1735.53135365
 30
0.0
 11
1995.83367237
 21
-1736.30517379
 31
0.0
  0
LINE
  5
447
100
AcDbEntity
  8
Sc.1_5
 62
     9
  6
CONTINUOUS
370
    -2
100
AcDbLine
 10
1991.05651914
 20
-1738.19802091
 30
0.0
 11
1991.21486972
 21
-1738.97184105
 31
0.0
  0
LINE
  5
448
100
AcDbEntity
  8
Sc.1_5
 62
     9
  6
CONTINUOUS
370
    -2
100
AcDbLine
 10
1986.43771649
 20
-1740.86468817
 30
0.0
 11
1986.59606707
 21
-1741.63850832
 31
0.0
  0
LINE
  5
449
100
AcDbEntity
  8
Sc.1_5
 62
     9
  6
CONTINUOUS
370
    -2
100
AcDbLine
 10
1981.81891384
 20
-1743.53135543
 30
0.0
 11
1981.97726442
 21
-1744.30517558
 31
0.0
  0
LINE
  5
44A
100
AcDbEntity
  8
Sc.1_5
 62
     9
  6
CONTINUOUS
370
    -2
100
AcDbLine
 10
1977.20011119
 20
-1746.19802269
 30
0.0
 11
1977.35846177
 21
-1746.97184284
 31
0.0
  0
LINE
  5
44B
100
AcDbEntity
  8
Sc.1_5
 62
     9
  6
CONTINUOUS
370
    -2
100
AcDbLine
 10
1972.58130854
 20
-1748.86468996
 30
0.0
 11
1972.73965912
 21
-1749.6385101
 31
0.0
  0
LINE
  5
44C
100
AcDbEntity
  8
Sc.1_5
 62
     9
  6
CONTINUOUS
370
    -2
100
AcDbLine
 10
1967.96250589
 20
-1751.53135722
 30
0.0
 11
1968.12085648
 21
-1752.30517736
 31
0.0
  0
LINE
  5
44D
100
AcDbEntity
  8
Sc.1_5
 62
     9
  6
CONTINUOUS
370
    -2
100
AcDbLine
 10
1963.34370324
 20
-1754.19802448
 30
0.0
 11
1963.50205383
 21
-1754.97184463
 31
0.0
  0
LINE
  5
44E
100
AcDbEntity
  8
Sc.1_5
 62
     9
  6
CONTINUOUS
370
    -2
100
AcDbLine
 10
1958.72490059
 20
-1756.86469174
 30
0.0
 11
1958.88325118
 21
-1757.63851189
 31
0.0
  0
LINE
  5
44F
100
AcDbEntity
  8
Sc.1_5
 62
     9
  6
CONTINUOUS
370
    -2
100
AcDbLine
 10
1954.10609794
 20
-1759.531359
 30
0.0
 11
1954.26444853
 21
-1760.30517915
 31
0.0
  0
LINE
  5
450
100
AcDbEntity
  8
Sc.1_5
 62
     9
  6
CONTINUOUS
370
    -2
100
AcDbLine
 10
1949.48729529
 20
-1762.19802626
 30
0.0
 11
1949.64564588
 21
-1762.97184641
 31
0.0
  0
LINE
  5
451
100
AcDbEntity
  8
Sc.1_5
 62
     9
  6
CONTINUOUS
370
    -2
100
AcDbLine
 10
1944.86849264
 20
-1764.86469353
 30
0.0
 11
1945.02684323
 21
-1765.63851367
 31
0.0
  0
LINE
  5
452
100
AcDbEntity
  8
Sc.1_5
 62
     9
  6
CONTINUOUS
370
    -2
100
AcDbLine
 10
1940.24968999
 20
-1767.53136079
 30
0.0
 11
1940.40804058
 21
-1768.30518093
 31
0.0
  0
LINE
  5
453
100
AcDbEntity
  8
Sc.1_5
 62
     9
  6
CONTINUOUS
370
    -2
100
AcDbLine
 10
1999.86150273
 20
-1733.11446033
 30
0.0
 11
2000.45247534
 21
-1733.63850604
 31
0.0
  0
LINE
  5
454
100
AcDbEntity
  8
Sc.1_5
 62
     9
  6
CONTINUOUS
370
    -2
100
AcDbLine
 10
1995.24269982
 20
-1735.78112713
 30
0.0
 11
1995.83367243
 21
-1736.30517284
 31
0.0
  0
LINE
  5
455
100
AcDbEntity
  8
Sc.1_5
 62
     9
  6
CONTINUOUS
370
    -2
100
AcDbLine
 10
1990.6238969
 20
-1738.44779393
 30
0.0
 11
1991.21486951
 21
-1738.97183963
 31
0.0
  0
LINE
  5
456
100
AcDbEntity
  8
Sc.1_5
 62
     9
  6
CONTINUOUS
370
    -2
100
AcDbLine
 10
1986.00509398
 20
-1741.11446073
 30
0.0
 11
1986.59606659
 21
-1741.63850643
 31
0.0
  0
LINE
  5
457
100
AcDbEntity
  8
Sc.1_5
 62
     9
  6
CONTINUOUS
370
    -2
100
AcDbLine
 10
1981.38629106
 20
-1743.78112753
 30
0.0
 11
1981.97726368
 21
-1744.30517323
 31
0.0
  0
LINE
  5
458
100
AcDbEntity
  8
Sc.1_5
 62
     9
  6
CONTINUOUS
370
    -2
100
AcDbLine
 10
1976.76748815
 20
-1746.44779433
 30
0.0
 11
1977.35846076
 21
-1746.97184003
 31
0.0
  0
LINE
  5
459
100
AcDbEntity
  8
Sc.1_5
 62
     9
  6
CONTINUOUS
370
    -2
100
AcDbLine
 10
1972.14868523
 20
-1749.11446112
 30
0.0
 11
1972.73965784
 21
-1749.63850683
 31
0.0
  0
LINE
  5
45A
100
AcDbEntity
  8
Sc.1_5
 62
     9
  6
CONTINUOUS
370
    -2
100
AcDbLine
 10
1967.52988231
 20
-1751.78112792
 30
0.0
 11
1968.12085492
 21
-1752.30517363
 31
0.0
  0
LINE
  5
45B
100
AcDbEntity
  8
Sc.1_5
 62
     9
  6
CONTINUOUS
370
    -2
100
AcDbLine
 10
1962.9110794
 20
-1754.44779472
 30
0.0
 11
1963.50205201
 21
-1754.97184043
 31
0.0
  0
LINE
  5
45C
100
AcDbEntity
  8
Sc.1_5
 62
     9
  6
CONTINUOUS
370
    -2
100
AcDbLine
 10
1958.29227648
 20
-1757.11446152
 30
0.0
 11
1958.88324909
 21
-1757.63850722
 31
0.0
  0
LINE
  5
45D
100
AcDbEntity
  8
Sc.1_5
 62
     9
  6
CONTINUOUS
370
    -2
100
AcDbLine
 10
1953.67347356
 20
-1759.78112832
 30
0.0
 11
1954.26444617
 21
-1760.30517402
 31
0.0
  0
LINE
  5
45E
100
AcDbEntity
  8
Sc.1_5
 62
     9
  6
CONTINUOUS
370
    -2
100
AcDbLine
 10
1949.05467065
 20
-1762.44779512
 30
0.0
 11
1949.64564326
 21
-1762.97184082
 31
0.0
  0
LINE
  5
45F
100
AcDbEntity
  8
Sc.1_5
 62
     9
  6
CONTINUOUS
370
    -2
100
AcDbLine
 10
1944.43586773
 20
-1765.11446192
 30
0.0
 11
1945.02684034
 21
-1765.63850762
 31
0.0
  0
LINE
  5
460
100
AcDbEntity
  8
Sc.1_5
 62
     9
  6
CONTINUOUS
370
    -2
100
AcDbLine
 10
1939.81706481
 20
-1767.78112872
 30
0.0
 11
1940.40803742
 21
-1768.30517442
 31
0.0
  0
LINE
  5
461
100
AcDbEntity
  8
Sc.1_5
 62
     9
  6
CONTINUOUS
370
    -2
100
AcDbLine
 10
2008.52795033
 20
-1742.29230547
 30
0.0
 11
2008.68630092
 21
-1743.06612562
 31
0.0
  0
LINE
  5
462
100
AcDbEntity
  8
Sc.1_5
 62
     9
  6
CONTINUOUS
370
    -2
100
AcDbLine
 10
2003.90914768
 20
-1744.95897274
 30
0.0
 11
2004.06749827
 21
-1745.73279288
 31
0.0
  0
LINE
  5
463
100
AcDbEntity
  8
Sc.1_5
 62
     9
  6
CONTINUOUS
370
    -2
100
AcDbLine
 10
1999.29034503
 20
-1747.62564
 30
0.0
 11
1999.44869562
 21
-1748.39946014
 31
0.0
  0
LINE
  5
464
100
AcDbEntity
  8
Sc.1_5
 62
     9
  6
CONTINUOUS
370
    -2
100
AcDbLine
 10
1994.67154238
 20
-1750.29230726
 30
0.0
 11
1994.82989297
 21
-1751.06612741
 31
0.0
  0
LINE
  5
465
100
AcDbEntity
  8
Sc.1_5
 62
     9
  6
CONTINUOUS
370
    -2
100
AcDbLine
 10
1990.05273973
 20
-1752.95897452
 30
0.0
 11
1990.21109032
 21
-1753.73279467
 31
0.0
  0
LINE
  5
466
100
AcDbEntity
  8
Sc.1_5
 62
     9
  6
CONTINUOUS
370
    -2
100
AcDbLine
 10
1985.43393708
 20
-1755.62564178
 30
0.0
 11
1985.59228767
 21
-1756.39946193
 31
0.0
  0
LINE
  5
467
100
AcDbEntity
  8
Sc.1_5
 62
     9
  6
CONTINUOUS
370
    -2
100
AcDbLine
 10
1980.81513443
 20
-1758.29230905
 30
0.0
 11
1980.97348502
 21
-1759.06612919
 31
0.0
  0
LINE
  5
468
100
AcDbEntity
  8
Sc.1_5
 62
     9
  6
CONTINUOUS
370
    -2
100
AcDbLine
 10
1976.19633178
 20
-1760.95897631
 30
0.0
 11
1976.35468237
 21
-1761.73279645
 31
0.0
  0
LINE
  5
469
100
AcDbEntity
  8
Sc.1_5
 62
     9
  6
CONTINUOUS
370
    -2
100
AcDbLine
 10
1971.57752913
 20
-1763.62564357
 30
0.0
 11
1971.73587972
 21
-1764.39946372
 31
0.0
  0
LINE
  5
46A
100
AcDbEntity
  8
Sc.1_5
 62
     9
  6
CONTINUOUS
370
    -2
100
AcDbLine
 10
1966.95872648
 20
-1766.29231083
 30
0.0
 11
1967.11707707
 21
-1767.06613098
 31
0.0
  0
LINE
  5
46B
100
AcDbEntity
  8
Sc.1_5
 62
     9
  6
CONTINUOUS
370
    -2
100
AcDbLine
 10
1962.33992384
 20
-1768.95897809
 30
0.0
 11
1962.49827442
 21
-1769.73279824
 31
0.0
  0
LINE
  5
46C
100
AcDbEntity
  8
Sc.1_5
 62
     9
  6
CONTINUOUS
370
    -2
100
AcDbLine
 10
1957.72112119
 20
-1771.62564535
 30
0.0
 11
1957.87947177
 21
-1772.3994655
 31
0.0
  0
LINE
  5
46D
100
AcDbEntity
  8
Sc.1_5
 62
     9
  6
CONTINUOUS
370
    -2
100
AcDbLine
 10
1953.10231854
 20
-1774.29231262
 30
0.0
 11
1953.26066912
 21
-1775.06613276
 31
0.0
  0
LINE
  5
46E
100
AcDbEntity
  8
Sc.1_5
 62
     9
  6
CONTINUOUS
370
    -2
100
AcDbLine
 10
1948.48351589
 20
-1776.95897988
 30
0.0
 11
1948.64186647
 21
-1777.73280002
 31
0.0
  0
LINE
  5
46F
100
AcDbEntity
  8
Sc.1_5
 62
     9
  6
CONTINUOUS
370
    -2
100
AcDbLine
 10
1943.86471324
 20
-1779.62564714
 30
0.0
 11
1944.02306382
 21
-1780.39946729
 31
0.0
  0
LINE
  5
470
100
AcDbEntity
  8
Sc.1_5
 62
     9
  6
CONTINUOUS
370
    -2
100
AcDbLine
 10
1944.455683
 20
-1780.14968537
 30
0.0
 11
1943.86471039
 21
-1779.62563967
 31
0.0
  0
LINE
  5
471
100
AcDbEntity
  8
Sc.1_5
 62
     9
  6
CONTINUOUS
370
    -2
100
AcDbLine
 10
1949.07448592
 20
-1777.48301857
 30
0.0
 11
1948.4835133
 21
-1776.95897287
 31
0.0
  0
LINE
  5
472
100
AcDbEntity
  8
Sc.1_5
 62
     9
  6
CONTINUOUS
370
    -2
100
AcDbLine
 10
1953.69328883
 20
-1774.81635177
 30
0.0
 11
1953.10231622
 21
-1774.29230607
 31
0.0
  0
LINE
  5
473
100
AcDbEntity
  8
Sc.1_5
 62
     9
  6
CONTINUOUS
370
    -2
100
AcDbLine
 10
1958.31209175
 20
-1772.14968498
 30
0.0
 11
1957.72111914
 21
-1771.62563927
 31
0.0
  0
LINE
  5
474
100
AcDbEntity
  8
Sc.1_5
 62
     9
  6
CONTINUOUS
370
    -2
100
AcDbLine
 10
1962.93089467
 20
-1769.48301818
 30
0.0
 11
1962.33992206
 21
-1768.95897247
 31
0.0
  0
LINE
  5
475
100
AcDbEntity
  8
Sc.1_5
 62
     9
  6
CONTINUOUS
370
    -2
100
AcDbLine
 10
1967.54969758
 20
-1766.81635138
 30
0.0
 11
1966.95872497
 21
-1766.29230567
 31
0.0
  0
LINE
  5
476
100
AcDbEntity
  8
Sc.1_5
 62
     9
  6
CONTINUOUS
370
    -2
100
AcDbLine
 10
1972.1685005
 20
-1764.14968458
 30
0.0
 11
1971.57752789
 21
-1763.62563888
 31
0.0
  0
LINE
  5
477
100
AcDbEntity
  8
Sc.1_5
 62
     9
  6
CONTINUOUS
370
    -2
100
AcDbLine
 10
1976.78730342
 20
-1761.48301778
 30
0.0
 11
1976.19633081
 21
-1760.95897208
 31
0.0
  0
LINE
  5
478
100
AcDbEntity
  8
Sc.1_5
 62
     9
  6
CONTINUOUS
370
    -2
100
AcDbLine
 10
1981.40610633
 20
-1758.81635098
 30
0.0
 11
1980.81513372
 21
-1758.29230528
 31
0.0
  0
LINE
  5
479
100
AcDbEntity
  8
Sc.1_5
 62
     9
  6
CONTINUOUS
370
    -2
100
AcDbLine
 10
1986.02490925
 20
-1756.14968418
 30
0.0
 11
1985.43393664
 21
-1755.62563848
 31
0.0
  0
LINE
  5
47A
100
AcDbEntity
  8
Sc.1_5
 62
     9
  6
CONTINUOUS
370
    -2
100
AcDbLine
 10
1990.64371217
 20
-1753.48301738
 30
0.0
 11
1990.05273956
 21
-1752.95897168
 31
0.0
  0
LINE
  5
47B
100
AcDbEntity
  8
Sc.1_5
 62
     9
  6
CONTINUOUS
370
    -2
100
AcDbLine
 10
1995.26251509
 20
-1750.81635059
 30
0.0
 11
1994.67154247
 21
-1750.29230488
 31
0.0
  0
LINE
  5
47C
100
AcDbEntity
  8
Sc.1_5
 62
     9
  6
CONTINUOUS
370
    -2
100
AcDbLine
 10
1999.881318
 20
-1748.14968379
 30
0.0
 11
1999.29034539
 21
-1747.62563808
 31
0.0
  0
LINE
  5
47D
100
AcDbEntity
  8
Sc.1_5
 62
     9
  6
CONTINUOUS
370
    -2
100
AcDbLine
 10
2004.50012092
 20
-1745.48301699
 30
0.0
 11
2003.90914831
 21
-1744.95897128
 31
0.0
  0
LINE
  5
47E
100
AcDbEntity
  8
Sc.1_5
 62
     9
  6
CONTINUOUS
370
    -2
100
AcDbLine
 10
2000.66884779
 20
-1734.01327543
 30
0.0
 11
2000.89981924
 21
-1734.54044758
 31
0.0
  0
LINE
  5
47F
100
AcDbEntity
  8
Sc.1_5
 62
     9
  6
CONTINUOUS
370
    -2
100
AcDbLine
 10
1996.05004909
 20
-1736.67994763
 30
0.0
 11
1996.28102053
 21
-1737.20711978
 31
0.0
  0
LINE
  5
480
100
AcDbEntity
  8
Sc.1_5
 62
     9
  6
CONTINUOUS
370
    -2
100
AcDbLine
 10
1991.43125039
 20
-1739.34661983
 30
0.0
 11
1991.66222183
 21
-1739.87379199
 31
0.0
  0
LINE
  5
481
100
AcDbEntity
  8
Sc.1_5
 62
     9
  6
CONTINUOUS
370
    -2
100
AcDbLine
 10
1986.81245168
 20
-1742.01329203
 30
0.0
 11
1987.04342312
 21
-1742.54046419
 31
0.0
  0
LINE
  5
482
100
AcDbEntity
  8
Sc.1_5
 62
     9
  6
CONTINUOUS
370
    -2
100
AcDbLine
 10
1982.19365298
 20
-1744.67996423
 30
0.0
 11
1982.42462442
 21
-1745.20713639
 31
0.0
  0
LINE
  5
483
100
AcDbEntity
  8
Sc.1_5
 62
     9
  6
CONTINUOUS
370
    -2
100
AcDbLine
 10
1977.57485427
 20
-1747.34663643
 30
0.0
 11
1977.80582572
 21
-1747.87380859
 31
0.0
  0
LINE
  5
484
100
AcDbEntity
  8
Sc.1_5
 62
     9
  6
CONTINUOUS
370
    -2
100
AcDbLine
 10
1972.95605557
 20
-1750.01330864
 30
0.0
 11
1973.18702701
 21
-1750.54048079
 31
0.0
  0
LINE
  5
485
100
AcDbEntity
  8
Sc.1_5
 62
     9
  6
CONTINUOUS
370
    -2
100
AcDbLine
 10
1968.33725686
 20
-1752.67998084
 30
0.0
 11
1968.56822831
 21
-1753.20715299
 31
0.0
  0
LINE
  5
486
100
AcDbEntity
  8
Sc.1_5
 62
     9
  6
CONTINUOUS
370
    -2
100
AcDbLine
 10
1963.71845816
 20
-1755.34665304
 30
0.0
 11
1963.9494296
 21
-1755.87382519
 31
0.0
  0
LINE
  5
487
100
AcDbEntity
  8
Sc.1_5
 62
     9
  6
CONTINUOUS
370
    -2
100
AcDbLine
 10
1959.09965946
 20
-1758.01332524
 30
0.0
 11
1959.3306309
 21
-1758.54049739
 31
0.0
  0
LINE
  5
488
100
AcDbEntity
  8
Sc.1_5
 62
     9
  6
CONTINUOUS
370
    -2
100
AcDbLine
 10
1954.48086075
 20
-1760.67999744
 30
0.0
 11
1954.71183219
 21
-1761.2071696
 31
0.0
  0
LINE
  5
489
100
AcDbEntity
  8
Sc.1_5
 62
     9
  6
CONTINUOUS
370
    -2
100
AcDbLine
 10
1949.86206205
 20
-1763.34666964
 30
0.0
 11
1950.09303349
 21
-1763.8738418
 31
0.0
  0
LINE
  5
48A
100
AcDbEntity
  8
Sc.1_5
 62
     9
  6
CONTINUOUS
370
    -2
100
AcDbLine
 10
1945.24326334
 20
-1766.01334184
 30
0.0
 11
1945.47423479
 21
-1766.540514
 31
0.0
  0
LINE
  5
48B
100
AcDbEntity
  8
Sc.1_5
 62
     9
  6
CONTINUOUS
370
    -2
100
AcDbLine
 10
1940.62446464
 20
-1768.68001404
 30
0.0
 11
1940.85543608
 21
-1769.2071862
 31
0.0
  0
LINE
  5
48C
100
AcDbEntity
  8
Sc.1_5
 62
     9
  6
CONTINUOUS
370
    -2
100
AcDbLine
 10
2000.66884604
 20
-1734.01326892
 30
0.0
 11
2001.0099048
 21
-1734.47688213
 31
0.0
  0
LINE
  5
48D
100
AcDbEntity
  8
Sc.1_5
 62
     9
  6
CONTINUOUS
370
    -2
100
AcDbLine
 10
1996.05004082
 20
-1736.67992983
 30
0.0
 11
1996.39109957
 21
-1737.14354304
 31
0.0
  0
LINE
  5
48E
100
AcDbEntity
  8
Sc.1_5
 62
     9
  6
CONTINUOUS
370
    -2
100
AcDbLine
 10
1991.43123559
 20
-1739.34659074
 30
0.0
 11
1991.77229435
 21
-1739.81020396
 31
0.0
  0
LINE
  5
48F
100
AcDbEntity
  8
Sc.1_5
 62
     9
  6
CONTINUOUS
370
    -2
100
AcDbLine
 10
1986.81243037
 20
-1742.01325165
 30
0.0
 11
1987.15348913
 21
-1742.47686487
 31
0.0
  0
LINE
  5
490
100
AcDbEntity
  8
Sc.1_5
 62
     9
  6
CONTINUOUS
370
    -2
100
AcDbLine
 10
1982.19362515
 20
-1744.67991257
 30
0.0
 11
1982.53468391
 21
-1745.14352578
 31
0.0
  0
LINE
  5
491
100
AcDbEntity
  8
Sc.1_5
 62
     9
  6
CONTINUOUS
370
    -2
100
AcDbLine
 10
1977.57481993
 20
-1747.34657348
 30
0.0
 11
1977.91587869
 21
-1747.81018669
 31
0.0
  0
LINE
  5
492
100
AcDbEntity
  8
Sc.1_5
 62
     9
  6
CONTINUOUS
370
    -2
100
AcDbLine
 10
1972.95601471
 20
-1750.01323439
 30
0.0
 11
1973.29707346
 21
-1750.4768476
 31
0.0
  0
LINE
  5
493
100
AcDbEntity
  8
Sc.1_5
 62
     9
  6
CONTINUOUS
370
    -2
100
AcDbLine
 10
1968.33720948
 20
-1752.6798953
 30
0.0
 11
1968.67826824
 21
-1753.14350852
 31
0.0
  0
LINE
  5
494
100
AcDbEntity
  8
Sc.1_5
 62
     9
  6
CONTINUOUS
370
    -2
100
AcDbLine
 10
1963.71840426
 20
-1755.34655621
 30
0.0
 11
1964.05946302
 21
-1755.81016943
 31
0.0
  0
LINE
  5
495
100
AcDbEntity
  8
Sc.1_5
 62
     9
  6
CONTINUOUS
370
    -2
100
AcDbLine
 10
1959.09959904
 20
-1758.01321713
 30
0.0
 11
1959.4406578
 21
-1758.47683034
 31
0.0
  0
LINE
  5
496
100
AcDbEntity
  8
Sc.1_5
 62
     9
  6
CONTINUOUS
370
    -2
100
AcDbLine
 10
1954.48079382
 20
-1760.67987804
 30
0.0
 11
1954.82185258
 21
-1761.14349125
 31
0.0
  0
LINE
  5
497
100
AcDbEntity
  8
Sc.1_5
 62
     9
  6
CONTINUOUS
370
    -2
100
AcDbLine
 10
1949.8619886
 20
-1763.34653895
 30
0.0
 11
1950.20304735
 21
-1763.81015217
 31
0.0
  0
LINE
  5
498
100
AcDbEntity
  8
Sc.1_5
 62
     9
  6
CONTINUOUS
370
    -2
100
AcDbLine
 10
1945.24318337
 20
-1766.01319986
 30
0.0
 11
1945.58424213
 21
-1766.47681308
 31
0.0
  0
LINE
  5
499
100
AcDbEntity
  8
Sc.1_5
 62
     9
  6
CONTINUOUS
370
    -2
100
AcDbLine
 10
1940.62437815
 20
-1768.67986078
 30
0.0
 11
1940.96543691
 21
-1769.14347399
 31
0.0
  0
LINE
  5
49A
100
AcDbEntity
  8
Sc.1_5
 62
     9
  6
CONTINUOUS
370
    -2
100
AcDbLine
 10
1943.64840802
 20
-1779.250969
 30
0.0
 11
1943.41743644
 21
-1778.7237969
 31
0.0
  0
LINE
  5
49B
100
AcDbEntity
  8
Sc.1_5
 62
     9
  6
CONTINUOUS
370
    -2
100
AcDbLine
 10
1948.26720601
 20
-1776.58429556
 30
0.0
 11
1948.03623443
 21
-1776.05712347
 31
0.0
  0
LINE
  5
49C
100
AcDbEntity
  8
Sc.1_5
 62
     9
  6
CONTINUOUS
370
    -2
100
AcDbLine
 10
1952.88600401
 20
-1773.91762213
 30
0.0
 11
1952.65503242
 21
-1773.39045004
 31
0.0
  0
LINE
  5
49D
100
AcDbEntity
  8
Sc.1_5
 62
     9
  6
CONTINUOUS
370
    -2
100
AcDbLine
 10
1957.504802
 20
-1771.2509487
 30
0.0
 11
1957.27383042
 21
-1770.72377661
 31
0.0
  0
LINE
  5
49E
100
AcDbEntity
  8
Sc.1_5
 62
     9
  6
CONTINUOUS
370
    -2
100
AcDbLine
 10
1962.12359999
 20
-1768.58427527
 30
0.0
 11
1961.89262841
 21
-1768.05710318
 31
0.0
  0
LINE
  5
49F
100
AcDbEntity
  8
Sc.1_5
 62
     9
  6
CONTINUOUS
370
    -2
100
AcDbLine
 10
1966.74239799
 20
-1765.91760184
 30
0.0
 11
1966.51142641
 21
-1765.39042975
 31
0.0
  0
LINE
  5
4A0
100
AcDbEntity
  8
Sc.1_5
 62
     9
  6
CONTINUOUS
370
    -2
100
AcDbLine
 10
1971.36119598
 20
-1763.25092841
 30
0.0
 11
1971.1302244
 21
-1762.72375631
 31
0.0
  0
LINE
  5
4A1
100
AcDbEntity
  8
Sc.1_5
 62
     9
  6
CONTINUOUS
370
    -2
100
AcDbLine
 10
1975.97999398
 20
-1760.58425498
 30
0.0
 11
1975.74902239
 21
-1760.05708288
 31
0.0
  0
LINE
  5
4A2
100
AcDbEntity
  8
Sc.1_5
 62
     9
  6
CONTINUOUS
370
    -2
100
AcDbLine
 10
1980.59879197
 20
-1757.91758155
 30
0.0
 11
1980.36782039
 21
-1757.39040945
 31
0.0
  0
LINE
  5
4A3
100
AcDbEntity
  8
Sc.1_5
 62
     9
  6
CONTINUOUS
370
    -2
100
AcDbLine
 10
1985.21758997
 20
-1755.25090811
 30
0.0
 11
1984.98661838
 21
-1754.72373602
 31
0.0
  0
LINE
  5
4A4
100
AcDbEntity
  8
Sc.1_5
 62
     9
  6
CONTINUOUS
370
    -2
100
AcDbLine
 10
1989.83638796
 20
-1752.58423468
 30
0.0
 11
1989.60541638
 21
-1752.05706259
 31
0.0
  0
LINE
  5
4A5
100
AcDbEntity
  8
Sc.1_5
 62
     9
  6
CONTINUOUS
370
    -2
100
AcDbLine
 10
1994.45518595
 20
-1749.91756125
 30
0.0
 11
1994.22421437
 21
-1749.39038916
 31
0.0
  0
LINE
  5
4A6
100
AcDbEntity
  8
Sc.1_5
 62
     9
  6
CONTINUOUS
370
    -2
100
AcDbLine
 10
1999.07398395
 20
-1747.25088782
 30
0.0
 11
1998.84301237
 21
-1746.72371573
 31
0.0
  0
LINE
  5
4A7
100
AcDbEntity
  8
Sc.1_5
 62
     9
  6
CONTINUOUS
370
    -2
100
AcDbLine
 10
2003.69278194
 20
-1744.58421439
 30
0.0
 11
2003.46181036
 21
-1744.0570423
 31
0.0
  0
LINE
  5
4A8
100
AcDbEntity
  8
Sc.1_5
 62
     9
  6
CONTINUOUS
370
    -2
100
AcDbLine
 10
1943.64830683
 20
-1779.25079373
 30
0.0
 11
1943.30724807
 21
-1778.78718052
 31
0.0
  0
LINE
  5
4A9
100
AcDbEntity
  8
Sc.1_5
 62
     9
  6
CONTINUOUS
370
    -2
100
AcDbLine
 10
1948.26711205
 20
-1776.58413282
 30
0.0
 11
1947.92605329
 21
-1776.1205196
 31
0.0
  0
LINE
  5
4AA
100
AcDbEntity
  8
Sc.1_5
 62
     9
  6
CONTINUOUS
370
    -2
100
AcDbLine
 10
1952.88591727
 20
-1773.9174719
 30
0.0
 11
1952.54485852
 21
-1773.45385869
 31
0.0
  0
LINE
  5
4AB
100
AcDbEntity
  8
Sc.1_5
 62
     9
  6
CONTINUOUS
370
    -2
100
AcDbLine
 10
1957.50472249
 20
-1771.25081099
 30
0.0
 11
1957.16366374
 21
-1770.78719778
 31
0.0
  0
LINE
  5
4AC
100
AcDbEntity
  8
Sc.1_5
 62
     9
  6
CONTINUOUS
370
    -2
100
AcDbLine
 10
1962.12352772
 20
-1768.58415008
 30
0.0
 11
1961.78246896
 21
-1768.12053687
 31
0.0
  0
LINE
  5
4AD
100
AcDbEntity
  8
Sc.1_5
 62
     9
  6
CONTINUOUS
370
    -2
100
AcDbLine
 10
1966.74233294
 20
-1765.91748917
 30
0.0
 11
1966.40127418
 21
-1765.45387595
 31
0.0
  0
LINE
  5
4AE
100
AcDbEntity
  8
Sc.1_5
 62
     9
  6
CONTINUOUS
370
    -2
100
AcDbLine
 10
1971.36113816
 20
-1763.25082826
 30
0.0
 11
1971.0200794
 21
-1762.78721504
 31
0.0
  0
LINE
  5
4AF
100
AcDbEntity
  8
Sc.1_5
 62
     9
  6
CONTINUOUS
370
    -2
100
AcDbLine
 10
1975.97994338
 20
-1760.58416734
 30
0.0
 11
1975.63888463
 21
-1760.12055413
 31
0.0
  0
LINE
  5
4B0
100
AcDbEntity
  8
Sc.1_5
 62
     9
  6
CONTINUOUS
370
    -2
100
AcDbLine
 10
1980.5987486
 20
-1757.91750643
 30
0.0
 11
1980.25768985
 21
-1757.45389322
 31
0.0
  0
LINE
  5
4B1
100
AcDbEntity
  8
Sc.1_5
 62
     9
  6
CONTINUOUS
370
    -2
100
AcDbLine
 10
1985.21755383
 20
-1755.25084552
 30
0.0
 11
1984.87649507
 21
-1754.7872323
 31
0.0
  0
LINE
  5
4B2
100
AcDbEntity
  8
Sc.1_5
 62
     9
  6
CONTINUOUS
370
    -2
100
AcDbLine
 10
1989.83635905
 20
-1752.58418461
 30
0.0
 11
1989.49530029
 21
-1752.12057139
 31
0.0
  0
LINE
  5
4B3
100
AcDbEntity
  8
Sc.1_5
 62
     9
  6
CONTINUOUS
370
    -2
100
AcDbLine
 10
1994.45516427
 20
-1749.91752369
 30
0.0
 11
1994.11410551
 21
-1749.45391048
 31
0.0
  0
LINE
  5
4B4
100
AcDbEntity
  8
Sc.1_5
 62
     9
  6
CONTINUOUS
370
    -2
100
AcDbLine
 10
1999.07396949
 20
-1747.25086278
 30
0.0
 11
1998.73291073
 21
-1746.78724957
 31
0.0
  0
LINE
  5
4B5
100
AcDbEntity
  8
Sc.1_5
 62
     9
  6
CONTINUOUS
370
    -2
100
AcDbLine
 10
2003.69277471
 20
-1744.58420187
 30
0.0
 11
2003.35171596
 21
-1744.12058866
 31
0.0
  0
LINE
  5
4B6
100
AcDbEntity
  8
Sc.1_5
 62
     9
  6
CONTINUOUS
370
    -2
100
AcDbLine
 10
2008.31157994
 20
-1741.91754096
 30
0.0
 11
2007.97052118
 21
-1741.45392774
 31
0.0
  0
ENDBLK
  5
4B7
100
AcDbEntity
100
AcDbBlockEnd
  0
BLOCK
  5
4B8
100
AcDbEntity
  8
LEGEND
100
AcDbBlockBegin
  2
*X2864
 70
     1
 10
0.0
 20
0.0
 30
0.0
  3
*X2864
  1

  4
Cadwork hatch
  0
LINE
  5
4B9
100
AcDbEntity
  8
LEGEND
 62
     9
  6
CONTINUOUS
370
    -2
100
AcDbLine
 10
1964.04105309
 20
-1799.47115653
 30
0.0
 11
1979.66542037
 21
-1798.53334545
 31
0.0
  0
LINE
  5
4BA
100
AcDbEntity
  8
LEGEND
 62
     9
  6
CONTINUOUS
370
    -2
100
AcDbLine
 10
1967.54105098
 20
-1805.53334122
 30
0.0
 11
1976.16542248
 21
-1792.47116075
 31
0.0
  0
ENDBLK
  5
4BB
100
AcDbEntity
100
AcDbBlockEnd
  0
ENDSEC
  0
SECTION
  2
ENTITIES
  0
3DFACE
  5
4BC
100
AcDbEntity
  8
Sc.1_5
 62
     9
  6
CONTINUOUS
370
    20
100
AcDbFace
 70
     0
 10
2001.64491342
 20
-1730.37053584
 30
914.4
 11
1935.06462997
 21
-1768.81068042
 31
914.4
 12
1943.06463082
 22
-1782.66708676
 32
914.4
 13
2009.64491419
 23
-1744.22694223
 33
914.4
  0
INSERT
  5
4BD
100
AcDbEntity
  8
Sc.1_5
 62
     0
370
    20
100
AcDbBlockReference
  2
*X2524
 10
0.0
 20
0.0
 30
0.0
  0
LINE
  5
4BE
100
AcDbEntity
  8
Sc.1_5
 62
     7
  6
CONTINUOUS
100
AcDbLine
 10
1948.65406236
 20
-1876.43955393
 30
0.0
 11
1946.15406276
 21
-1881.43955423
 31
0.0
  0
LINE
  5
4BF
100
AcDbEntity
  8
Sc.1_5
 62
     7
  6
CONTINUOUS
100
AcDbLine
 10
1946.15406276
 20
-1881.43955423
 30
0.0
 11
1941.15406181
 21
-1871.43955451
 31
0.0
  0
LINE
  5
4C0
100
AcDbEntity
  8
Sc.1_5
 62
     7
  6
CONTINUOUS
100
AcDbLine
 10
1941.15406181
 20
-1871.43955451
 30
0.0
 11
1938.65406221
 21
-1876.43955481
 31
0.0
  0
LINE
  5
4C1
100
AcDbEntity
  8
Sc.1_5
 62
     7
  6
CONTINUOUS
100
AcDbLine
 10
1938.65406221
 20
-1876.43955481
 30
0.0
 11
1920.89002868
 21
-1876.43955636
 31
0.0
  0
LINE
  5
4C2
100
AcDbEntity
  8
Sc.1_5
 62
     7
  6
CONTINUOUS
100
AcDbLine
 10
1969.28523681
 20
-1876.43955213
 30
0.0
 11
1948.65406236
 21
-1876.43955393
 31
0.0
  0
LINE
  5
4C3
100
AcDbEntity
  8
Sc.1_5
 62
     7
  6
CONTINUOUS
100
AcDbLine
 10
2019.10583684
 20
-1742.7141666
 30
0.0
 11
2024.69095951
 21
-1742.47666773
 31
0.0
  0
LINE
  5
4C4
100
AcDbEntity
  8
Sc.1_5
 62
     7
  6
CONTINUOUS
100
AcDbLine
 10
2024.69095951
 20
-1742.47666773
 30
0.0
 11
2018.3688105
 21
-1751.69786264
 31
0.0
  0
LINE
  5
4C5
100
AcDbEntity
  8
Sc.1_5
 62
     7
  6
CONTINUOUS
100
AcDbLine
 10
2018.3688105
 20
-1751.69786264
 30
0.0
 11
2023.95393317
 21
-1751.46036377
 31
0.0
  0
LINE
  5
4C6
100
AcDbEntity
  8
Sc.1_5
 62
     7
  6
CONTINUOUS
100
AcDbLine
 10
2023.95393317
 20
-1751.46036377
 30
0.0
 11
2035.69251201
 21
-1772.63732028
 31
0.0
  0
LINE
  5
4C7
100
AcDbEntity
  8
Sc.1_5
 62
     7
  6
CONTINUOUS
100
AcDbLine
 10
2001.33537649
 20
-1710.65540796
 30
0.0
 11
2019.10583684
 21
-1742.7141666
 31
0.0
  0
LWPOLYLINE
  5
4C8
102
{ACAD_REACTORS
330
4C9
102
}
100
AcDbEntity
  8
Sc.1_5
 62
     7
  6
CONTINUOUS
100
AcDbPolyline
 90
        4
 70
     1
 43
0.0
 10
2033.22593982
 20
-1768.18750661
 10
1966.52407388
 20
-1806.69784687
 10
1966.52407388
 20
-1808.77630784
 10
2034.09873007
 20
-1769.7620619
  0
HATCH
  5
4C9
100
AcDbEntity
  8
Sc.1_5
 62
     9
  6
CONTINUOUS
100
AcDbHatch
 10
0.0
 20
0.0
 30
0.0
210
0.0
220
0.0
230
1.0
  2
CDWK12A
 70
     0
 71
     1
 91
        1
 92
        7
 72
     0
 73
     1
 93
        4
 10
2033.22593982
 20
-1768.18750661
 10
1966.52407388
 20
-1806.69784687
 10
1966.52407388
 20
-1808.77630784
 10
2034.09873007
 20
-1769.7620619
 97
        1
330
4C8
 75
     0
 76
     2
 52
0.0
 41
1.0
 77
     0
 78
    15
 53
0.0
 43
0.0
 44
0.0
 45
2.70000005
 46
4.9000001
 79
     2
 49
0.0
 49
-3.70000005
 53
0.0
 43
0.0
 44
0.0
 45
4.4000001
 46
4.80000019
 79
     2
 49
0.0
 49
-5.4000001
 53
0.0
 43
0.0
 44
0.0
 45
1.39999998
 46
4.5999999
 79
     2
 49
0.0
 49
-2.4000001
 53
0.0
 43
0.0
 44
0.0
 45
2.20000005
 46
4.19999981
 79
     2
 49
0.0
 49
-3.20000005
 53
0.0
 43
0.0
 44
0.0
 45
3.79999995
 46
4.0
 79
     2
 49
0.0
 49
-4.80000019
 53
0.0
 43
0.0
 44
0.0
 45
1.20000005
 46
3.79999995
 79
     2
 49
0.0
 49
-2.20000005
 53
0.0
 43
0.0
 44
0.0
 45
2.9000001
 46
3.5
 79
     2
 49
0.0
 49
-3.9000001
 53
0.0
 43
0.0
 44
0.0
 45
4.5999999
 46
3.4000001
 79
     2
 49
0.0
 49
-5.5999999
 53
0.0
 43
0.0
 44
0.0
 45
1.89999998
 46
2.9000001
 79
     2
 49
0.0
 49
-2.9000001
 53
0.0
 43
0.0
 44
0.0
 45
3.20000005
 46
2.79999995
 79
     2
 49
0.0
 49
-4.19999981
 53
0.0
 43
0.0
 44
0.0
 45
3.9000001
 46
2.4000001
 79
     2
 49
0.0
 49
-4.9000001
 53
0.0
 43
0.0
 44
0.0
 45
2.4000001
 46
2.0999999
 79
     2
 49
0.0
 49
-3.4000001
 53
0.0
 43
0.0
 44
0.0
 45
4.9000001
 46
2.0999999
 79
     2
 49
0.0
 49
-5.9000001
 53
0.0
 43
0.0
 44
0.0
 45
3.5999999
 46
1.5
 79
     2
 49
0.0
 49
-4.5999999
 53
0.0
 43
0.0
 44
0.0
 45
1.60000002
 46
1.39999998
 79
     2
 49
0.0
 49
-2.5999999
 47
0.775229
 98
        1
 10
0.0
 20
0.0
  0
LWPOLYLINE
  5
4CA
102
{ACAD_REACTORS
330
4CB
102
}
100
AcDbEntity
  8
Sc.1_5
 62
     7
  6
CONTINUOUS
100
AcDbPolyline
 90
        4
 70
     1
 43
0.0
 10
1965.84106118
 20
-1876.43955437
 10
1965.84106118
 20
-1807.09218481
 10
1964.04106118
 20
-1808.13141558
 10
1964.04106118
 20
-1876.43955437
  0
HATCH
  5
4CB
100
AcDbEntity
  8
Sc.1_5
 62
     9
  6
CONTINUOUS
100
AcDbHatch
 10
0.0
 20
0.0
 30
0.0
210
0.0
220
0.0
230
1.0
  2
CDWK12A
 70
     0
 71
     1
 91
        1
 92
        7
 72
     0
 73
     1
 93
        4
 10
1965.84106118
 20
-1876.43955437
 10
1965.84106118
 20
-1807.09218481
 10
1964.04106118
 20
-1808.13141558
 10
1964.04106118
 20
-1876.43955437
 97
        1
330
4CA
 75
     0
 76
     2
 52
0.0
 41
1.0
 77
     0
 78
    15
 53
0.0
 43
0.0
 44
0.0
 45
2.70000005
 46
4.9000001
 79
     2
 49
0.0
 49
-3.70000005
 53
0.0
 43
0.0
 44
0.0
 45
4.4000001
 46
4.80000019
 79
     2
 49
0.0
 49
-5.4000001
 53
0.0
 43
0.0
 44
0.0
 45
1.39999998
 46
4.5999999
 79
     2
 49
0.0
 49
-2.4000001
 53
0.0
 43
0.0
 44
0.0
 45
2.20000005
 46
4.19999981
 79
     2
 49
0.0
 49
-3.20000005
 53
0.0
 43
0.0
 44
0.0
 45
3.79999995
 46
4.0
 79
     2
 49
0.0
 49
-4.80000019
 53
0.0
 43
0.0
 44
0.0
 45
1.20000005
 46
3.79999995
 79
     2
 49
0.0
 49
-2.20000005
 53
0.0
 43
0.0
 44
0.0
 45
2.9000001
 46
3.5
 79
     2
 49
0.0
 49
-3.9000001
 53
0.0
 43
0.0
 44
0.0
 45
4.5999999
 46
3.4000001
 79
     2
 49
0.0
 49
-5.5999999
 53
0.0
 43
0.0
 44
0.0
 45
1.89999998
 46
2.9000001
 79
     2
 49
0.0
 49
-2.9000001
 53
0.0
 43
0.0
 44
0.0
 45
3.20000005
 46
2.79999995
 79
     2
 49
0.0
 49
-4.19999981
 53
0.0
 43
0.0
 44
0.0
 45
3.9000001
 46
2.4000001
 79
     2
 49
0.0
 49
-4.9000001
 53
0.0
 43
0.0
 44
0.0
 45
2.4000001
 46
2.0999999
 79
     2
 49
0.0
 49
-3.4000001
 53
0.0
 43
0.0
 44
0.0
 45
4.9000001
 46
2.0999999
 79
     2
 49
0.0
 49
-5.9000001
 53
0.0
 43
0.0
 44
0.0
 45
3.5999999
 46
1.5
 79
     2
 49
0.0
 49
-4.5999999
 53
0.0
 43
0.0
 44
0.0
 45
1.60000002
 46
1.39999998
 79
     2
 49
0.0
 49
-2.5999999
 47
0.775229
 98
        1
 10
0.0
 20
0.0
  0
LWPOLYLINE
  5
4CC
102
{ACAD_REACTORS
330
4CD
102
}
100
AcDbEntity
  8
Sc.1_5
 62
     7
  6
CONTINUOUS
100
AcDbPolyline
 90
        4
 70
     1
 43
0.0
 10
1935.04116087
 20
-1876.43955437
 10
1935.04116087
 20
-1788.06863187
 10
1933.24116087
 20
-1788.06863187
 10
1933.24116087
 20
-1876.43955437
  0
HATCH
  5
4CD
100
AcDbEntity
  8
Sc.1_5
 62
     9
  6
CONTINUOUS
100
AcDbHatch
 10
0.0
 20
0.0
 30
0.0
210
0.0
220
0.0
230
1.0
  2
ANSI31
 70
     0
 71
     1
 91
        1
 92
        7
 72
     0
 73
     1
 93
        4
 10
1935.04116087
 20
-1876.43955437
 10
1935.04116087
 20
-1788.06863187
 10
1933.24116087
 20
-1788.06863187
 10
1933.24116087
 20
-1876.43955437
 97
        1
330
4CC
 75
     0
 76
     2
 52
0.0
 41
0.3149626
 77
     0
 78
     1
 53
45.0
 43
0.0
 44
0.0
 45
0.70710678
 46
-0.70710678
 79
     0
 47
0.775229
 98
        1
 10
0.0
 20
0.0
  0
LINE
  5
4CE
100
AcDbEntity
  8
Sc.1_5
 62
     7
  6
CONTINUOUS
 48
0.5
370
    -3
100
AcDbLine
 10
1993.3364693
 20
-1802.268175
 30
500.0
 11
1968.83732464
 21
-1782.45622351
 31
500.0
  0
INSERT
  5
4CF
100
AcDbEntity
  8
Sc.1_5
 62
     7
  6
CONTINUOUS
370
    -3
100
AcDbBlockReference
  2
CDWK_EXTR_2
 10
1968.83732464
 20
-1782.45622351
 30
500.0
 41
1.0
 42
1.0
 43
1.0
 50
321.03824851
  0
LINE
  5
4D0
100
AcDbEntity
  8
Sc.1_5
 62
     7
  6
CONTINUOUS
 48
0.5
370
    -3
100
AcDbLine
 10
1992.96454509
 20
-1821.63550642
 30
500.0
 11
1976.15798207
 21
-1801.79295626
 31
500.0
  0
INSERT
  5
4D1
100
AcDbEntity
  8
Sc.1_5
 62
     7
  6
CONTINUOUS
370
    -3
100
AcDbBlockReference
  2
CDWK_EXTR_2
 10
1976.15798207
 20
-1801.79295626
 30
500.0
 41
1.0
 42
1.0
 43
1.0
 50
310.26446985
  0
LINE
  5
4D2
100
AcDbEntity
  8
Sc.1_5
 62
     7
  6
CONTINUOUS
 48
0.5
370
    -3
100
AcDbLine
 10
1909.4798273
 20
-1740.4196278
 30
500.0
 11
1943.34736313
 21
-1764.35371237
 31
500.0
  0
INSERT
  5
4D3
100
AcDbEntity
  8
Sc.1_5
 62
     7
  6
CONTINUOUS
370
    -3
100
AcDbBlockReference
  2
CDWK_EXTR_2
 10
1943.34736313
 20
-1764.35371237
 30
500.0
 41
1.0
 42
1.0
 43
1.0
 50
144.7512674
  0
LINE
  5
4D4
100
AcDbEntity
  8
Sc.1_5
 62
     7
  6
CONTINUOUS
 48
0.5
370
    -3
100
AcDbLine
 10
1993.04816132
 20
-1848.08018518
 30
500.0
 11
1958.72221713
 21
-1848.08018518
 31
500.0
  0
INSERT
  5
4D5
100
AcDbEntity
  8
Sc.1_5
 62
     7
  6
CONTINUOUS
370
    -3
100
AcDbBlockReference
  2
CDWK_EXTR_2
 10
1958.72221713
 20
-1848.08018518
 30
500.0
 41
1.0
 42
1.0
 43
1.0
  0
LINE
  5
4D6
100
AcDbEntity
  8
Sc.1_5
 62
     7
  6
CONTINUOUS
100
AcDbLine
 10
1887.65202108
 20
-1790.4583885
 30
0.0
 11
1878.65202067
 21
-1795.65448459
 31
0.0
  0
LWPOLYLINE
  5
4D7
100
AcDbEntity
  8
Sc.1_5
 62
     7
  6
CONTINUOUS
100
AcDbPolyline
 90
        6
 70
     1
 43
0.0
 10
2015.95969861
 20
-1737.16446994
 10
2017.95967447
 20
-1740.62852913
 10
2015.95969853
 20
-1737.16446953
 10
2008.16546997
 20
-1741.66446994
 10
2010.16544592
 20
-1745.12852954
 10
2017.95967447
 20
-1740.62852913
  0
INSERT
  5
4D8
100
AcDbEntity
  8
Sc.1_5
 62
     0
100
AcDbBlockReference
  2
*X1222
 10
0.0
 20
0.0
 30
0.0
  0
LWPOLYLINE
  5
4D9
100
AcDbEntity
  8
Sc.1_5
 62
     7
  6
CONTINUOUS
100
AcDbPolyline
 90
        6
 70
     1
 43
0.0
 10
2004.95972177
 20
-1718.1119531
 10
2006.95969764
 20
-1721.5760123
 10
2004.95972169
 20
-1718.1119527
 10
1997.16549314
 20
-1722.6119531
 10
1999.16546908
 20
-1726.0760127
 10
2006.95969764
 20
-1721.5760123
  0
INSERT
  5
4DA
100
AcDbEntity
  8
Sc.1_5
 62
     0
100
AcDbBlockReference
  2
*X1223
 10
0.0
 20
0.0
 30
0.0
  0
LWPOLYLINE
  5
4DB
100
AcDbEntity
  8
Sc.1_5
 62
     7
  6
CONTINUOUS
100
AcDbPolyline
 90
        6
 70
     1
 43
0.0
 10
1941.58516208
 20
-1780.10457227
 10
1943.58513795
 20
-1783.56863146
 10
1941.585162
 20
-1780.10457186
 10
1933.79093345
 20
-1784.60457227
 10
1935.79090939
 20
-1788.06863187
 10
1943.58513795
 20
-1783.56863146
  0
INSERT
  5
4DC
100
AcDbEntity
  8
Sc.1_5
 62
     0
100
AcDbBlockReference
  2
*X1224
 10
0.0
 20
0.0
 30
0.0
  0
LWPOLYLINE
  5
4DD
100
AcDbEntity
  8
Sc.1_5
 62
     7
  6
CONTINUOUS
100
AcDbPolyline
 90
        6
 70
     1
 43
0.0
 10
1930.58518525
 20
-1761.05205543
 10
1932.58516111
 20
-1764.51611462
 10
1930.58518517
 20
-1761.05205502
 10
1922.79095661
 20
-1765.55205543
 10
1924.79093256
 20
-1769.01611503
 10
1932.58516111
 20
-1764.51611462
  0
INSERT
  5
4DE
100
AcDbEntity
  8
Sc.1_5
 62
     0
100
AcDbBlockReference
  2
*X1225
 10
0.0
 20
0.0
 30
0.0
  0
LINE
  5
4DF
100
AcDbEntity
  8
Sc.1_5
 62
     7
  6
CONTINUOUS
100
AcDbLine
 10
1878.65202067
 20
-1795.65448459
 30
0.0
 11
2006.95969772
 21
-1721.5760127
 31
0.0
  0
LWPOLYLINE
  5
4E0
100
AcDbEntity
  8
Sc.1_5
 62
     7
  6
CONTINUOUS
100
AcDbPolyline
 90
        6
 70
     1
 43
0.0
 10
1885.65204522
 20
-1786.99432931
 10
1887.65202108
 20
-1790.4583885
 10
1885.65204514
 20
-1786.9943289
 10
1877.85781658
 20
-1791.49432931
 10
1879.85779253
 20
-1794.95838891
 10
1887.65202108
 20
-1790.4583885
  0
INSERT
  5
4E1
100
AcDbEntity
  8
Sc.1_5
 62
     0
100
AcDbBlockReference
  2
*X1227
 10
0.0
 20
0.0
 30
0.0
  0
LINE
  5
4E2
100
AcDbEntity
  8
Sc.1_5
 62
     7
  6
CONTINUOUS
370
    35
100
AcDbLine
 10
1874.36376904
 20
-1816.43903818
 30
0.0
 11
1878.45202106
 21
-1816.43903818
 31
0.0
  0
LINE
  5
4E3
100
AcDbEntity
  8
Sc.1_5
 62
     7
  6
CONTINUOUS
370
    35
100
AcDbLine
 10
1878.45202106
 20
-1816.43903818
 30
0.0
 11
1878.45202106
 21
-1806.43903818
 31
0.0
  0
LINE
  5
4E4
100
AcDbEntity
  8
Sc.1_5
 62
     7
  6
CONTINUOUS
370
    35
100
AcDbLine
 10
1874.36376904
 20
-1816.43903818
 30
0.0
 11
1874.36376904
 21
-1812.43903818
 31
0.0
  0
LINE
  5
4E5
100
AcDbEntity
  8
Sc.1_5
 62
     7
  6
CONTINUOUS
100
AcDbLine
 10
1874.16376904
 20
-1795.85429562
 30
0.0
 11
1870.56376904
 21
-1795.85429562
 31
0.0
  0
LINE
  5
4E6
100
AcDbEntity
  8
Sc.1_5
 62
     7
  6
CONTINUOUS
100
AcDbLine
 10
1870.56376904
 20
-1795.85429562
 30
0.0
 11
1870.56376904
 21
-1825.85429562
 31
0.0
  0
LINE
  5
4E7
100
AcDbEntity
  8
Sc.1_5
 62
     7
  6
CONTINUOUS
100
AcDbLine
 10
1870.56376904
 20
-1825.85429562
 30
0.0
 11
1874.16376904
 21
-1825.85429562
 31
0.0
  0
LINE
  5
4E8
100
AcDbEntity
  8
Sc.1_5
 62
     7
  6
CONTINUOUS
100
AcDbLine
 10
1874.16376904
 20
-1825.85429562
 30
0.0
 11
1874.16376904
 21
-1823.85429562
 31
0.0
  0
LINE
  5
4E9
100
AcDbEntity
  8
Sc.1_5
 62
     7
  6
CONTINUOUS
100
AcDbLine
 10
1874.16376904
 20
-1823.85429562
 30
0.0
 11
1873.16376904
 21
-1823.85429562
 31
0.0
  0
LINE
  5
4EA
100
AcDbEntity
  8
Sc.1_5
 62
     7
  6
CONTINUOUS
100
AcDbLine
 10
1873.16376904
 20
-1823.85429562
 30
0.0
 11
1873.16376904
 21
-1822.05429562
 31
0.0
  0
LINE
  5
4EB
100
AcDbEntity
  8
Sc.1_5
 62
     7
  6
CONTINUOUS
100
AcDbLine
 10
1873.16376904
 20
-1822.05429562
 30
0.0
 11
1874.16376904
 21
-1822.05429562
 31
0.0
  0
LINE
  5
4EC
100
AcDbEntity
  8
Sc.1_5
 62
     7
  6
CONTINUOUS
100
AcDbLine
 10
1874.16376904
 20
-1822.05429562
 30
0.0
 11
1874.16376904
 21
-1799.29266101
 31
0.0
  0
LINE
  5
4ED
100
AcDbEntity
  8
Sc.1_5
 62
     7
  6
CONTINUOUS
100
AcDbLine
 10
1874.16376904
 20
-1799.29266101
 30
0.0
 11
1873.16376904
 21
-1799.29266101
 31
0.0
  0
LINE
  5
4EE
100
AcDbEntity
  8
Sc.1_5
 62
     7
  6
CONTINUOUS
100
AcDbLine
 10
1873.16376904
 20
-1799.29266101
 30
0.0
 11
1873.16376904
 21
-1798.29266101
 31
0.0
  0
LINE
  5
4EF
100
AcDbEntity
  8
Sc.1_5
 62
     7
  6
CONTINUOUS
100
AcDbLine
 10
1873.16376904
 20
-1798.29266101
 30
0.0
 11
1874.16376904
 21
-1798.29266101
 31
0.0
  0
LINE
  5
4F0
100
AcDbEntity
  8
Sc.1_5
 62
     7
  6
CONTINUOUS
100
AcDbLine
 10
1874.16376904
 20
-1798.29266101
 30
0.0
 11
1874.16376904
 21
-1795.85429562
 31
0.0
  0
LINE
  5
4F1
100
AcDbEntity
  8
Sc.1_5
 62
     7
  6
CONTINUOUS
100
AcDbLine
 10
1870.06376917
 20
-1805.78976114
 30
0.0
 11
1870.06376943
 21
-1808.71862511
 31
0.0
  0
LINE
  5
4F2
100
AcDbEntity
  8
Sc.1_5
 62
     7
  6
CONTINUOUS
100
AcDbLine
 10
1869.06377006
 20
-1816.139038
 30
0.0
 11
1867.41773229
 21
-1816.13903815
 31
0.0
  0
LINE
  5
4F3
100
AcDbEntity
  8
Sc.1_5
 62
     7
  6
CONTINUOUS
100
AcDbLine
 10
1846.10980594
 20
-1798.73903998
 30
0.0
 11
1847.20980596
 21
-1798.73903989
 31
0.0
  0
LINE
  5
4F4
100
AcDbEntity
  8
Sc.1_5
 62
     7
  6
CONTINUOUS
100
AcDbLine
 10
1845.50980605
 20
-1800.10261532
 30
0.0
 11
1845.50980599
 21
-1799.33904004
 31
0.0
  0
ARC
  5
4F5
100
AcDbEntity
  8
Sc.1_5
 62
     7
  6
CONTINUOUS
100
AcDbCircle
 10
1857.50980676
 20
-1806.1390391
 30
0.0
 40
10.00000015
100
AcDbArc
 50
180.00000501
 51
270.00000501
  0
LINE
  5
4F6
100
AcDbEntity
  8
Sc.1_5
 62
     7
  6
CONTINUOUS
100
AcDbLine
 10
1846.98345432
 20
-1800.86591891
 30
0.0
 11
1846.00561721
 21
-1800.69349994
 31
0.0
  0
LINE
  5
4F7
100
AcDbEntity
  8
Sc.1_5
 62
     7
  6
CONTINUOUS
100
AcDbLine
 10
1869.45295642
 20
-1805.45562503
 30
0.0
 11
1870.06376904
 21
-1804.33903774
 31
0.0
  0
LINE
  5
4F8
100
AcDbEntity
  8
Sc.1_5
 62
     7
  6
CONTINUOUS
100
AcDbLine
 10
1869.45295642
 20
-1805.45562503
 30
0.0
 11
1870.06376917
 21
-1805.78976114
 31
0.0
  0
LINE
  5
4F9
100
AcDbEntity
  8
Sc.1_5
 62
     7
  6
CONTINUOUS
100
AcDbLine
 10
1869.76376945
 20
-1809.01862514
 30
0.0
 11
1869.76376979
 21
-1812.91017397
 31
0.0
  0
LINE
  5
4FA
100
AcDbEntity
  8
Sc.1_5
 62
     7
  6
CONTINUOUS
100
AcDbLine
 10
1870.06376982
 20
-1813.21017395
 30
0.0
 11
1869.76376979
 21
-1812.91017397
 31
0.0
  0
LINE
  5
4FB
100
AcDbEntity
  8
Sc.1_5
 62
     7
  6
CONTINUOUS
100
AcDbLine
 10
1870.06376943
 20
-1808.71862511
 30
0.0
 11
1869.76376945
 21
-1809.01862514
 31
0.0
  0
LINE
  5
4FC
100
AcDbEntity
  8
Sc.1_5
 62
     7
  6
CONTINUOUS
100
AcDbLine
 10
1870.06376982
 20
-1813.21017395
 30
0.0
 11
1870.06376999
 21
-1815.1390379
 31
0.0
  0
LINE
  5
4FD
100
AcDbEntity
  8
Sc.1_5
 62
     7
  6
CONTINUOUS
100
AcDbLine
 10
1867.11773231
 20
-1816.43903818
 30
0.0
 11
1857.80980767
 21
-1816.43903899
 31
0.0
  0
LINE
  5
4FE
100
AcDbEntity
  8
Sc.1_5
 62
     7
  6
CONTINUOUS
100
AcDbLine
 10
1867.41773229
 20
-1816.13903815
 30
0.0
 11
1867.11773231
 21
-1816.43903818
 31
0.0
  0
LINE
  5
4FF
100
AcDbEntity
  8
Sc.1_5
 62
     7
  6
CONTINUOUS
100
AcDbLine
 10
1857.50980764
 20
-1816.13903901
 30
0.0
 11
1857.80980767
 21
-1816.43903899
 31
0.0
  0
LINE
  5
500
100
AcDbEntity
  8
Sc.1_5
 62
     7
  6
CONTINUOUS
100
AcDbLine
 10
1857.50980764
 20
-1816.13903901
 30
0.0
 11
1857.50980764
 21
-1816.13903924
 31
0.0
  0
LINE
  5
501
100
AcDbEntity
  8
Sc.1_5
 62
     7
  6
CONTINUOUS
100
AcDbLine
 10
1847.80980659
 20
-1805.83903994
 30
0.0
 11
1847.80980624
 21
-1801.85072661
 31
0.0
  0
LINE
  5
502
100
AcDbEntity
  8
Sc.1_5
 62
     7
  6
CONTINUOUS
100
AcDbLine
 10
1847.50980661
 20
-1806.13903997
 30
0.0
 11
1847.80980659
 21
-1805.83903994
 31
0.0
  0
LINE
  5
503
100
AcDbEntity
  8
Sc.1_5
 62
     7
  6
CONTINUOUS
100
AcDbLine
 10
1847.80980602
 20
-1799.33903984
 30
0.0
 11
1847.80980606
 21
-1799.81734733
 31
0.0
  0
ARC
  5
504
100
AcDbEntity
  8
Sc.1_5
 62
     7
  6
CONTINUOUS
100
AcDbCircle
 10
1846.80980623
 20
-1801.8507267
 30
0.0
 40
1.00000001
100
AcDbArc
 50
5.0088956410665E-06
 51
80.00000501
  0
ARC
  5
505
100
AcDbEntity
  8
Sc.1_5
 62
     7
  6
CONTINUOUS
100
AcDbCircle
 10
1846.10980606
 20
-1800.10261527
 30
0.0
 40
0.60000001
100
AcDbArc
 50
180.00000501
 51
260.00000501
  0
ARC
  5
506
100
AcDbEntity
  8
Sc.1_5
 62
     7
  6
CONTINUOUS
100
AcDbCircle
 10
1846.109806
 20
-1799.33903999
 30
0.0
 40
0.60000001
100
AcDbArc
 50
90.00000501
 51
180.00000501
  0
ARC
  5
507
100
AcDbEntity
  8
Sc.1_5
 62
     7
  6
CONTINUOUS
100
AcDbCircle
 10
1847.20980601
 20
-1799.3390399
 30
0.0
 40
0.60000001
100
AcDbArc
 50
5.0090762897706E-06
 51
90.00000501
  0
LINE
  5
508
100
AcDbEntity
  8
Sc.1_5
 62
     7
  6
CONTINUOUS
100
AcDbLine
 10
1869.29008852
 20
-1805.503312
 30
0.0
 11
1869.95849161
 21
-1804.28144727
 31
0.0
  0
LINE
  5
509
100
AcDbEntity
  8
Sc.1_5
 62
     7
  6
CONTINUOUS
100
AcDbLine
 10
1869.29008852
 20
-1805.503312
 30
0.0
 11
1869.94376918
 21
-1805.86089837
 31
0.0
  0
LINE
  5
50A
100
AcDbEntity
  8
Sc.1_5
 62
     7
  6
CONTINUOUS
100
AcDbLine
 10
1869.94376918
 20
-1805.86089837
 30
0.0
 11
1869.94376942
 21
-1808.66891949
 31
0.0
  0
LINE
  5
50B
100
AcDbEntity
  8
Sc.1_5
 62
     7
  6
CONTINUOUS
100
AcDbLine
 10
1869.94376942
 20
-1808.66891949
 30
0.0
 11
1869.64376944
 21
-1808.96891952
 31
0.0
  0
LINE
  5
50C
100
AcDbEntity
  8
Sc.1_5
 62
     7
  6
CONTINUOUS
100
AcDbLine
 10
1869.64376944
 20
-1808.96891952
 30
0.0
 11
1869.64376979
 21
-1812.95987961
 31
0.0
  0
LINE
  5
50D
100
AcDbEntity
  8
Sc.1_5
 62
     7
  6
CONTINUOUS
100
AcDbLine
 10
1869.94376982
 20
-1813.25987959
 30
0.0
 11
1869.64376979
 21
-1812.95987961
 31
0.0
  0
ARC
  5
50E
100
AcDbEntity
  8
Sc.1_5
 62
     7
  6
CONTINUOUS
100
AcDbCircle
 10
1869.06376997
 20
-1815.13903799
 30
0.0
 40
1.00000001
100
AcDbArc
 50
270.00000501
 51
5.0088539528953E-06
  0
LINE
  5
50F
100
AcDbEntity
  8
Sc.1_5
 62
     7
  6
CONTINUOUS
100
AcDbLine
 10
1869.94376982
 20
-1813.21017396
 30
0.0
 11
1869.94376999
 21
-1815.13903791
 31
0.0
  0
ARC
  5
510
100
AcDbEntity
  8
Sc.1_5
 62
     7
  6
CONTINUOUS
100
AcDbCircle
 10
1869.06376997
 20
-1815.13903799
 30
0.0
 40
0.88000001
100
AcDbArc
 50
270.00000501
 51
5.0090699733981E-06
  0
LINE
  5
511
100
AcDbEntity
  8
Sc.1_5
 62
     7
  6
CONTINUOUS
100
AcDbLine
 10
1869.06377005
 20
-1816.019038
 30
0.0
 11
1867.36802665
 21
-1816.01903815
 31
0.0
  0
LINE
  5
512
100
AcDbEntity
  8
Sc.1_5
 62
     7
  6
CONTINUOUS
100
AcDbLine
 10
1867.36802665
 20
-1816.01903815
 30
0.0
 11
1867.06802667
 21
-1816.31903818
 31
0.0
  0
LINE
  5
513
100
AcDbEntity
  8
Sc.1_5
 62
     7
  6
CONTINUOUS
100
AcDbLine
 10
1867.06802667
 20
-1816.31903818
 30
0.0
 11
1857.85951328
 21
-1816.31903899
 31
0.0
  0
LINE
  5
514
100
AcDbEntity
  8
Sc.1_5
 62
     7
  6
CONTINUOUS
100
AcDbLine
 10
1857.55951325
 20
-1816.01903901
 30
0.0
 11
1857.85951328
 21
-1816.31903899
 31
0.0
  0
LINE
  5
515
100
AcDbEntity
  8
Sc.1_5
 62
     7
  6
CONTINUOUS
100
AcDbLine
 10
1857.55951325
 20
-1816.01903901
 30
0.0
 11
1857.50980763
 21
-1816.01903924
 31
0.0
  0
ARC
  5
516
100
AcDbEntity
  8
Sc.1_5
 62
     7
  6
CONTINUOUS
100
AcDbCircle
 10
1857.50980676
 20
-1806.1390391
 30
0.0
 40
9.88000015
100
AcDbArc
 50
180.28753603
 51
270.00000501
  0
LINE
  5
517
100
AcDbEntity
  8
Sc.1_5
 62
     7
  6
CONTINUOUS
100
AcDbLine
 10
1847.62993103
 20
-1806.18862118
 30
0.0
 11
1847.9298066
 21
-1805.88874556
 31
0.0
  0
LINE
  5
518
100
AcDbEntity
  8
Sc.1_5
 62
     7
  6
CONTINUOUS
100
AcDbLine
 10
1847.9298066
 20
-1805.88874556
 30
0.0
 11
1847.92980624
 21
-1801.8507266
 31
0.0
  0
ARC
  5
519
100
AcDbEntity
  8
Sc.1_5
 62
     7
  6
CONTINUOUS
100
AcDbCircle
 10
1846.80980623
 20
-1801.8507267
 30
0.0
 40
1.12000002
100
AcDbArc
 50
5.0090564382638E-06
 51
80.00000501
  0
LINE
  5
51A
100
AcDbEntity
  8
Sc.1_5
 62
     7
  6
CONTINUOUS
100
AcDbLine
 10
1847.00429209
 20
-1800.74774198
 30
0.0
 11
1846.02645498
 21
-1800.575323
 31
0.0
  0
ARC
  5
51B
100
AcDbEntity
  8
Sc.1_5
 62
     7
  6
CONTINUOUS
100
AcDbCircle
 10
1846.10980606
 20
-1800.10261527
 30
0.0
 40
0.48000001
100
AcDbArc
 50
180.00000501
 51
260.00000501
  0
LINE
  5
51C
100
AcDbEntity
  8
Sc.1_5
 62
     7
  6
CONTINUOUS
100
AcDbLine
 10
1845.62980606
 20
-1800.10261531
 30
0.0
 11
1845.62980599
 21
-1799.33904003
 31
0.0
  0
ARC
  5
51D
100
AcDbEntity
  8
Sc.1_5
 62
     7
  6
CONTINUOUS
100
AcDbCircle
 10
1846.109806
 20
-1799.33903999
 30
0.0
 40
0.48000001
100
AcDbArc
 50
90.00000501
 51
180.00000501
  0
LINE
  5
51E
100
AcDbEntity
  8
Sc.1_5
 62
     7
  6
CONTINUOUS
100
AcDbLine
 10
1846.10980596
 20
-1798.85903998
 30
0.0
 11
1847.20980597
 21
-1798.85903989
 31
0.0
  0
ARC
  5
51F
100
AcDbEntity
  8
Sc.1_5
 62
     7
  6
CONTINUOUS
100
AcDbCircle
 10
1847.20980601
 20
-1799.3390399
 30
0.0
 40
0.48000001
100
AcDbArc
 50
5.0089199591461E-06
 51
90.00000501
  0
LINE
  5
520
100
AcDbEntity
  8
Sc.1_5
 62
     7
  6
CONTINUOUS
100
AcDbLine
 10
1847.68980602
 20
-1799.33903985
 30
0.0
 11
1847.68980606
 21
-1799.81734734
 31
0.0
  0
LINE
  5
521
100
AcDbEntity
  8
Sc.1_5
 62
     7
  6
CONTINUOUS
100
AcDbLine
 10
1847.80980606
 20
-1799.81734733
 30
0.0
 11
1847.68980606
 21
-1799.81734734
 31
0.0
  0
LINE
  5
522
100
AcDbEntity
  8
Sc.1_5
 62
     7
  6
CONTINUOUS
100
AcDbLine
 10
1870.06376904
 20
-1804.33903774
 30
0.0
 11
1869.95849161
 21
-1804.28144727
 31
0.0
  0
LINE
  5
523
100
AcDbEntity
  8
Sc.1_5
 62
     7
  6
DASHED
370
    25
100
AcDbLine
 10
1867.71833942
 20
-1797.2651618
 30
0.0
 11
2005.30087154
 21
-1717.83184985
 31
0.0
  0
LINE
  5
524
100
AcDbEntity
  8
Sc.1_5
 62
     7
  6
CONTINUOUS
100
AcDbLine
 10
1864.17423957
 20
-1799.01390783
 30
0.0
 11
2005.1759697
 21
-1717.60652098
 31
0.0
  0
LINE
  5
525
100
AcDbEntity
  8
Sc.1_5
 62
     7
  6
CONTINUOUS
100
AcDbLine
 10
1862.17423957
 20
-1795.54980621
 30
0.0
 11
2003.23643582
 21
-1714.10750923
 31
0.0
  0
LINE
  5
526
100
AcDbEntity
  8
Sc.1_5
 62
     7
  6
CONTINUOUS
100
AcDbLine
 10
1864.17423957
 20
-1799.01390783
 30
0.0
 11
1862.17423957
 21
-1795.54980621
 31
0.0
  0
ARC
  5
527
100
AcDbEntity
  8
Sc.1_5
 62
     7
  6
DASHED
370
    25
100
AcDbCircle
 10
1874.32640721
 20
-1808.71067096
 30
0.0
 40
13.21613559
100
AcDbArc
 50
120.0
 51
145.42698115
  0
LWPOLYLINE
  5
528
102
{ACAD_REACTORS
330
529
102
}
100
AcDbEntity
  8
Sc.1_5
 62
     7
  6
CONTINUOUS
100
AcDbPolyline
 90
        4
 70
     1
 43
0.0
 10
1878.2786362
 20
-1817.00272705
 10
1933.73419567
 20
-1784.98544487
 10
1934.53419567
 20
-1786.37108552
 10
1879.0786362
 20
-1818.3883677
  0
HATCH
  5
529
100
AcDbEntity
  8
Sc.1_5
 62
     9
  6
CONTINUOUS
100
AcDbHatch
 10
0.0
 20
0.0
 30
0.0
210
0.0
220
0.0
230
1.0
  2
AR-CONC
 70
     0
 71
     1
 91
        1
 92
        7
 72
     0
 73
     1
 93
        4
 10
1878.2786362
 20
-1817.00272705
 10
1933.73419567
 20
-1784.98544487
 10
1934.53419567
 20
-1786.37108552
 10
1879.0786362
 20
-1818.3883677
 97
        1
330
528
 75
     0
 76
     2
 52
0.0
 41
0.01574813
 77
     0
 78
    13
 53
50.0
 43
0.0
 44
0.0
 45
-2.51237818
 46
0.21980459
 79
     2
 49
0.26270574
 49
-2.88976312
 53
355.0
 43
0.0
 44
0.0
 45
-0.48601034
 46
2.63473577
 79
     2
 49
0.2101645
 49
-2.31181049
 53
100.45140076
 43
0.20936476
 44
-0.018317
 45
-2.02636964
 46
-2.41492966
 79
     2
 49
0.2232655
 49
-2.4559207
 53
46.18420029
 43
0.0
 44
0.70054877
 45
-3.73827114
 46
0.5797705
 79
     2
 49
0.3940585
 49
-4.33464432
 53
96.63559723
 43
0.31152251
 44
0.65223426
 45
-3.27388349
 46
-3.41208454
 79
     2
 49
0.33489826
 49
-3.68388057
 53
351.1842041
 43
0.0
 44
0.70054877
 45
3.27388038
 46
3.41208762
 79
     2
 49
0.315247
 49
-3.46771574
 53
21.0
 43
0.35027426
 44
0.52541149
 45
-2.09081209
 46
1.41027054
 79
     2
 49
0.26270574
 49
-2.88976312
 53
326.0
 43
0.35027426
 44
0.52541149
 45
0.85227102
 46
2.54001431
 79
     2
 49
0.2101645
 49
-2.31181049
 53
71.45140076
 43
0.52450848
 44
0.40788874
 45
-2.94308395
 46
-1.12974158
 79
     2
 49
0.2232655
 49
-2.4559207
 53
37.5
 43
0.0
 44
0.0
 45
0.04259271
 46
1.16604166
 79
     6
 49
0.0025
 49
-2.28378844
 49
0.0025
 49
-2.346838
 49
0.0025
 49
-2.32056713
 53
7.5
 43
0.0
 44
0.0
 45
0.92146509
 46
1.38152296
 79
     6
 49
0.0025
 49
-1.33804774
 49
0.0025
 49
-2.23124719
 49
0.0025
 49
-0.88444275
 53
-32.5
 43
-0.78111178
 44
0.0
 45
1.86984275
 46
-0.079004
 79
     6
 49
0.0025
 49
-0.87568575
 49
0.0025
 49
-2.73213983
 49
0.0025
 49
-3.62533927
 53
-42.5
 43
-1.13138604
 44
0.0
 45
2.04275143
 46
0.35064206
 79
     6
 49
0.0025
 49
-1.13839149
 49
0.0025
 49
-1.81442106
 49
0.0025
 49
-2.5745163
 47
0.775229
 98
        1
 10
0.0
 20
0.0
  0
LINE
  5
52A
100
AcDbEntity
  8
Sc.1_5
 62
     7
  6
CONTINUOUS
 48
0.5
370
    -3
100
AcDbLine
 10
1980.83948486
 20
-1709.17594049
 30
500.0
 11
2004.87451034
 21
-1725.62436369
 31
500.0
  0
INSERT
  5
52B
100
AcDbEntity
  8
Sc.1_5
 62
     7
  6
CONTINUOUS
370
    -3
100
AcDbBlockReference
  2
CDWK_EXTR_2
 10
2004.87451034
 20
-1725.62436369
 30
500.0
 41
1.0
 42
1.0
 43
1.0
 50
145.61412566
  0
LINE
  5
52C
100
AcDbEntity
  8
Sc.1_5
 62
     7
  6
CONTINUOUS
 48
0.5
370
    -3
100
AcDbLine
 10
1900.90955053
 20
-1824.3917767
 30
500.0
 11
1886.09528307
 21
-1813.85967961
 31
500.0
  0
INSERT
  5
52D
100
AcDbEntity
  8
Sc.1_5
 62
     7
  6
CONTINUOUS
370
    -3
100
AcDbBlockReference
  2
CDWK_EXTR_2
 10
1886.09528307
 20
-1813.85967961
 30
500.0
 41
1.0
 42
1.0
 43
1.0
 50
324.5893492
  0
LINE
  5
52E
100
AcDbEntity
  8
Sc.1_5
 62
     7
  6
CONTINUOUS
370
    25
100
AcDbLine
 10
1924.26210035
 20
-1792.99454968
 30
0.0
 11
1924.26210035
 21
-1876.43955437
 31
0.0
  0
LINE
  5
52F
100
AcDbEntity
  8
Sc.1_5
 62
     7
  6
CONTINUOUS
370
    25
100
AcDbLine
 10
1928.06210035
 20
-1876.43955437
 30
0.0
 11
1928.06210035
 21
-1790.85671315
 31
0.0
  0
LINE
  5
530
100
AcDbEntity
  8
Sc.1_5
 62
     7
  6
CONTINUOUS
370
    25
100
AcDbLine
 10
1928.06210035
 20
-1790.85671315
 30
0.0
 11
1924.26210035
 21
-1792.99454968
 31
0.0
  0
LINE
  5
531
100
AcDbEntity
  8
Sc.1_5
 62
     7
  6
CONTINUOUS
100
AcDbLine
 10
1926.15406228
 20
-1791.93015354
 30
0.0
 11
1926.15406228
 21
-1876.43955437
 31
0.0
  0
LINE
  5
532
100
AcDbEntity
  8
Sc.1_5
 62
     7
  6
DASHED
370
    25
100
AcDbLine
 10
2017.92065134
 20
-1740.61758703
 30
0.0
 11
1935.05207857
 21
-1788.46179317
 31
0.0
  0
LINE
  5
533
100
AcDbEntity
  8
Sc.1_5
 62
     7
  6
CONTINUOUS
 48
0.5
370
    -3
100
AcDbLine
 10
1903.37946983
 20
-1755.86070653
 30
500.0
 11
1927.41449532
 21
-1772.30912974
 31
500.0
  0
INSERT
  5
534
100
AcDbEntity
  8
Sc.1_5
 62
     7
  6
CONTINUOUS
370
    -3
100
AcDbBlockReference
  2
CDWK_EXTR_2
 10
1927.41449532
 20
-1772.30912974
 30
500.0
 41
1.0
 42
1.0
 43
1.0
 50
145.61412566
  0
LINE
  5
535
100
AcDbEntity
  8
Sc.1_5
 62
     9
  6
CONTINUOUS
370
    -3
100
AcDbLine
 10
1985.02263493
 20
-1735.98157904
 30
0.0
 11
2001.88965857
 21
-1764.44176624
 31
0.0
  0
LINE
  5
536
100
AcDbEntity
  8
Sc.1_5
 62
     9
  6
CONTINUOUS
370
    -3
100
AcDbLine
 10
2001.68005817
 20
-1764.80612111
 30
0.0
 11
2001.88965857
 21
-1764.44176624
 31
0.0
  0
LINE
  5
537
100
AcDbEntity
  8
Sc.1_5
 62
     9
  6
CONTINUOUS
370
    -3
100
AcDbLine
 10
2001.88965857
 20
-1764.44176624
 30
0.0
 11
2002.65011385
 21
-1763.76350743
 31
0.0
  0
LINE
  5
538
100
AcDbEntity
  8
Sc.1_5
 62
     9
  6
CONTINUOUS
370
    -3
100
AcDbLine
 10
2002.65011385
 20
-1763.76350743
 30
0.0
 11
2002.9599057
 21
-1763.57635076
 31
0.0
  0
LINE
  5
539
100
AcDbEntity
  8
Sc.1_5
 62
     9
  6
CONTINUOUS
370
    -3
100
AcDbLine
 10
2002.9599057
 20
-1763.57635076
 30
0.0
 11
2002.75457511
 21
-1763.93976775
 31
0.0
  0
LINE
  5
53A
100
AcDbEntity
  8
Sc.1_5
 62
     9
  6
CONTINUOUS
370
    -3
100
AcDbLine
 10
2002.75457511
 20
-1763.93976775
 30
0.0
 11
2002.02942814
 21
-1764.67760323
 31
0.0
  0
LINE
  5
53B
100
AcDbEntity
  8
Sc.1_5
 62
     9
  6
CONTINUOUS
370
    -3
100
AcDbLine
 10
2002.02942814
 20
-1764.67760323
 30
0.0
 11
2001.68005817
 21
-1764.80612111
 31
0.0
  0
LINE
  5
53C
100
AcDbEntity
  8
Sc.1_5
 62
     9
  6
CONTINUOUS
370
    -3
100
AcDbLine
 10
2001.68005817
 20
-1764.80612111
 30
0.0
 11
2002.9599057
 21
-1763.57635076
 31
0.0
  0
LINE
  5
53D
100
AcDbEntity
  8
Sc.1_5
 62
     9
  6
CONTINUOUS
370
    -3
100
AcDbLine
 10
1985.88290356
 20
-1735.471738
 30
0.0
 11
2002.65011385
 21
-1763.76350743
 31
0.0
  0
LINE
  5
53E
100
AcDbEntity
  8
Sc.1_5
 62
     9
  6
CONTINUOUS
370
    -3
100
AcDbLine
 10
2002.31130551
 20
-1765.53163417
 30
0.0
 11
2002.47858084
 21
-1765.27546335
 31
0.0
  0
LINE
  5
53F
100
AcDbEntity
  8
Sc.1_5
 62
     9
  6
CONTINUOUS
370
    -3
100
AcDbLine
 10
2002.47858084
 20
-1765.27546335
 30
0.0
 11
2003.125956
 21
-1764.73455871
 31
0.0
  0
LINE
  5
540
100
AcDbEntity
  8
Sc.1_5
 62
     9
  6
CONTINUOUS
370
    -3
100
AcDbLine
 10
2003.125956
 20
-1764.73455871
 30
0.0
 11
2003.36210673
 21
-1764.59460321
 31
0.0
  0
LINE
  5
541
100
AcDbEntity
  8
Sc.1_5
 62
     9
  6
CONTINUOUS
370
    -3
100
AcDbLine
 10
2003.36210673
 20
-1764.59460321
 30
0.0
 11
2003.18285542
 21
-1764.87867289
 31
0.0
  0
LINE
  5
542
100
AcDbEntity
  8
Sc.1_5
 62
     9
  6
CONTINUOUS
370
    -3
100
AcDbLine
 10
2003.18285542
 20
-1764.87867289
 30
0.0
 11
2002.61558316
 21
-1765.41752586
 31
0.0
  0
LINE
  5
543
100
AcDbEntity
  8
Sc.1_5
 62
     9
  6
CONTINUOUS
370
    -3
100
AcDbLine
 10
2002.61558316
 20
-1765.41752586
 30
0.0
 11
2002.31130551
 21
-1765.53163417
 31
0.0
  0
LINE
  5
544
100
AcDbEntity
  8
Sc.1_5
 62
     9
  6
CONTINUOUS
370
    -3
100
AcDbLine
 10
2002.31130551
 20
-1765.53163417
 30
0.0
 11
2003.36210673
 21
-1764.59460321
 31
0.0
  0
LINE
  5
545
100
AcDbEntity
  8
Sc.1_5
 62
     9
  6
CONTINUOUS
370
    -3
100
AcDbLine
 10
2003.18285542
 20
-1764.87867289
 30
0.0
 11
2003.38971537
 21
-1765.99215501
 31
0.0
  0
LINE
  5
546
100
AcDbEntity
  8
Sc.1_5
 62
     9
  6
CONTINUOUS
370
    -3
100
AcDbLine
 10
2002.75457511
 20
-1763.93976775
 30
0.0
 11
2003.125956
 21
-1764.73455871
 31
0.0
  0
LINE
  5
547
100
AcDbEntity
  8
Sc.1_5
 62
     9
  6
CONTINUOUS
370
    -3
100
AcDbLine
 10
2002.47858084
 20
-1765.27546335
 30
0.0
 11
2002.02942814
 21
-1764.67760323
 31
0.0
  0
LINE
  5
548
100
AcDbEntity
  8
Sc.1_5
 62
     9
  6
CONTINUOUS
370
    -3
100
AcDbLine
 10
2002.61558316
 20
-1765.41752586
 30
0.0
 11
2003.38971537
 21
-1765.99215501
 31
0.0
  0
LWPOLYLINE
  5
549
100
AcDbEntity
  8
Sc.1_5
 62
     9
  6
CONTINUOUS
370
    20
100
AcDbPolyline
 90
        8
 70
     1
 43
0.0
 38
510.0
 39
-510.0
 10
2002.50787178
 20
-1762.54280068
 10
2002.24753924
 20
-1763.08423235
 10
2001.52035224
 20
-1763.81862563
 10
2001.12233841
 20
-1764.12774393
 10
2001.38267095
 20
-1763.58631225
 10
2002.10985795
 20
-1762.85191897
 10
2002.50787178
 20
-1762.54280068
 10
2001.12233841
 20
-1764.12774393
  0
LWPOLYLINE
  5
54A
100
AcDbEntity
  8
Sc.1_5
 62
     9
  6
CONTINUOUS
370
    20
100
AcDbPolyline
 90
        8
 70
     1
 43
0.0
 38
510.0
 39
-510.0
 10
2001.87707727
 20
-1761.47844397
 10
2001.61674474
 20
-1762.01987565
 10
2000.88955773
 20
-1762.75426893
 10
2000.49154391
 20
-1763.06338722
 10
2000.75187644
 20
-1762.52195555
 10
2001.47906345
 20
-1761.78756227
 10
2001.87707727
 20
-1761.47844397
 10
2000.49154391
 20
-1763.06338722
  0
3DFACE
  5
54B
100
AcDbEntity
  8
Sc.1_5
 62
     9
  6
CONTINUOUS
370
    20
100
AcDbFace
 70
     0
 10
1983.24075202
 20
-1735.52477397
 30
510.0
 11
1985.02288942
 21
-1735.98058427
 31
510.0
 12
1985.88190878
 22
-1735.47148356
 32
510.0
 13
1986.33771909
 23
-1733.68934624
 33
510.0
  0
3DFACE
  5
54C
100
AcDbEntity
  8
Sc.1_5
 62
     9
  6
CONTINUOUS
370
    20
100
AcDbFace
 70
     0
 10
1983.24075202
 20
-1735.52477397
 30
510.0
 11
1983.13878381
 21
-1735.35272024
 31
510.0
 12
1986.23575088
 22
-1733.51729251
 32
510.0
 13
1986.33771909
 23
-1733.68934624
 33
510.0
  0
LWPOLYLINE
  5
54D
100
AcDbEntity
  8
Sc.1_5
 62
     9
  6
CADWORK_13
370
    -3
100
AcDbPolyline
 90
        4
 70
     0
 43
0.0
 38
510.0
 10
1985.11740166
 20
-1734.18008586
 10
1985.36769772
 20
-1734.99469633
 10
1984.85153654
 20
-1735.30060095
 10
1984.25713303
 20
-1734.68992689
  0
LINE
  5
54E
100
AcDbEntity
  8
Sc.1_5
 62
     9
  6
CADWORK_13
370
    -3
100
AcDbLine
 10
1985.10961713
 20
-1735.14764864
 30
510.0
 11
1984.68726735
 21
-1734.43500637
 31
510.0
  0
LWPOLYLINE
  5
54F
100
AcDbEntity
  8
Sc.1_5
 62
     9
  6
CONTINUOUS
370
    20
100
AcDbPolyline
 90
        8
 70
     1
 43
0.0
 38
510.0
 39
-510.0
 10
2001.24628276
 20
-1760.41408726
 10
2000.98595023
 20
-1760.95551894
 10
2000.25876322
 20
-1761.68991222
 10
1999.8607494
 20
-1761.99903052
 10
2000.12108193
 20
-1761.45759884
 10
2000.84826894
 20
-1760.72320556
 10
2001.24628276
 20
-1760.41408726
 10
1999.8607494
 20
-1761.99903052
  0
LWPOLYLINE
  5
550
100
AcDbEntity
  8
Sc.1_5
 62
     9
  6
CONTINUOUS
370
    20
100
AcDbPolyline
 90
        8
 70
     1
 43
0.0
 38
510.0
 39
-510.0
 10
2000.61548826
 20
-1759.34973056
 10
2000.35515572
 20
-1759.89116223
 10
1999.62796872
 20
-1760.62555552
 10
1999.22995489
 20
-1760.93467381
 10
1999.49028743
 20
-1760.39324213
 10
2000.21747443
 20
-1759.65884885
 10
2000.61548826
 20
-1759.34973056
 10
1999.22995489
 20
-1760.93467381
  0
LWPOLYLINE
  5
551
100
AcDbEntity
  8
Sc.1_5
 62
     9
  6
CONTINUOUS
370
    20
100
AcDbPolyline
 90
        8
 70
     1
 43
0.0
 38
510.0
 39
-510.0
 10
1999.98469375
 20
-1758.28537385
 10
1999.72436122
 20
-1758.82680553
 10
1998.99717421
 20
-1759.56119881
 10
1998.59916039
 20
-1759.8703171
 10
1998.85949292
 20
-1759.32888543
 10
1999.58667993
 20
-1758.59449215
 10
1999.98469375
 20
-1758.28537385
 10
1998.59916039
 20
-1759.8703171
  0
LWPOLYLINE
  5
552
100
AcDbEntity
  8
Sc.1_5
 62
     9
  6
CONTINUOUS
370
    20
100
AcDbPolyline
 90
        8
 70
     1
 43
0.0
 38
510.0
 39
-510.0
 10
1999.35389925
 20
-1757.22101714
 10
1999.09356671
 20
-1757.76244882
 10
1998.36637971
 20
-1758.4968421
 10
1997.96836588
 20
-1758.8059604
 10
1998.22869842
 20
-1758.26452872
 10
1998.95588542
 20
-1757.53013544
 10
1999.35389925
 20
-1757.22101714
 10
1997.96836588
 20
-1758.8059604
  0
LWPOLYLINE
  5
553
100
AcDbEntity
  8
Sc.1_5
 62
     9
  6
CONTINUOUS
370
    20
100
AcDbPolyline
 90
        8
 70
     1
 43
0.0
 38
510.0
 39
-510.0
 10
1998.72310474
 20
-1756.15666044
 10
1998.4627722
 20
-1756.69809211
 10
1997.7355852
 20
-1757.4324854
 10
1997.33757138
 20
-1757.74160369
 10
1997.59790391
 20
-1757.20017201
 10
1998.32509091
 20
-1756.46577873
 10
1998.72310474
 20
-1756.15666044
 10
1997.33757138
 20
-1757.74160369
  0
LWPOLYLINE
  5
554
100
AcDbEntity
  8
Sc.1_5
 62
     9
  6
CONTINUOUS
370
    20
100
AcDbPolyline
 90
        8
 70
     1
 43
0.0
 38
510.0
 39
-510.0
 10
1998.09231023
 20
-1755.09230373
 10
1997.8319777
 20
-1755.63373541
 10
1997.10479069
 20
-1756.36812869
 10
1996.70677687
 20
-1756.67724698
 10
1996.9671094
 20
-1756.13581531
 10
1997.69429641
 20
-1755.40142203
 10
1998.09231023
 20
-1755.09230373
 10
1996.70677687
 20
-1756.67724698
  0
LWPOLYLINE
  5
555
100
AcDbEntity
  8
Sc.1_5
 62
     9
  6
CONTINUOUS
370
    20
100
AcDbPolyline
 90
        8
 70
     1
 43
0.0
 38
510.0
 39
-510.0
 10
1997.46151573
 20
-1754.02794703
 10
1997.20118319
 20
-1754.5693787
 10
1996.47399619
 20
-1755.30377198
 10
1996.07598236
 20
-1755.61289028
 10
1996.3363149
 20
-1755.0714586
 10
1997.0635019
 20
-1754.33706532
 10
1997.46151573
 20
-1754.02794703
 10
1996.07598236
 20
-1755.61289028
  0
LWPOLYLINE
  5
556
100
AcDbEntity
  8
Sc.1_5
 62
     9
  6
CONTINUOUS
370
    20
100
AcDbPolyline
 90
        8
 70
     1
 43
0.0
 38
510.0
 39
-510.0
 10
1996.83072122
 20
-1752.96359032
 10
1996.57038869
 20
-1753.50502199
 10
1995.84320168
 20
-1754.23941528
 10
1995.44518786
 20
-1754.54853357
 10
1995.70552039
 20
-1754.00710189
 10
1996.4327074
 20
-1753.27270861
 10
1996.83072122
 20
-1752.96359032
 10
1995.44518786
 20
-1754.54853357
  0
LWPOLYLINE
  5
557
100
AcDbEntity
  8
Sc.1_5
 62
     9
  6
CONTINUOUS
370
    20
100
AcDbPolyline
 90
        8
 70
     1
 43
0.0
 38
510.0
 39
-510.0
 10
1996.19992671
 20
-1751.89923361
 10
1995.93959418
 20
-1752.44066529
 10
1995.21240718
 20
-1753.17505857
 10
1994.81439335
 20
-1753.48417686
 10
1995.07472589
 20
-1752.94274519
 10
1995.80191289
 20
-1752.20835191
 10
1996.19992671
 20
-1751.89923361
 10
1994.81439335
 20
-1753.48417686
  0
LWPOLYLINE
  5
558
100
AcDbEntity
  8
Sc.1_5
 62
     9
  6
CONTINUOUS
370
    20
100
AcDbPolyline
 90
        8
 70
     1
 43
0.0
 38
510.0
 39
-510.0
 10
1995.56913221
 20
-1750.83487691
 10
1995.30879967
 20
-1751.37630858
 10
1994.58161267
 20
-1752.11070186
 10
1994.18359884
 20
-1752.41982016
 10
1994.44393138
 20
-1751.87838848
 10
1995.17111838
 20
-1751.1439952
 10
1995.56913221
 20
-1750.83487691
 10
1994.18359884
 20
-1752.41982016
  0
LWPOLYLINE
  5
559
100
AcDbEntity
  8
Sc.1_5
 62
     9
  6
CONTINUOUS
370
    20
100
AcDbPolyline
 90
        8
 70
     1
 43
0.0
 38
510.0
 39
-510.0
 10
1994.9383377
 20
-1749.7705202
 10
1994.67800517
 20
-1750.31195187
 10
1993.95081816
 20
-1751.04634516
 10
1993.55280434
 20
-1751.35546345
 10
1993.81313687
 20
-1750.81403178
 10
1994.54032388
 20
-1750.07963849
 10
1994.9383377
 20
-1749.7705202
 10
1993.55280434
 20
-1751.35546345
  0
LWPOLYLINE
  5
55A
100
AcDbEntity
  8
Sc.1_5
 62
     9
  6
CONTINUOUS
370
    20
100
AcDbPolyline
 90
        8
 70
     1
 43
0.0
 38
510.0
 39
-510.0
 10
1994.3075432
 20
-1748.70616349
 10
1994.04721066
 20
-1749.24759517
 10
1993.32002366
 20
-1749.98198845
 10
1992.92200983
 20
-1750.29110674
 10
1993.18234237
 20
-1749.74967507
 10
1993.90952937
 20
-1749.01528179
 10
1994.3075432
 20
-1748.70616349
 10
1992.92200983
 20
-1750.29110674
  0
LWPOLYLINE
  5
55B
100
AcDbEntity
  8
Sc.1_5
 62
     9
  6
CONTINUOUS
370
    20
100
AcDbPolyline
 90
        8
 70
     1
 43
0.0
 38
510.0
 39
-510.0
 10
1993.67674869
 20
-1747.64180679
 10
1993.41641616
 20
-1748.18323846
 10
1992.68922915
 20
-1748.91763174
 10
1992.29121533
 20
-1749.22675004
 10
1992.55154786
 20
-1748.68531836
 10
1993.27873487
 20
-1747.95092508
 10
1993.67674869
 20
-1747.64180679
 10
1992.29121533
 20
-1749.22675004
  0
LWPOLYLINE
  5
55C
100
AcDbEntity
  8
Sc.1_5
 62
     9
  6
CONTINUOUS
370
    20
100
AcDbPolyline
 90
        8
 70
     1
 43
0.0
 38
510.0
 39
-510.0
 10
1993.04595418
 20
-1746.57745008
 10
1992.78562165
 20
-1747.11888176
 10
1992.05843464
 20
-1747.85327504
 10
1991.66042082
 20
-1748.16239333
 10
1991.92075335
 20
-1747.62096166
 10
1992.64794036
 20
-1746.88656837
 10
1993.04595418
 20
-1746.57745008
 10
1991.66042082
 20
-1748.16239333
  0
LWPOLYLINE
  5
55D
100
AcDbEntity
  8
Sc.1_5
 62
     9
  6
CONTINUOUS
370
    20
100
AcDbPolyline
 90
        8
 70
     1
 43
0.0
 38
510.0
 39
-510.0
 10
1992.41515968
 20
-1745.51309337
 10
1992.15482714
 20
-1746.05452505
 10
1991.42764014
 20
-1746.78891833
 10
1991.02962631
 20
-1747.09803662
 10
1991.28995885
 20
-1746.55660495
 10
1992.01714585
 20
-1745.82221167
 10
1992.41515968
 20
-1745.51309337
 10
1991.02962631
 20
-1747.09803662
  0
LWPOLYLINE
  5
55E
100
AcDbEntity
  8
Sc.1_5
 62
     9
  6
CONTINUOUS
370
    20
100
AcDbPolyline
 90
        8
 70
     1
 43
0.0
 38
510.0
 39
-510.0
 10
1991.78436517
 20
-1744.44873667
 10
1991.52403264
 20
-1744.99016834
 10
1990.79684563
 20
-1745.72456162
 10
1990.39883181
 20
-1746.03367992
 10
1990.65916434
 20
-1745.49224824
 10
1991.38635135
 20
-1744.75785496
 10
1991.78436517
 20
-1744.44873667
 10
1990.39883181
 20
-1746.03367992
  0
LWPOLYLINE
  5
55F
100
AcDbEntity
  8
Sc.1_5
 62
     9
  6
CONTINUOUS
370
    20
100
AcDbPolyline
 90
        8
 70
     1
 43
0.0
 38
510.0
 39
-510.0
 10
1991.15357066
 20
-1743.38437996
 10
1990.89323813
 20
-1743.92581164
 10
1990.16605113
 20
-1744.66020492
 10
1989.7680373
 20
-1744.96932321
 10
1990.02836984
 20
-1744.42789154
 10
1990.75555684
 20
-1743.69349825
 10
1991.15357066
 20
-1743.38437996
 10
1989.7680373
 20
-1744.96932321
  0
LWPOLYLINE
  5
560
100
AcDbEntity
  8
Sc.1_5
 62
     9
  6
CONTINUOUS
370
    20
100
AcDbPolyline
 90
        8
 70
     1
 43
0.0
 38
510.0
 39
-510.0
 10
1990.52277616
 20
-1742.32002325
 10
1990.26244362
 20
-1742.86145493
 10
1989.53525662
 20
-1743.59584821
 10
1989.1372428
 20
-1743.90496651
 10
1989.39757533
 20
-1743.36353483
 10
1990.12476233
 20
-1742.62914155
 10
1990.52277616
 20
-1742.32002325
 10
1989.1372428
 20
-1743.90496651
  0
LWPOLYLINE
  5
561
100
AcDbEntity
  8
Sc.1_5
 62
     9
  6
CONTINUOUS
370
    20
100
AcDbPolyline
 90
        8
 70
     1
 43
0.0
 38
510.0
 39
-510.0
 10
1989.89198165
 20
-1741.25566655
 10
1989.63164912
 20
-1741.79709822
 10
1988.90446211
 20
-1742.5314915
 10
1988.50644829
 20
-1742.8406098
 10
1988.76678082
 20
-1742.29917812
 10
1989.49396783
 20
-1741.56478484
 10
1989.89198165
 20
-1741.25566655
 10
1988.50644829
 20
-1742.8406098
  0
LWPOLYLINE
  5
562
100
AcDbEntity
  8
Sc.1_5
 62
     9
  6
CONTINUOUS
370
    20
100
AcDbPolyline
 90
        8
 70
     1
 43
0.0
 38
510.0
 39
-510.0
 10
1989.26118715
 20
-1740.19130984
 10
1989.00085461
 20
-1740.73274152
 10
1988.27366761
 20
-1741.4671348
 10
1987.87565378
 20
-1741.77625309
 10
1988.13598632
 20
-1741.23482142
 10
1988.86317332
 20
-1740.50042814
 10
1989.26118715
 20
-1740.19130984
 10
1987.87565378
 20
-1741.77625309
  0
LWPOLYLINE
  5
563
100
AcDbEntity
  8
Sc.1_5
 62
     9
  6
CONTINUOUS
370
    20
100
AcDbPolyline
 90
        8
 70
     1
 43
0.0
 38
510.0
 39
-510.0
 10
1988.63039264
 20
-1739.12695313
 10
1988.37006011
 20
-1739.66838481
 10
1987.6428731
 20
-1740.40277809
 10
1987.24485928
 20
-1740.71189639
 10
1987.50519181
 20
-1740.17046471
 10
1988.23237882
 20
-1739.43607143
 10
1988.63039264
 20
-1739.12695313
 10
1987.24485928
 20
-1740.71189639
  0
LWPOLYLINE
  5
564
100
AcDbEntity
  8
Sc.1_5
 62
     9
  6
CONTINUOUS
370
    20
100
AcDbPolyline
 90
        8
 70
     1
 43
0.0
 38
510.0
 39
-510.0
 10
1987.99959813
 20
-1738.06259643
 10
1987.7392656
 20
-1738.6040281
 10
1987.0120786
 20
-1739.33842138
 10
1986.61406477
 20
-1739.64753968
 10
1986.87439731
 20
-1739.106108
 10
1987.60158431
 20
-1738.37171472
 10
1987.99959813
 20
-1738.06259643
 10
1986.61406477
 20
-1739.64753968
  0
LWPOLYLINE
  5
565
100
AcDbEntity
  8
Sc.1_5
 62
     9
  6
CONTINUOUS
370
    20
100
AcDbPolyline
 90
        8
 70
     1
 43
0.0
 38
510.0
 39
-510.0
 10
1987.36880363
 20
-1736.99823972
 10
1987.10847109
 20
-1737.5396714
 10
1986.38128409
 20
-1738.27406468
 10
1985.98327026
 20
-1738.58318297
 10
1986.2436028
 20
-1738.0417513
 10
1986.9707898
 20
-1737.30735802
 10
1987.36880363
 20
-1736.99823972
 10
1985.98327026
 20
-1738.58318297
  0
LWPOLYLINE
  5
566
100
AcDbEntity
  8
Sc.1_5
 62
     9
  6
CONTINUOUS
370
    20
100
AcDbPolyline
 90
        8
 70
     1
 43
0.0
 38
510.0
 39
-510.0
 10
1986.73800912
 20
-1735.93388301
 10
1986.47767659
 20
-1736.47531469
 10
1985.75048958
 20
-1737.20970797
 10
1985.35247576
 20
-1737.51882627
 10
1985.61280829
 20
-1736.97739459
 10
1986.3399953
 20
-1736.24300131
 10
1986.73800912
 20
-1735.93388301
 10
1985.35247576
 20
-1737.51882627
  0
LINE
  5
567
100
AcDbEntity
  8
Sc.1_5
 62
     7
  6
CONTINUOUS
 48
0.5
370
    -3
100
AcDbLine
 10
1955.32035936
 20
-1735.67164842
 30
500.0
 11
1984.47662068
 21
-1734.60780492
 31
500.0
  0
INSERT
  5
568
100
AcDbEntity
  8
Sc.1_5
 62
     7
  6
CONTINUOUS
370
    -3
100
AcDbBlockReference
  2
CDWK_EXTR_2
 10
1984.47662068
 20
-1734.60780492
 30
500.0
 41
1.0
 42
1.0
 43
1.0
 50
182.08966139
  0
LINE
  5
569
100
AcDbEntity
  8
Sc.1_5
 62
     7
  6
CONTINUOUS
 48
0.5
370
    -3
100
AcDbLine
 10
1955.32035936
 20
-1735.67164842
 30
500.0
 11
1946.6819608
 21
-1759.53421994
 31
500.0
  0
INSERT
  5
56A
100
AcDbEntity
  8
Sc.1_5
 62
     7
  6
CONTINUOUS
370
    -3
100
AcDbBlockReference
  2
CDWK_EXTR_2
 10
1946.6819608
 20
-1759.53421994
 30
500.0
 41
1.0
 42
1.0
 43
1.0
 50
70.09943052
  0
LWPOLYLINE
  5
56B
100
AcDbEntity
  8
Sc.1_1
 62
     7
  6
DASHDOT
370
     5
100
AcDbPolyline
 90
        4
 70
     1
 43
0.0
 10
1841.31837012
 20
-1941.58736414
 10
1873.22144223
 20
-1941.58736414
 10
1873.22144223
 20
-1925.59035714
 10
1841.31837012
 20
-1925.59035714
  0
LWPOLYLINE
  5
56C
100
AcDbEntity
  8
LEGEND
 62
     5
  6
CONTINUOUS
370
    -3
100
AcDbPolyline
 90
        4
 70
     1
 43
0.0
 10
1872.90366659
 20
-1942.22101287
 10
1930.71902083
 20
-1942.22101287
 10
1930.71902083
 20
-1924.95865138
 10
1872.90366659
 20
-1924.95865138
  0
LWPOLYLINE
  5
56D
100
AcDbEntity
  8
LEGEND
 62
     5
  6
CONTINUOUS
370
    -3
100
AcDbPolyline
 90
        4
 70
     1
 43
0.0
 10
1930.71902083
 20
-1942.22101287
 10
2004.11117238
 20
-1942.22101287
 10
2004.11117238
 20
-1924.95865138
 10
1930.71902083
 20
-1924.95865138
  0
LWPOLYLINE
  5
56E
100
AcDbEntity
  8
LEGEND
 62
     5
  6
CONTINUOUS
370
    -3
100
AcDbPolyline
 90
        4
 70
     1
 43
0.0
 10
2004.11117238
 20
-1942.22101287
 10
2038.63517151
 20
-1942.22101287
 10
2038.63517151
 20
-1933.58983213
 10
2004.11117238
 20
-1933.58983213
  0
LWPOLYLINE
  5
56F
100
AcDbEntity
  8
LEGEND
 62
     5
  6
CONTINUOUS
370
    -3
100
AcDbPolyline
 90
        4
 70
     1
 43
0.0
 10
2004.11117238
 20
-1933.58983213
 10
2019.01942105
 20
-1933.58983213
 10
2019.01942105
 20
-1924.95865138
 10
2004.11117238
 20
-1924.95865138
  0
LWPOLYLINE
  5
570
100
AcDbEntity
  8
LEGEND
 62
     5
  6
CONTINUOUS
370
    -3
100
AcDbPolyline
 90
        4
 70
     1
 43
0.0
 10
1841.63517151
 20
-1942.22101287
 10
2038.63517151
 20
-1942.22101287
 10
2038.63517151
 20
-1671.22101287
 10
1841.63517151
 20
-1671.22101287
  0
LWPOLYLINE
  5
571
100
AcDbEntity
  8
LEGEND
 62
     5
  6
CONTINUOUS
370
    -3
100
AcDbPolyline
 90
        4
 70
     1
 43
0.0
 10
2019.01942105
 20
-1933.58983213
 10
2038.63517151
 20
-1933.58983213
 10
2038.63517151
 20
-1924.95865138
 10
2019.01942105
 20
-1924.95865138
  0
LWPOLYLINE
  5
572
100
AcDbEntity
  8
LEGEND
 62
     5
  6
CONTINUOUS
370
    -3
100
AcDbPolyline
 90
        4
 70
     1
 43
0.0
 10
1841.63517151
 20
-1942.22101287
 10
1872.90366659
 20
-1942.22101287
 10
1872.90366659
 20
-1924.95865138
 10
1841.63517151
 20
-1924.95865138
  0
3DFACE
  5
573
100
AcDbEntity
  8
Sc.1_5
 62
     7
  6
CONTINUOUS
370
    20
100
AcDbFace
 70
     0
 10
1928.67658554
 20
-1801.25980416
 30
548.63999023
 11
1932.6765856
 21
-1801.25980381
 31
548.63999023
 12
1932.6765863
 22
-1809.25980393
 32
548.63999023
 13
1928.67658624
 23
-1809.25980428
 33
548.63999023
  0
INSERT
  5
574
100
AcDbEntity
  8
Sc.1_5
 62
     0
370
    20
100
AcDbBlockReference
  2
*X2009
 10
0.0
 20
0.0
 30
0.0
  0
3DFACE
  5
575
100
AcDbEntity
  8
Sc.1_5
 62
     7
  6
CONTINUOUS
370
    20
100
AcDbFace
 70
     0
 10
1935.54106192
 20
-1800.25980502
 30
548.63999023
 11
1935.54106231
 21
-1809.25980515
 31
548.63999023
 12
1963.54106157
 22
-1809.25980393
 32
548.63999023
 13
1963.54106234
 23
-1800.25980379
 33
548.63999023
  0
INSERT
  5
576
100
AcDbEntity
  8
Sc.1_5
 62
     0
370
    20
100
AcDbBlockReference
  2
*X2236
 10
0.0
 20
0.0
 30
0.0
  0
3DFACE
  5
577
100
AcDbEntity
  8
Sc.1_5
 62
     7
  6
CONTINUOUS
370
    20
100
AcDbFace
 70
     0
 10
1935.54106192
 20
-1809.25980515
 30
548.63999023
 11
1935.54106231
 21
-1818.25980529
 31
548.63999023
 12
1963.54106157
 22
-1818.25980406
 32
548.63999023
 13
1963.54106234
 23
-1809.25980393
 33
548.63999023
  0
INSERT
  5
578
100
AcDbEntity
  8
Sc.1_5
 62
     0
370
    20
100
AcDbBlockReference
  2
*X2237
 10
0.0
 20
0.0
 30
0.0
  0
3DFACE
  5
579
100
AcDbEntity
  8
Sc.1_5
 62
     7
  6
CONTINUOUS
370
    20
100
AcDbFace
 70
     0
 10
1963.54096262
 20
-1818.25980529
 30
914.4
 11
1963.54096262
 21
-1876.43955573
 31
914.4
 12
1935.54106231
 22
-1876.43955573
 32
914.4
 13
1935.54106231
 23
-1818.25980529
 33
914.4
  0
INSERT
  5
57A
100
AcDbEntity
  8
Sc.1_5
 62
     0
370
    20
100
AcDbBlockReference
  2
*X2241
 10
0.0
 20
0.0
 30
0.0
  0
3DFACE
  5
57B
100
AcDbEntity
  8
Sc.1_5
 62
     7
  6
CONTINUOUS
370
    20
100
AcDbFace
 70
     0
 10
1878.65202067
 20
-1795.65448459
 30
548.63999023
 11
1878.65212001
 21
-1816.43903695
 31
548.63999023
 12
1887.65202148
 22
-1811.24294209
 32
548.63999023
 13
1887.65202108
 23
-1790.4583885
 33
548.63999023
  0
INSERT
  5
57C
100
AcDbEntity
  8
Sc.1_5
 62
     0
370
    20
100
AcDbBlockReference
  2
*X2297
 10
0.0
 20
0.0
 30
0.0
  0
3DFACE
  5
57D
100
AcDbEntity
  8
Sc.1_5
 62
     7
  6
CONTINUOUS
370
    20
100
AcDbFace
 70
     0
 10
1924.79093256
 20
-1769.01611503
 30
548.63999023
 11
1932.58516119
 21
-1764.51611503
 31
548.63999023
 12
1941.585162
 22
-1780.10457186
 32
548.63999023
 13
1933.79093345
 23
-1784.60457227
 33
548.63999023
  0
INSERT
  5
57E
100
AcDbEntity
  8
Sc.1_5
 62
     0
370
    20
100
AcDbBlockReference
  2
*X2298
 10
0.0
 20
0.0
 30
0.0
  0
3DFACE
  5
57F
100
AcDbEntity
  8
Sc.1_5
 62
     7
  6
CONTINUOUS
370
    20
100
AcDbFace
 70
     0
 10
1999.16546908
 20
-1726.0760127
 30
548.63999023
 11
2006.95969772
 21
-1721.5760127
 31
548.63999023
 12
2015.95969861
 22
-1737.16446994
 32
548.63999023
 13
2008.16546997
 23
-1741.66446994
 33
548.63999023
  0
INSERT
  5
580
100
AcDbEntity
  8
Sc.1_5
 62
     0
370
    20
100
AcDbBlockReference
  2
*X2299
 10
0.0
 20
0.0
 30
0.0
  0
LWPOLYLINE
  5
581
102
{ACAD_REACTORS
330
582
102
}
100
AcDbEntity
  8
Sc.1_5
 62
     7
  6
CONTINUOUS
100
AcDbPolyline
 90
        5
 70
     1
 43
0.0
 38
975.35996094
 39
-975.35996094
 10
1935.79090798
 20
-1799.75980167
 10
1963.540963
 20
-1799.75980502
 10
2029.596718
 20
-1761.62249709
 10
2017.95957553
 20
-1740.62853036
 10
1935.79090939
 20
-1788.06863187
  0
HATCH
  5
582
100
AcDbEntity
  8
Sc.1_5
 62
     9
  6
CONTINUOUS
100
AcDbHatch
 10
0.0
 20
0.0
 30
0.0
210
0.0
220
0.0
230
1.0
  2
Wood
 70
     0
 71
     1
 91
        1
 92
        7
 72
     0
 73
     1
 93
        5
 10
1935.79090798
 20
-1799.75980167
 10
1963.540963
 20
-1799.75980502
 10
2029.596718
 20
-1761.62249709
 10
2017.95957553
 20
-1740.62853036
 10
1935.79090939
 20
-1788.06863187
 97
        1
330
581
 75
     0
 76
     2
 52
29.84139633
 41
1.0
 77
     0
 78
    66
 53
29.84139633
 43
0.0
 44
0.0
 45
-20.51662718
 46
35.76410863
 79
     4
 49
8.24619961
 49
-12.36929989
 49
4.1230998
 49
-16.49239922
 53
29.84139633
 43
24.52188959
 44
15.25572712
 45
-20.51662718
 46
35.76410863
 79
     2
 49
8.24619961
 49
-32.98479843
 53
29.84139633
 43
19.91968298
 44
14.99222691
 45
-20.51662718
 46
35.76410863
 79
     2
 49
4.1230998
 49
-37.10800171
 53
29.84139633
 43
-0.26341322
 44
4.60225596
 45
-20.51662718
 46
35.76410863
 79
     4
 49
2.06159997
 49
-28.86170006
 49
2.06159997
 49
-8.24619961
 53
29.84139633
 43
11.22809707
 44
13.57127784
 45
-20.51662718
 46
35.76410863
 79
     4
 49
8.24619961
 49
-12.36929989
 49
2.06159997
 49
-18.55400085
 53
29.84139633
 43
1.77425802
 44
9.33619425
 45
-20.51662718
 46
35.76410863
 79
     2
 49
6.18470001
 49
-35.04639816
 53
29.84139633
 43
10.20229324
 44
15.35943529
 45
-20.51662718
 46
35.76410863
 79
     2
 49
12.36929989
 49
-28.86170006
 53
29.84139633
 43
-1.0398406
 44
10.09858507
 45
-20.51662718
 46
35.76410863
 79
     2
 49
8.24619961
 49
-32.98479843
 53
29.84139633
 43
12.75284169
 44
19.19933841
 45
-20.51662718
 46
35.76410863
 79
     2
 49
20.6154995
 49
-20.6154995
 53
29.84139633
 43
0.99783091
 44
14.83252241
 45
-20.51662718
 46
35.76410863
 79
     4
 49
4.1230998
 49
-12.36929989
 49
8.24619961
 49
-16.49239922
 53
29.84139633
 43
25.51980907
 44
30.08830021
 45
-20.51662718
 46
35.76410863
 79
     2
 49
8.24619961
 49
-32.98479843
 53
29.84139633
 43
17.85398937
 44
26.87905611
 45
-20.51662718
 46
35.76410863
 79
     2
 49
4.1230998
 49
-37.10800171
 53
29.84139633
 43
10.18830671
 44
23.66977629
 45
-20.51662718
 46
35.76410863
 79
     2
 49
4.1230998
 49
-37.10800171
 53
29.84139633
 43
-8.20663094
 44
14.30560871
 45
-20.51662718
 46
35.76410863
 79
     2
 49
8.24619961
 49
-32.98479843
 53
29.84139633
 43
9.16245353
 44
25.45801978
 45
-20.51662718
 46
35.76410863
 79
     2
 49
8.24619961
 49
-32.98479843
 53
29.84139633
 43
8.13659891
 44
27.24626574
 45
-20.51662718
 46
35.76410863
 79
     4
 49
8.24619961
 49
-8.24619961
 49
8.24619961
 49
-16.49239922
 53
29.84139633
 43
-0.0420088
 44
24.9311069
 45
-20.51662718
 46
35.76410863
 79
     4
 49
4.1230998
 49
-20.6154995
 49
8.24619961
 49
-8.24619961
 53
29.84139633
 43
6.59786872
 44
29.92854452
 45
-20.51662718
 46
35.76410863
 79
     2
 49
12.36929989
 49
-28.86170006
 53
29.84139633
 43
5.57206441
 44
31.7167028
 45
-20.51662718
 46
35.76410863
 79
     2
 49
8.24619961
 49
-32.98479843
 53
29.84139633
 43
-9.24647154
 44
24.40419378
 45
-20.51662718
 46
35.76410863
 79
     4
 49
12.36929989
 49
-16.49239922
 49
4.1230998
 49
-8.24619961
 53
29.84139633
 43
-10.2723252
 44
26.19243809
 45
-20.51662718
 46
35.76410863
 79
     2
 49
20.6154995
 49
-20.6154995
 53
29.84139633
 43
10.67321162
 44
39.39642134
 45
-20.51662718
 46
35.76410863
 79
     2
 49
4.1230998
 49
-37.10800171
 53
29.84139633
 43
-0.56892298
 44
34.13556958
 45
-20.51662718
 46
35.76410863
 79
     2
 49
8.24619961
 49
-32.98479843
 53
29.84139633
 43
-8.23465417
 44
30.92637626
 45
-20.51662718
 46
35.76410863
 79
     4
 49
4.1230998
 49
-16.49239922
 49
4.1230998
 49
-16.49239922
 53
29.84139633
 43
-12.32398318
 44
29.76884068
 45
-20.51662718
 46
35.76410863
 79
     4
 49
4.1230998
 49
-12.36929989
 49
8.24619961
 49
-16.49239922
 53
29.84139633
 43
-5.68405494
 44
34.76619086
 45
-20.51662718
 46
35.76410863
 79
     4
 49
4.1230998
 49
-20.6154995
 49
4.1230998
 49
-12.36929989
 53
29.84139633
 43
0.95582258
 44
39.76362848
 45
-20.51662718
 46
35.76410863
 79
     2
 49
12.36929989
 49
-28.86170006
 53
29.84139633
 43
-14.3756421
 44
33.34524492
 45
-20.51662718
 46
35.76410863
 79
     2
 49
8.24619961
 49
-32.98479843
 53
29.84139633
 43
2.99344278
 44
44.49765623
 45
-20.51662718
 46
35.76410863
 79
     2
 49
4.1230998
 49
-37.10800171
 53
29.84139633
 43
9.63337073
 44
49.49500404
 45
-20.51662718
 46
35.76410863
 79
     2
 49
4.1230998
 49
-37.10800171
 53
43.8775959
 43
23.49608557
 44
17.04388488
 45
-35.76408799
 46
-20.51657892
 79
     2
 49
4.24679995
 49
-165.75320435
 53
43.8775959
 43
22.45624397
 44
27.14246883
 45
-35.76408799
 46
-20.51657892
 79
     2
 49
4.24679995
 49
-165.75320435
 53
43.8775959
 43
6.56984537
 44
46.5493142
 45
-35.76408799
 46
-20.51657892
 79
     2
 49
4.24679995
 49
-165.75320435
 53
43.8775959
 43
3.53439296
 44
26.98276439
 45
-35.76408799
 46
-20.51657892
 79
     2
 49
4.24679995
 49
-165.75320435
 53
43.8775959
 43
7.60968651
 44
36.45072724
 45
-35.76408799
 46
-20.51657892
 79
     2
 49
4.24679995
 49
-165.75320435
 53
43.8775959
 43
12.72486959
 44
35.82001875
 45
-35.76408799
 46
-20.51657892
 79
     2
 49
4.24679995
 49
-165.75320435
 53
43.8775959
 43
-8.747581
 44
31.82049842
 45
-35.76408799
 46
-20.51657892
 79
     2
 49
4.24679995
 49
-165.75320435
 53
43.8775959
 43
6.5838822
 44
38.23888552
 45
-35.76408799
 46
-20.51657892
 79
     2
 49
4.24679995
 49
-165.75320435
 53
43.8775959
 43
21.43039031
 44
28.93071314
 45
-35.76408799
 46
-20.51657892
 79
     2
 49
8.49359989
 49
-161.50639343
 53
43.8775959
 43
16.31525871
 44
29.56133572
 45
-35.76408799
 46
-20.51657892
 79
     2
 49
8.49359989
 49
-161.50639343
 53
43.8775959
 43
15.28940409
 44
31.34958169
 45
-35.76408799
 46
-20.51657892
 79
     2
 49
8.49359989
 49
-161.50639343
 53
195.80520248
 43
11.22809707
 44
13.57127784
 45
-35.7640545
 46
-20.51663729
 79
     4
 49
4.24679995
 49
-8.49359989
 49
4.24679995
 49
-153.01280212
 53
195.80520248
 43
0.99783091
 44
14.83252241
 45
-35.7640545
 46
-20.51663729
 79
     2
 49
4.24679995
 49
-165.75320435
 53
195.80520248
 43
-8.23465417
 44
30.92637626
 45
-35.7640545
 46
-20.51663729
 79
     2
 49
8.49359989
 49
-161.50639343
 53
223.87759018
 43
24.52188959
 44
15.25572712
 45
35.76409003
 46
20.51657535
 79
     2
 49
4.24679995
 49
-165.75320435
 53
375.80511093
 43
31.67478245
 44
19.35909337
 45
35.76408728
 46
20.51658015
 79
     2
 49
4.24679995
 49
-165.75320435
 53
375.80511093
 43
13.7647093
 44
25.72143427
 45
35.76408728
 46
20.51658015
 79
     2
 49
4.24679995
 49
-165.75320435
 53
375.80511093
 43
17.32707484
 44
36.08351749
 45
35.76408728
 46
20.51658015
 79
     2
 49
4.24679995
 49
-165.75320435
 53
375.80511093
 43
1.48273499
 44
30.55916698
 45
35.76408728
 46
20.51658015
 79
     2
 49
4.24679995
 49
-165.75320435
 53
375.80511093
 43
-4.65825158
 44
32.97803423
 45
35.76408728
 46
20.51658015
 79
     2
 49
4.24679995
 49
-165.75320435
 53
375.80511093
 43
-2.10765318
 44
36.81784836
 45
35.76408728
 46
20.51658015
 79
     2
 49
4.24679995
 49
-165.75320435
 53
375.80511093
 43
1.48273499
 44
30.55916698
 45
35.76408728
 46
20.51658015
 79
     2
 49
4.24679995
 49
-165.75320435
 53
375.80511093
 43
9.13443113
 44
42.0787878
 45
35.76408728
 46
20.51658015
 79
     2
 49
16.98719978
 49
-153.01280212
 53
375.80511093
 43
1.52474444
 44
5.62805991
 45
35.76408728
 46
20.51658015
 79
     2
 49
16.98719978
 49
-153.01280212
 53
375.80511093
 43
3.56241548
 44
10.36199808
 45
35.76408728
 46
20.51658015
 79
     2
 49
16.98719978
 49
-153.01280212
 53
375.80511093
 43
6.11296417
 44
14.20190078
 45
35.76408728
 46
20.51658015
 79
     4
 49
4.24679995
 49
-8.49359989
 49
8.49359989
 49
-148.76600647
 53
375.80511093
 43
4.5742335
 44
16.88418039
 45
35.76408728
 46
20.51658015
 79
     4
 49
8.49359989
 49
-8.49359989
 49
8.49359989
 49
-144.51919556
 53
375.80511093
 43
-1.05382659
 44
18.40892418
 45
35.76408728
 46
20.51658015
 79
     2
 49
16.98719978
 49
-153.01280212
 53
375.80511093
 43
-6.16901021
 44
19.03963456
 45
35.76408728
 46
20.51658015
 79
     2
 49
16.98719978
 49
-153.01280212
 53
375.80511093
 43
-7.19481357
 44
20.82779119
 45
35.76408728
 46
20.51658015
 79
     2
 49
16.98719978
 49
-153.01280212
 53
375.80511093
 43
11.6850287
 44
45.91860145
 45
35.76408728
 46
20.51658015
 79
     2
 49
4.24679995
 49
-165.75320435
 53
375.80520248
 43
13.20986266
 44
51.54671327
 45
35.7640545
 46
20.51663729
 79
     2
 49
8.49359989
 49
-161.50639343
 53
375.80520248
 43
-7.22283733
 44
37.44856063
 45
35.7640545
 46
20.51663729
 79
     2
 49
8.49359989
 49
-161.50639343
 53
375.80511093
 43
7.15280435
 44
4.10331547
 45
35.76408728
 46
20.51658015
 79
     2
 49
16.98719978
 49
-153.01280212
 53
375.80511093
 43
14.24961256
 44
41.44807836
 45
35.76408728
 46
20.51658015
 79
     2
 49
12.74040031
 49
-157.25959778
 53
375.80511093
 43
19.36483563
 44
40.81750715
 45
35.76408728
 46
20.51658015
 79
     2
 49
25.48080063
 49
-144.51919556
 47
0.775229
 98
        1
 10
0.0
 20
0.0
  0
LWPOLYLINE
  5
583
100
AcDbEntity
  8
Sc.1_5
 62
     9
  6
CONTINUOUS
370
    20
100
AcDbPolyline
 90
       11
 70
     1
 43
0.0
 38
548.63999023
 39
-548.63999023
 10
1952.23647103
 20
-1780.21579593
 10
1952.23647103
 20
-1813.29870303
 10
1952.23647103
 20
-1813.57284646
 10
1952.31804939
 20
-1814.31616324
 10
1952.36347889
 20
-1814.50822457
 10
1952.73647103
 20
-1815.39724437
 10
1953.12621477
 20
-1814.33388494
 10
1953.15074131
 20
-1814.18089837
 10
1953.23647103
 20
-1813.30781942
 10
1953.23647103
 20
-1813.10292956
 10
1953.23647103
 20
-1780.21579593
  0
LWPOLYLINE
  5
584
100
AcDbEntity
  8
Sc.1_5
 62
     9
  6
CONTINUOUS
370
    20
100
AcDbPolyline
 90
        8
 70
     1
 43
0.0
 38
548.63999023
 39
-548.63999023
 10
1953.73647103
 20
-1811.98027299
 10
1953.23647103
 20
-1812.31332146
 10
1952.23647103
 20
-1812.57434719
 10
1951.73647103
 20
-1812.63734818
 10
1952.23647103
 20
-1812.30429971
 10
1953.23647103
 20
-1812.04327398
 10
1953.73647103
 20
-1811.98027299
 10
1951.73647103
 20
-1812.63734818
  0
LWPOLYLINE
  5
585
100
AcDbEntity
  8
Sc.1_5
 62
     9
  6
CONTINUOUS
370
    20
100
AcDbPolyline
 90
        8
 70
     1
 43
0.0
 38
548.63999023
 39
-548.63999023
 10
1953.73647103
 20
-1810.74303538
 10
1953.23647103
 20
-1811.07608385
 10
1952.23647103
 20
-1811.33710958
 10
1951.73647103
 20
-1811.40011057
 10
1952.23647103
 20
-1811.06706209
 10
1953.23647103
 20
-1810.80603637
 10
1953.73647103
 20
-1810.74303538
 10
1951.73647103
 20
-1811.40011057
  0
3DFACE
  5
586
100
AcDbEntity
  8
Sc.1_5
 62
     9
  6
CONTINUOUS
370
    20
100
AcDbFace
 70
     0
 10
1950.93647103
 20
-1778.91434383
 30
548.63999023
 11
1952.23719713
 21
-1780.21506992
 31
548.63999023
 12
1953.23574498
 22
-1780.21506986
 32
548.63999023
 13
1954.53647103
 23
-1778.91434383
 33
548.63999023
  0
3DFACE
  5
587
100
AcDbEntity
  8
Sc.1_5
 62
     9
  6
CONTINUOUS
370
    20
100
AcDbFace
 70
     0
 10
1950.93647103
 20
-1778.91434383
 30
548.63999023
 11
1950.93647103
 21
-1778.71434383
 31
548.63999023
 12
1954.53647103
 22
-1778.71434383
 32
548.63999023
 13
1954.53647103
 23
-1778.91434383
 33
548.63999023
  0
LWPOLYLINE
  5
588
100
AcDbEntity
  8
Sc.1_5
 62
     9
  6
CADWORK_13
370
    -3
100
AcDbPolyline
 90
        4
 70
     0
 43
0.0
 38
510.0
 10
1953.23647103
 20
-1778.71434383
 10
1953.03647103
 20
-1779.54273887
 10
1952.43647103
 20
-1779.54273887
 10
1952.23647103
 20
-1778.71434383
  0
LINE
  5
589
100
AcDbEntity
  8
Sc.1_5
 62
     9
  6
CADWORK_13
370
    -3
100
AcDbLine
 10
1952.73647103
 20
-1779.54273887
 30
510.0
 11
1952.73647103
 21
-1778.71434383
 31
510.0
  0
LWPOLYLINE
  5
58A
100
AcDbEntity
  8
Sc.1_5
 62
     9
  6
CONTINUOUS
370
    20
100
AcDbPolyline
 90
        8
 70
     1
 43
0.0
 38
548.63999023
 39
-548.63999023
 10
1953.73647103
 20
-1809.50579776
 10
1953.23647103
 20
-1809.83884624
 10
1952.23647103
 20
-1810.09987197
 10
1951.73647103
 20
-1810.16287296
 10
1952.23647103
 20
-1809.82982448
 10
1953.23647103
 20
-1809.56879876
 10
1953.73647103
 20
-1809.50579776
 10
1951.73647103
 20
-1810.16287296
  0
LWPOLYLINE
  5
58B
100
AcDbEntity
  8
Sc.1_5
 62
     9
  6
CONTINUOUS
370
    20
100
AcDbPolyline
 90
        8
 70
     1
 43
0.0
 38
548.63999023
 39
-548.63999023
 10
1953.73647103
 20
-1808.26856015
 10
1953.23647103
 20
-1808.60160863
 10
1952.23647103
 20
-1808.86263436
 10
1951.73647103
 20
-1808.92563535
 10
1952.23647103
 20
-1808.59258687
 10
1953.23647103
 20
-1808.33156114
 10
1953.73647103
 20
-1808.26856015
 10
1951.73647103
 20
-1808.92563535
  0
LWPOLYLINE
  5
58C
100
AcDbEntity
  8
Sc.1_5
 62
     9
  6
CONTINUOUS
370
    20
100
AcDbPolyline
 90
        8
 70
     1
 43
0.0
 38
548.63999023
 39
-548.63999023
 10
1953.73647103
 20
-1807.03132254
 10
1953.23647103
 20
-1807.36437102
 10
1952.23647103
 20
-1807.62539674
 10
1951.73647103
 20
-1807.68839774
 10
1952.23647103
 20
-1807.35534926
 10
1953.23647103
 20
-1807.09432353
 10
1953.73647103
 20
-1807.03132254
 10
1951.73647103
 20
-1807.68839774
  0
LWPOLYLINE
  5
58D
100
AcDbEntity
  8
Sc.1_5
 62
     9
  6
CONTINUOUS
370
    20
100
AcDbPolyline
 90
        8
 70
     1
 43
0.0
 38
548.63999023
 39
-548.63999023
 10
1953.73647103
 20
-1805.79408493
 10
1953.23647103
 20
-1806.12713341
 10
1952.23647103
 20
-1806.38815913
 10
1951.73647103
 20
-1806.45116013
 10
1952.23647103
 20
-1806.11811165
 10
1953.23647103
 20
-1805.85708592
 10
1953.73647103
 20
-1805.79408493
 10
1951.73647103
 20
-1806.45116013
  0
LWPOLYLINE
  5
58E
100
AcDbEntity
  8
Sc.1_5
 62
     9
  6
CONTINUOUS
370
    20
100
AcDbPolyline
 90
        8
 70
     1
 43
0.0
 38
548.63999023
 39
-548.63999023
 10
1953.73647103
 20
-1804.55684732
 10
1953.23647103
 20
-1804.88989579
 10
1952.23647103
 20
-1805.15092152
 10
1951.73647103
 20
-1805.21392251
 10
1952.23647103
 20
-1804.88087404
 10
1953.23647103
 20
-1804.61984831
 10
1953.73647103
 20
-1804.55684732
 10
1951.73647103
 20
-1805.21392251
  0
LWPOLYLINE
  5
58F
100
AcDbEntity
  8
Sc.1_5
 62
     9
  6
CONTINUOUS
370
    20
100
AcDbPolyline
 90
        8
 70
     1
 43
0.0
 38
548.63999023
 39
-548.63999023
 10
1953.73647103
 20
-1803.31960971
 10
1953.23647103
 20
-1803.65265818
 10
1952.23647103
 20
-1803.91368391
 10
1951.73647103
 20
-1803.9766849
 10
1952.23647103
 20
-1803.64363642
 10
1953.23647103
 20
-1803.3826107
 10
1953.73647103
 20
-1803.31960971
 10
1951.73647103
 20
-1803.9766849
  0
LWPOLYLINE
  5
590
100
AcDbEntity
  8
Sc.1_5
 62
     9
  6
CONTINUOUS
370
    20
100
AcDbPolyline
 90
        8
 70
     1
 43
0.0
 38
548.63999023
 39
-548.63999023
 10
1953.73647103
 20
-1802.08237209
 10
1953.23647103
 20
-1802.41542057
 10
1952.23647103
 20
-1802.6764463
 10
1951.73647103
 20
-1802.73944729
 10
1952.23647103
 20
-1802.40639881
 10
1953.23647103
 20
-1802.14537309
 10
1953.73647103
 20
-1802.08237209
 10
1951.73647103
 20
-1802.73944729
  0
LWPOLYLINE
  5
591
100
AcDbEntity
  8
Sc.1_5
 62
     9
  6
CONTINUOUS
370
    20
100
AcDbPolyline
 90
        8
 70
     1
 43
0.0
 38
548.63999023
 39
-548.63999023
 10
1953.73647103
 20
-1800.84513448
 10
1953.23647103
 20
-1801.17818296
 10
1952.23647103
 20
-1801.43920869
 10
1951.73647103
 20
-1801.50220968
 10
1952.23647103
 20
-1801.1691612
 10
1953.23647103
 20
-1800.90813547
 10
1953.73647103
 20
-1800.84513448
 10
1951.73647103
 20
-1801.50220968
  0
LWPOLYLINE
  5
592
100
AcDbEntity
  8
Sc.1_5
 62
     9
  6
CONTINUOUS
370
    20
100
AcDbPolyline
 90
        8
 70
     1
 43
0.0
 38
548.63999023
 39
-548.63999023
 10
1953.73647103
 20
-1799.60789687
 10
1953.23647103
 20
-1799.94094535
 10
1952.23647103
 20
-1800.20197107
 10
1951.73647103
 20
-1800.26497207
 10
1952.23647103
 20
-1799.93192359
 10
1953.23647103
 20
-1799.67089786
 10
1953.73647103
 20
-1799.60789687
 10
1951.73647103
 20
-1800.26497207
  0
LWPOLYLINE
  5
593
100
AcDbEntity
  8
Sc.1_5
 62
     9
  6
CONTINUOUS
370
    20
100
AcDbPolyline
 90
        8
 70
     1
 43
0.0
 38
548.63999023
 39
-548.63999023
 10
1953.73647103
 20
-1798.37065926
 10
1953.23647103
 20
-1798.70370774
 10
1952.23647103
 20
-1798.96473346
 10
1951.73647103
 20
-1799.02773445
 10
1952.23647103
 20
-1798.69468598
 10
1953.23647103
 20
-1798.43366025
 10
1953.73647103
 20
-1798.37065926
 10
1951.73647103
 20
-1799.02773445
  0
LWPOLYLINE
  5
594
100
AcDbEntity
  8
Sc.1_5
 62
     9
  6
CONTINUOUS
370
    20
100
AcDbPolyline
 90
        8
 70
     1
 43
0.0
 38
548.63999023
 39
-548.63999023
 10
1953.73647103
 20
-1797.13342165
 10
1953.23647103
 20
-1797.46647012
 10
1952.23647103
 20
-1797.72749585
 10
1951.73647103
 20
-1797.79049684
 10
1952.23647103
 20
-1797.45744837
 10
1953.23647103
 20
-1797.19642264
 10
1953.73647103
 20
-1797.13342165
 10
1951.73647103
 20
-1797.79049684
  0
LWPOLYLINE
  5
595
100
AcDbEntity
  8
Sc.1_5
 62
     9
  6
CONTINUOUS
370
    20
100
AcDbPolyline
 90
        8
 70
     1
 43
0.0
 38
548.63999023
 39
-548.63999023
 10
1953.73647103
 20
-1795.89618404
 10
1953.23647103
 20
-1796.22923251
 10
1952.23647103
 20
-1796.49025824
 10
1951.73647103
 20
-1796.55325923
 10
1952.23647103
 20
-1796.22021075
 10
1953.23647103
 20
-1795.95918503
 10
1953.73647103
 20
-1795.89618404
 10
1951.73647103
 20
-1796.55325923
  0
LWPOLYLINE
  5
596
100
AcDbEntity
  8
Sc.1_5
 62
     9
  6
CONTINUOUS
370
    20
100
AcDbPolyline
 90
        8
 70
     1
 43
0.0
 38
548.63999023
 39
-548.63999023
 10
1953.73647103
 20
-1794.65894642
 10
1953.23647103
 20
-1794.9919949
 10
1952.23647103
 20
-1795.25302063
 10
1951.73647103
 20
-1795.31602162
 10
1952.23647103
 20
-1794.98297314
 10
1953.23647103
 20
-1794.72194742
 10
1953.73647103
 20
-1794.65894642
 10
1951.73647103
 20
-1795.31602162
  0
LWPOLYLINE
  5
597
100
AcDbEntity
  8
Sc.1_5
 62
     9
  6
CONTINUOUS
370
    20
100
AcDbPolyline
 90
        8
 70
     1
 43
0.0
 38
548.63999023
 39
-548.63999023
 10
1953.73647103
 20
-1793.42170881
 10
1953.23647103
 20
-1793.75475729
 10
1952.23647103
 20
-1794.01578302
 10
1951.73647103
 20
-1794.07878401
 10
1952.23647103
 20
-1793.74573553
 10
1953.23647103
 20
-1793.4847098
 10
1953.73647103
 20
-1793.42170881
 10
1951.73647103
 20
-1794.07878401
  0
LWPOLYLINE
  5
598
100
AcDbEntity
  8
Sc.1_5
 62
     9
  6
CONTINUOUS
370
    20
100
AcDbPolyline
 90
        8
 70
     1
 43
0.0
 38
548.63999023
 39
-548.63999023
 10
1953.73647103
 20
-1792.1844712
 10
1953.23647103
 20
-1792.51751968
 10
1952.23647103
 20
-1792.7785454
 10
1951.73647103
 20
-1792.8415464
 10
1952.23647103
 20
-1792.50849792
 10
1953.23647103
 20
-1792.24747219
 10
1953.73647103
 20
-1792.1844712
 10
1951.73647103
 20
-1792.8415464
  0
LWPOLYLINE
  5
599
100
AcDbEntity
  8
Sc.1_5
 62
     9
  6
CONTINUOUS
370
    20
100
AcDbPolyline
 90
        8
 70
     1
 43
0.0
 38
548.63999023
 39
-548.63999023
 10
1953.73647103
 20
-1790.94723359
 10
1953.23647103
 20
-1791.28028207
 10
1952.23647103
 20
-1791.54130779
 10
1951.73647103
 20
-1791.60430878
 10
1952.23647103
 20
-1791.27126031
 10
1953.23647103
 20
-1791.01023458
 10
1953.73647103
 20
-1790.94723359
 10
1951.73647103
 20
-1791.60430878
  0
LWPOLYLINE
  5
59A
100
AcDbEntity
  8
Sc.1_5
 62
     9
  6
CONTINUOUS
370
    20
100
AcDbPolyline
 90
        8
 70
     1
 43
0.0
 38
548.63999023
 39
-548.63999023
 10
1953.73647103
 20
-1789.70999598
 10
1953.23647103
 20
-1790.04304445
 10
1952.23647103
 20
-1790.30407018
 10
1951.73647103
 20
-1790.36707117
 10
1952.23647103
 20
-1790.0340227
 10
1953.23647103
 20
-1789.77299697
 10
1953.73647103
 20
-1789.70999598
 10
1951.73647103
 20
-1790.36707117
  0
LWPOLYLINE
  5
59B
100
AcDbEntity
  8
Sc.1_5
 62
     9
  6
CONTINUOUS
370
    20
100
AcDbPolyline
 90
        8
 70
     1
 43
0.0
 38
548.63999023
 39
-548.63999023
 10
1953.73647103
 20
-1788.47275836
 10
1953.23647103
 20
-1788.80580684
 10
1952.23647103
 20
-1789.06683257
 10
1951.73647103
 20
-1789.12983356
 10
1952.23647103
 20
-1788.79678508
 10
1953.23647103
 20
-1788.53575936
 10
1953.73647103
 20
-1788.47275836
 10
1951.73647103
 20
-1789.12983356
  0
LWPOLYLINE
  5
59C
100
AcDbEntity
  8
Sc.1_5
 62
     9
  6
CONTINUOUS
370
    20
100
AcDbPolyline
 90
        8
 70
     1
 43
0.0
 38
548.63999023
 39
-548.63999023
 10
1953.73647103
 20
-1787.23552075
 10
1953.23647103
 20
-1787.56856923
 10
1952.23647103
 20
-1787.82959496
 10
1951.73647103
 20
-1787.89259595
 10
1952.23647103
 20
-1787.55954747
 10
1953.23647103
 20
-1787.29852175
 10
1953.73647103
 20
-1787.23552075
 10
1951.73647103
 20
-1787.89259595
  0
LWPOLYLINE
  5
59D
100
AcDbEntity
  8
Sc.1_5
 62
     9
  6
CONTINUOUS
370
    20
100
AcDbPolyline
 90
        8
 70
     1
 43
0.0
 38
548.63999023
 39
-548.63999023
 10
1953.73647103
 20
-1785.99828314
 10
1953.23647103
 20
-1786.33133162
 10
1952.23647103
 20
-1786.59235735
 10
1951.73647103
 20
-1786.65535834
 10
1952.23647103
 20
-1786.32230986
 10
1953.23647103
 20
-1786.06128413
 10
1953.73647103
 20
-1785.99828314
 10
1951.73647103
 20
-1786.65535834
  0
LWPOLYLINE
  5
59E
100
AcDbEntity
  8
Sc.1_5
 62
     9
  6
CONTINUOUS
370
    20
100
AcDbPolyline
 90
        8
 70
     1
 43
0.0
 38
548.63999023
 39
-548.63999023
 10
1953.73647103
 20
-1784.76104553
 10
1953.23647103
 20
-1785.09409401
 10
1952.23647103
 20
-1785.35511973
 10
1951.73647103
 20
-1785.41812073
 10
1952.23647103
 20
-1785.08507225
 10
1953.23647103
 20
-1784.82404652
 10
1953.73647103
 20
-1784.76104553
 10
1951.73647103
 20
-1785.41812073
  0
LWPOLYLINE
  5
59F
100
AcDbEntity
  8
Sc.1_5
 62
     9
  6
CONTINUOUS
370
    20
100
AcDbPolyline
 90
        8
 70
     1
 43
0.0
 38
548.63999023
 39
-548.63999023
 10
1953.73647103
 20
-1783.52380792
 10
1953.23647103
 20
-1783.8568564
 10
1952.23647103
 20
-1784.11788212
 10
1951.73647103
 20
-1784.18088311
 10
1952.23647103
 20
-1783.84783464
 10
1953.23647103
 20
-1783.58680891
 10
1953.73647103
 20
-1783.52380792
 10
1951.73647103
 20
-1784.18088311
  0
LWPOLYLINE
  5
5A0
100
AcDbEntity
  8
Sc.1_5
 62
     9
  6
CONTINUOUS
370
    20
100
AcDbPolyline
 90
        8
 70
     1
 43
0.0
 38
548.63999023
 39
-548.63999023
 10
1953.73647103
 20
-1782.28657031
 10
1953.23647103
 20
-1782.61961878
 10
1952.23647103
 20
-1782.88064451
 10
1951.73647103
 20
-1782.9436455
 10
1952.23647103
 20
-1782.61059702
 10
1953.23647103
 20
-1782.3495713
 10
1953.73647103
 20
-1782.28657031
 10
1951.73647103
 20
-1782.9436455
  0
LWPOLYLINE
  5
5A1
100
AcDbEntity
  8
Sc.1_5
 62
     9
  6
CONTINUOUS
370
    20
100
AcDbPolyline
 90
        8
 70
     1
 43
0.0
 38
548.63999023
 39
-548.63999023
 10
1953.73647103
 20
-1781.04933269
 10
1953.23647103
 20
-1781.38238117
 10
1952.23647103
 20
-1781.6434069
 10
1951.73647103
 20
-1781.70640789
 10
1952.23647103
 20
-1781.37335941
 10
1953.23647103
 20
-1781.11233369
 10
1953.73647103
 20
-1781.04933269
 10
1951.73647103
 20
-1781.70640789
  0
LWPOLYLINE
  5
5A2
100
AcDbEntity
  8
Sc.1_5
 62
     9
  6
CONTINUOUS
370
    20
100
AcDbPolyline
 90
        8
 70
     1
 43
0.0
 38
548.63999023
 39
-548.63999023
 10
1951.87039532
 20
-1813.50528321
 10
1952.23647103
 20
-1813.57284646
 10
1953.23647103
 20
-1813.30781942
 10
1953.59839538
 20
-1813.09986914
 10
1951.87039532
 20
-1813.50528321
 10
1952.23647103
 20
-1813.29870303
 10
1953.23647103
 20
-1813.10292956
 10
1953.59839538
 20
-1813.09986914
  0
LWPOLYLINE
  5
5A3
100
AcDbEntity
  8
Sc.1_5
 62
     9
  6
CONTINUOUS
370
    20
100
AcDbPolyline
 90
        8
 70
     1
 43
0.0
 38
548.63999023
 39
-548.63999023
 10
1952.04354127
 20
-1814.45125514
 10
1952.36347889
 20
-1814.50822457
 10
1953.12621477
 20
-1814.33388494
 10
1953.42524943
 20
-1814.18089837
 10
1953.15074131
 20
-1814.18089837
 10
1952.31804939
 20
-1814.31616324
 10
1952.04354127
 20
-1814.45125514
 10
1953.42524943
 20
-1814.18089837
  0
LWPOLYLINE
  5
5A4
100
AcDbEntity
  8
Sc.1_5
 62
     9
  6
CONTINUOUS
370
    20
100
AcDbPolyline
 90
       11
 70
     1
 43
0.0
 38
548.63999023
 39
-548.63999023
 10
1945.04487935
 20
-1759.06357576
 10
1961.91190299
 20
-1787.52376296
 10
1962.05167256
 20
-1787.75959995
 10
1962.50082526
 20
-1788.35746007
 10
1962.63782758
 20
-1788.49952258
 10
1963.41195979
 20
-1789.07415173
 10
1963.20509984
 20
-1787.96066961
 10
1963.14820042
 20
-1787.81655543
 10
1962.77681953
 20
-1787.02176447
 10
1962.67235827
 20
-1786.84550415
 10
1945.90514798
 20
-1758.55373472
  0
LWPOLYLINE
  5
5A5
100
AcDbEntity
  8
Sc.1_5
 62
     9
  6
CONTINUOUS
370
    20
100
AcDbPolyline
 90
        8
 70
     1
 43
0.0
 38
548.63999023
 39
-548.63999023
 10
1962.5301162
 20
-1785.6247974
 10
1962.26978366
 20
-1786.16622908
 10
1961.54259666
 20
-1786.90062236
 10
1961.14458283
 20
-1787.20974065
 10
1961.40491537
 20
-1786.66830898
 10
1962.13210237
 20
-1785.93391569
 10
1962.5301162
 20
-1785.6247974
 10
1961.14458283
 20
-1787.20974065
  0
LWPOLYLINE
  5
5A6
100
AcDbEntity
  8
Sc.1_5
 62
     9
  6
CONTINUOUS
370
    20
100
AcDbPolyline
 90
        8
 70
     1
 43
0.0
 38
548.63999023
 39
-548.63999023
 10
1961.89932169
 20
-1784.56044069
 10
1961.63898915
 20
-1785.10187237
 10
1960.91180215
 20
-1785.83626565
 10
1960.51378833
 20
-1786.14538394
 10
1960.77412086
 20
-1785.60395227
 10
1961.50130786
 20
-1784.86955899
 10
1961.89932169
 20
-1784.56044069
 10
1960.51378833
 20
-1786.14538394
  0
3DFACE
  5
5A7
100
AcDbEntity
  8
Sc.1_5
 62
     9
  6
CONTINUOUS
370
    20
100
AcDbFace
 70
     0
 10
1943.26299644
 20
-1758.60677069
 30
548.63999023
 11
1945.04513384
 21
-1759.06258099
 31
548.63999023
 12
1945.9041532
 22
-1758.55348028
 32
548.63999023
 13
1946.35996351
 23
-1756.77134296
 33
548.63999023
  0
3DFACE
  5
5A8
100
AcDbEntity
  8
Sc.1_5
 62
     9
  6
CONTINUOUS
370
    20
100
AcDbFace
 70
     0
 10
1943.26299644
 20
-1758.60677069
 30
548.63999023
 11
1943.16102823
 21
-1758.43471696
 31
548.63999023
 12
1946.2579953
 22
-1756.59928923
 32
548.63999023
 13
1946.35996351
 23
-1756.77134296
 33
548.63999023
  0
LWPOLYLINE
  5
5A9
100
AcDbEntity
  8
Sc.1_5
 62
     9
  6
CADWORK_13
370
    -3
100
AcDbPolyline
 90
        4
 70
     0
 43
0.0
 38
510.0
 10
1945.13964608
 20
-1757.26208258
 10
1945.38994214
 20
-1758.07669305
 10
1944.87378096
 20
-1758.38259767
 10
1944.27937745
 20
-1757.77192361
  0
LINE
  5
5AA
100
AcDbEntity
  8
Sc.1_5
 62
     9
  6
CADWORK_13
370
    -3
100
AcDbLine
 10
1945.13186155
 20
-1758.22964536
 30
510.0
 11
1944.70951177
 21
-1757.5170031
 31
510.0
  0
LWPOLYLINE
  5
5AB
100
AcDbEntity
  8
Sc.1_5
 62
     9
  6
CONTINUOUS
370
    20
100
AcDbPolyline
 90
        8
 70
     1
 43
0.0
 38
548.63999023
 39
-548.63999023
 10
1961.26852718
 20
-1783.49608399
 10
1961.00819465
 20
-1784.03751566
 10
1960.28100764
 20
-1784.77190894
 10
1959.88299382
 20
-1785.08102724
 10
1960.14332635
 20
-1784.53959556
 10
1960.87051336
 20
-1783.80520228
 10
1961.26852718
 20
-1783.49608399
 10
1959.88299382
 20
-1785.08102724
  0
LWPOLYLINE
  5
5AC
100
AcDbEntity
  8
Sc.1_5
 62
     9
  6
CONTINUOUS
370
    20
100
AcDbPolyline
 90
        8
 70
     1
 43
0.0
 38
548.63999023
 39
-548.63999023
 10
1960.63773268
 20
-1782.43172728
 10
1960.37740014
 20
-1782.97315896
 10
1959.65021314
 20
-1783.70755224
 10
1959.25219931
 20
-1784.01667053
 10
1959.51253185
 20
-1783.47523886
 10
1960.23971885
 20
-1782.74084557
 10
1960.63773268
 20
-1782.43172728
 10
1959.25219931
 20
-1784.01667053
  0
LWPOLYLINE
  5
5AD
100
AcDbEntity
  8
Sc.1_5
 62
     9
  6
CONTINUOUS
370
    20
100
AcDbPolyline
 90
        8
 70
     1
 43
0.0
 38
548.63999023
 39
-548.63999023
 10
1960.00693817
 20
-1781.36737057
 10
1959.74660564
 20
-1781.90880225
 10
1959.01941863
 20
-1782.64319553
 10
1958.62140481
 20
-1782.95231383
 10
1958.88173734
 20
-1782.41088215
 10
1959.60892435
 20
-1781.67648887
 10
1960.00693817
 20
-1781.36737057
 10
1958.62140481
 20
-1782.95231383
  0
LWPOLYLINE
  5
5AE
100
AcDbEntity
  8
Sc.1_5
 62
     9
  6
CONTINUOUS
370
    20
100
AcDbPolyline
 90
        8
 70
     1
 43
0.0
 38
548.63999023
 39
-548.63999023
 10
1959.37614366
 20
-1780.30301387
 10
1959.11581113
 20
-1780.84444554
 10
1958.38862413
 20
-1781.57883882
 10
1957.9906103
 20
-1781.88795712
 10
1958.25094284
 20
-1781.34652544
 10
1958.97812984
 20
-1780.61213216
 10
1959.37614366
 20
-1780.30301387
 10
1957.9906103
 20
-1781.88795712
  0
LWPOLYLINE
  5
5AF
100
AcDbEntity
  8
Sc.1_5
 62
     9
  6
CONTINUOUS
370
    20
100
AcDbPolyline
 90
        8
 70
     1
 43
0.0
 38
548.63999023
 39
-548.63999023
 10
1958.74534916
 20
-1779.23865716
 10
1958.48501662
 20
-1779.78008884
 10
1957.75782962
 20
-1780.51448212
 10
1957.35981579
 20
-1780.82360041
 10
1957.62014833
 20
-1780.28216874
 10
1958.34733533
 20
-1779.54777545
 10
1958.74534916
 20
-1779.23865716
 10
1957.35981579
 20
-1780.82360041
  0
LWPOLYLINE
  5
5B0
100
AcDbEntity
  8
Sc.1_5
 62
     9
  6
CONTINUOUS
370
    20
100
AcDbPolyline
 90
        8
 70
     1
 43
0.0
 38
548.63999023
 39
-548.63999023
 10
1958.11455465
 20
-1778.17430045
 10
1957.85422212
 20
-1778.71573213
 10
1957.12703511
 20
-1779.45012541
 10
1956.72902129
 20
-1779.75924371
 10
1956.98935382
 20
-1779.21781203
 10
1957.71654083
 20
-1778.48341875
 10
1958.11455465
 20
-1778.17430045
 10
1956.72902129
 20
-1779.75924371
  0
LWPOLYLINE
  5
5B1
100
AcDbEntity
  8
Sc.1_5
 62
     9
  6
CONTINUOUS
370
    20
100
AcDbPolyline
 90
        8
 70
     1
 43
0.0
 38
548.63999023
 39
-548.63999023
 10
1957.48376015
 20
-1777.10994375
 10
1957.22342761
 20
-1777.65137542
 10
1956.49624061
 20
-1778.3857687
 10
1956.09822678
 20
-1778.694887
 10
1956.35855932
 20
-1778.15345532
 10
1957.08574632
 20
-1777.41906204
 10
1957.48376015
 20
-1777.10994375
 10
1956.09822678
 20
-1778.694887
  0
LWPOLYLINE
  5
5B2
100
AcDbEntity
  8
Sc.1_5
 62
     9
  6
CONTINUOUS
370
    20
100
AcDbPolyline
 90
        8
 70
     1
 43
0.0
 38
548.63999023
 39
-548.63999023
 10
1956.85296564
 20
-1776.04558704
 10
1956.59263311
 20
-1776.58701872
 10
1955.8654461
 20
-1777.321412
 10
1955.46743228
 20
-1777.63053029
 10
1955.72776481
 20
-1777.08909862
 10
1956.45495182
 20
-1776.35470534
 10
1956.85296564
 20
-1776.04558704
 10
1955.46743228
 20
-1777.63053029
  0
LWPOLYLINE
  5
5B3
100
AcDbEntity
  8
Sc.1_5
 62
     9
  6
CONTINUOUS
370
    20
100
AcDbPolyline
 90
        8
 70
     1
 43
0.0
 38
548.63999023
 39
-548.63999023
 10
1956.22217113
 20
-1774.98123033
 10
1955.9618386
 20
-1775.52266201
 10
1955.23465159
 20
-1776.25705529
 10
1954.83663777
 20
-1776.56617359
 10
1955.0969703
 20
-1776.02474191
 10
1955.82415731
 20
-1775.29034863
 10
1956.22217113
 20
-1774.98123033
 10
1954.83663777
 20
-1776.56617359
  0
LWPOLYLINE
  5
5B4
100
AcDbEntity
  8
Sc.1_5
 62
     9
  6
CONTINUOUS
370
    20
100
AcDbPolyline
 90
        8
 70
     1
 43
0.0
 38
548.63999023
 39
-548.63999023
 10
1955.59137663
 20
-1773.91687363
 10
1955.33104409
 20
-1774.4583053
 10
1954.60385709
 20
-1775.19269858
 10
1954.20584326
 20
-1775.50181688
 10
1954.4661758
 20
-1774.9603852
 10
1955.1933628
 20
-1774.22599192
 10
1955.59137663
 20
-1773.91687363
 10
1954.20584326
 20
-1775.50181688
  0
LWPOLYLINE
  5
5B5
100
AcDbEntity
  8
Sc.1_5
 62
     9
  6
CONTINUOUS
370
    20
100
AcDbPolyline
 90
        8
 70
     1
 43
0.0
 38
548.63999023
 39
-548.63999023
 10
1954.96058212
 20
-1772.85251692
 10
1954.70024959
 20
-1773.3939486
 10
1953.97306258
 20
-1774.12834188
 10
1953.57504876
 20
-1774.43746017
 10
1953.83538129
 20
-1773.8960285
 10
1954.5625683
 20
-1773.16163522
 10
1954.96058212
 20
-1772.85251692
 10
1953.57504876
 20
-1774.43746017
  0
LWPOLYLINE
  5
5B6
100
AcDbEntity
  8
Sc.1_5
 62
     9
  6
CONTINUOUS
370
    20
100
AcDbPolyline
 90
        8
 70
     1
 43
0.0
 38
548.63999023
 39
-548.63999023
 10
1954.32978761
 20
-1771.78816021
 10
1954.06945508
 20
-1772.32959189
 10
1953.34226808
 20
-1773.06398517
 10
1952.94425425
 20
-1773.37310347
 10
1953.20458679
 20
-1772.83167179
 10
1953.93177379
 20
-1772.09727851
 10
1954.32978761
 20
-1771.78816021
 10
1952.94425425
 20
-1773.37310347
  0
LWPOLYLINE
  5
5B7
100
AcDbEntity
  8
Sc.1_5
 62
     9
  6
CONTINUOUS
370
    20
100
AcDbPolyline
 90
        8
 70
     1
 43
0.0
 38
548.63999023
 39
-548.63999023
 10
1953.69899311
 20
-1770.72380351
 10
1953.43866057
 20
-1771.26523518
 10
1952.71147357
 20
-1771.99962846
 10
1952.31345975
 20
-1772.30874676
 10
1952.57379228
 20
-1771.76731508
 10
1953.30097928
 20
-1771.0329218
 10
1953.69899311
 20
-1770.72380351
 10
1952.31345975
 20
-1772.30874676
  0
LWPOLYLINE
  5
5B8
100
AcDbEntity
  8
Sc.1_5
 62
     9
  6
CONTINUOUS
370
    20
100
AcDbPolyline
 90
        8
 70
     1
 43
0.0
 38
548.63999023
 39
-548.63999023
 10
1953.0681986
 20
-1769.6594468
 10
1952.80786607
 20
-1770.20087848
 10
1952.08067906
 20
-1770.93527176
 10
1951.68266524
 20
-1771.24439005
 10
1951.94299777
 20
-1770.70295838
 10
1952.67018478
 20
-1769.9685651
 10
1953.0681986
 20
-1769.6594468
 10
1951.68266524
 20
-1771.24439005
  0
LWPOLYLINE
  5
5B9
100
AcDbEntity
  8
Sc.1_5
 62
     9
  6
CONTINUOUS
370
    20
100
AcDbPolyline
 90
        8
 70
     1
 43
0.0
 38
548.63999023
 39
-548.63999023
 10
1952.4374041
 20
-1768.59509009
 10
1952.17707156
 20
-1769.13652177
 10
1951.44988456
 20
-1769.87091505
 10
1951.05187073
 20
-1770.18003335
 10
1951.31220327
 20
-1769.63860167
 10
1952.03939027
 20
-1768.90420839
 10
1952.4374041
 20
-1768.59509009
 10
1951.05187073
 20
-1770.18003335
  0
LWPOLYLINE
  5
5BA
100
AcDbEntity
  8
Sc.1_5
 62
     9
  6
CONTINUOUS
370
    20
100
AcDbPolyline
 90
        8
 70
     1
 43
0.0
 38
548.63999023
 39
-548.63999023
 10
1951.80660959
 20
-1767.53073339
 10
1951.54627706
 20
-1768.07216506
 10
1950.81909005
 20
-1768.80655834
 10
1950.42107623
 20
-1769.11567664
 10
1950.68140876
 20
-1768.57424496
 10
1951.40859577
 20
-1767.83985168
 10
1951.80660959
 20
-1767.53073339
 10
1950.42107623
 20
-1769.11567664
  0
LWPOLYLINE
  5
5BB
100
AcDbEntity
  8
Sc.1_5
 62
     9
  6
CONTINUOUS
370
    20
100
AcDbPolyline
 90
        8
 70
     1
 43
0.0
 38
548.63999023
 39
-548.63999023
 10
1951.17581508
 20
-1766.46637668
 10
1950.91548255
 20
-1767.00780836
 10
1950.18829555
 20
-1767.74220164
 10
1949.79028172
 20
-1768.05131993
 10
1950.05061426
 20
-1767.50988826
 10
1950.77780126
 20
-1766.77549498
 10
1951.17581508
 20
-1766.46637668
 10
1949.79028172
 20
-1768.05131993
  0
LWPOLYLINE
  5
5BC
100
AcDbEntity
  8
Sc.1_5
 62
     9
  6
CONTINUOUS
370
    20
100
AcDbPolyline
 90
        8
 70
     1
 43
0.0
 38
548.63999023
 39
-548.63999023
 10
1950.54502058
 20
-1765.40201997
 10
1950.28468804
 20
-1765.94345165
 10
1949.55750104
 20
-1766.67784493
 10
1949.15948721
 20
-1766.98696323
 10
1949.41981975
 20
-1766.44553155
 10
1950.14700675
 20
-1765.71113827
 10
1950.54502058
 20
-1765.40201997
 10
1949.15948721
 20
-1766.98696323
  0
LWPOLYLINE
  5
5BD
100
AcDbEntity
  8
Sc.1_5
 62
     9
  6
CONTINUOUS
370
    20
100
AcDbPolyline
 90
        8
 70
     1
 43
0.0
 38
548.63999023
 39
-548.63999023
 10
1949.91422607
 20
-1764.33766327
 10
1949.65389354
 20
-1764.87909494
 10
1948.92670653
 20
-1765.61348822
 10
1948.52869271
 20
-1765.92260652
 10
1948.78902524
 20
-1765.38117484
 10
1949.51621225
 20
-1764.64678156
 10
1949.91422607
 20
-1764.33766327
 10
1948.52869271
 20
-1765.92260652
  0
LWPOLYLINE
  5
5BE
100
AcDbEntity
  8
Sc.1_5
 62
     9
  6
CONTINUOUS
370
    20
100
AcDbPolyline
 90
        8
 70
     1
 43
0.0
 38
548.63999023
 39
-548.63999023
 10
1949.28343157
 20
-1763.27330656
 10
1949.02309903
 20
-1763.81473824
 10
1948.29591203
 20
-1764.54913152
 10
1947.8978982
 20
-1764.85824981
 10
1948.15823074
 20
-1764.31681814
 10
1948.88541774
 20
-1763.58242486
 10
1949.28343157
 20
-1763.27330656
 10
1947.8978982
 20
-1764.85824981
  0
LWPOLYLINE
  5
5BF
100
AcDbEntity
  8
Sc.1_5
 62
     9
  6
CONTINUOUS
370
    20
100
AcDbPolyline
 90
        8
 70
     1
 43
0.0
 38
548.63999023
 39
-548.63999023
 10
1948.65263706
 20
-1762.20894985
 10
1948.39230452
 20
-1762.75038153
 10
1947.66511752
 20
-1763.48477481
 10
1947.2671037
 20
-1763.79389311
 10
1947.52743623
 20
-1763.25246143
 10
1948.25462323
 20
-1762.51806815
 10
1948.65263706
 20
-1762.20894985
 10
1947.2671037
 20
-1763.79389311
  0
LWPOLYLINE
  5
5C0
100
AcDbEntity
  8
Sc.1_5
 62
     9
  6
CONTINUOUS
370
    20
100
AcDbPolyline
 90
        8
 70
     1
 43
0.0
 38
548.63999023
 39
-548.63999023
 10
1948.02184255
 20
-1761.14459315
 10
1947.76151002
 20
-1761.68602482
 10
1947.03432301
 20
-1762.42041811
 10
1946.63630919
 20
-1762.7295364
 10
1946.89664172
 20
-1762.18810472
 10
1947.62382873
 20
-1761.45371144
 10
1948.02184255
 20
-1761.14459315
 10
1946.63630919
 20
-1762.7295364
  0
LWPOLYLINE
  5
5C1
100
AcDbEntity
  8
Sc.1_5
 62
     9
  6
CONTINUOUS
370
    20
100
AcDbPolyline
 90
        8
 70
     1
 43
0.0
 38
548.63999023
 39
-548.63999023
 10
1947.39104805
 20
-1760.08023644
 10
1947.13071551
 20
-1760.62166812
 10
1946.40352851
 20
-1761.3560614
 10
1946.00551468
 20
-1761.66517969
 10
1946.26584722
 20
-1761.12374802
 10
1946.99303422
 20
-1760.38935474
 10
1947.39104805
 20
-1760.08023644
 10
1946.00551468
 20
-1761.66517969
  0
LWPOLYLINE
  5
5C2
100
AcDbEntity
  8
Sc.1_5
 62
     9
  6
CONTINUOUS
370
    20
100
AcDbPolyline
 90
        8
 70
     1
 43
0.0
 38
548.63999023
 39
-548.63999023
 10
1946.76025354
 20
-1759.01587973
 10
1946.49992101
 20
-1759.55731141
 10
1945.772734
 20
-1760.29170469
 10
1945.37472018
 20
-1760.60082299
 10
1945.63505271
 20
-1760.05939131
 10
1946.36223972
 20
-1759.32499803
 10
1946.76025354
 20
-1759.01587973
 10
1945.37472018
 20
-1760.60082299
  0
LWPOLYLINE
  5
5C3
100
AcDbEntity
  8
Sc.1_5
 62
     9
  6
CONTINUOUS
370
    20
100
AcDbPolyline
 90
        8
 70
     1
 43
0.0
 38
548.63999023
 39
-548.63999023
 10
1961.70230259
 20
-1787.88811783
 10
1962.05167256
 20
-1787.75959995
 10
1962.77681953
 20
-1787.02176447
 10
1962.98215012
 20
-1786.65834748
 10
1961.70230259
 20
-1787.88811783
 10
1961.91190299
 20
-1787.52376296
 10
1962.67235827
 20
-1786.84550415
 10
1962.98215012
 20
-1786.65834748
  0
LWPOLYLINE
  5
5C4
100
AcDbEntity
  8
Sc.1_5
 62
     9
  6
CONTINUOUS
370
    20
100
AcDbPolyline
 90
        8
 70
     1
 43
0.0
 38
548.63999023
 39
-548.63999023
 10
1962.33354993
 20
-1788.6136309
 10
1962.63782758
 20
-1788.49952258
 10
1963.20509984
 20
-1787.96066961
 10
1963.38435115
 20
-1787.67659993
 10
1963.14820042
 20
-1787.81655543
 10
1962.50082526
 20
-1788.35746007
 10
1962.33354993
 20
-1788.6136309
 10
1963.38435115
 20
-1787.67659993
  0
LWPOLYLINE
  5
5C5
100
AcDbEntity
  8
Sc.1_5
 62
     9
  6
CONTINUOUS
370
    20
100
AcDbPolyline
 90
       11
 70
     1
 43
0.0
 38
548.63999023
 39
-548.63999023
 10
1985.02263493
 20
-1735.98157904
 10
2001.88965857
 20
-1764.44176624
 10
2002.02942814
 20
-1764.67760323
 10
2002.47858084
 20
-1765.27546335
 10
2002.61558316
 20
-1765.41752586
 10
2003.38971537
 20
-1765.99215501
 10
2003.18285542
 20
-1764.87867289
 10
2003.125956
 20
-1764.73455871
 10
2002.75457511
 20
-1763.93976775
 10
2002.65011385
 20
-1763.76350743
 10
1985.88290356
 20
-1735.471738
  0
LWPOLYLINE
  5
5C6
100
AcDbEntity
  8
Sc.1_5
 62
     9
  6
CONTINUOUS
370
    20
100
AcDbPolyline
 90
        8
 70
     1
 43
0.0
 38
548.63999023
 39
-548.63999023
 10
2002.50787178
 20
-1762.54280068
 10
2002.24753924
 20
-1763.08423235
 10
2001.52035224
 20
-1763.81862563
 10
2001.12233841
 20
-1764.12774393
 10
2001.38267095
 20
-1763.58631225
 10
2002.10985795
 20
-1762.85191897
 10
2002.50787178
 20
-1762.54280068
 10
2001.12233841
 20
-1764.12774393
  0
LWPOLYLINE
  5
5C7
100
AcDbEntity
  8
Sc.1_5
 62
     9
  6
CONTINUOUS
370
    20
100
AcDbPolyline
 90
        8
 70
     1
 43
0.0
 38
548.63999023
 39
-548.63999023
 10
2001.87707727
 20
-1761.47844397
 10
2001.61674474
 20
-1762.01987565
 10
2000.88955773
 20
-1762.75426893
 10
2000.49154391
 20
-1763.06338722
 10
2000.75187644
 20
-1762.52195555
 10
2001.47906345
 20
-1761.78756227
 10
2001.87707727
 20
-1761.47844397
 10
2000.49154391
 20
-1763.06338722
  0
3DFACE
  5
5C8
100
AcDbEntity
  8
Sc.1_5
 62
     9
  6
CONTINUOUS
370
    20
100
AcDbFace
 70
     0
 10
1983.24075202
 20
-1735.52477397
 30
548.63999023
 11
1985.02288942
 21
-1735.98058427
 31
548.63999023
 12
1985.88190878
 22
-1735.47148356
 32
548.63999023
 13
1986.33771909
 23
-1733.68934624
 33
548.63999023
  0
3DFACE
  5
5C9
100
AcDbEntity
  8
Sc.1_5
 62
     9
  6
CONTINUOUS
370
    20
100
AcDbFace
 70
     0
 10
1983.24075202
 20
-1735.52477397
 30
548.63999023
 11
1983.13878381
 21
-1735.35272024
 31
548.63999023
 12
1986.23575088
 22
-1733.51729251
 32
548.63999023
 13
1986.33771909
 23
-1733.68934624
 33
548.63999023
  0
LWPOLYLINE
  5
5CA
100
AcDbEntity
  8
Sc.1_5
 62
     9
  6
CADWORK_13
370
    -3
100
AcDbPolyline
 90
        4
 70
     0
 43
0.0
 38
510.0
 10
1985.11740166
 20
-1734.18008586
 10
1985.36769772
 20
-1734.99469633
 10
1984.85153654
 20
-1735.30060095
 10
1984.25713303
 20
-1734.68992689
  0
LINE
  5
5CB
100
AcDbEntity
  8
Sc.1_5
 62
     9
  6
CADWORK_13
370
    -3
100
AcDbLine
 10
1985.10961713
 20
-1735.14764864
 30
510.0
 11
1984.68726735
 21
-1734.43500637
 31
510.0
  0
LWPOLYLINE
  5
5CC
100
AcDbEntity
  8
Sc.1_5
 62
     9
  6
CONTINUOUS
370
    20
100
AcDbPolyline
 90
        8
 70
     1
 43
0.0
 38
548.63999023
 39
-548.63999023
 10
2001.24628276
 20
-1760.41408726
 10
2000.98595023
 20
-1760.95551894
 10
2000.25876322
 20
-1761.68991222
 10
1999.8607494
 20
-1761.99903052
 10
2000.12108193
 20
-1761.45759884
 10
2000.84826894
 20
-1760.72320556
 10
2001.24628276
 20
-1760.41408726
 10
1999.8607494
 20
-1761.99903052
  0
LWPOLYLINE
  5
5CD
100
AcDbEntity
  8
Sc.1_5
 62
     9
  6
CONTINUOUS
370
    20
100
AcDbPolyline
 90
        8
 70
     1
 43
0.0
 38
548.63999023
 39
-548.63999023
 10
2000.61548826
 20
-1759.34973056
 10
2000.35515572
 20
-1759.89116223
 10
1999.62796872
 20
-1760.62555552
 10
1999.22995489
 20
-1760.93467381
 10
1999.49028743
 20
-1760.39324213
 10
2000.21747443
 20
-1759.65884885
 10
2000.61548826
 20
-1759.34973056
 10
1999.22995489
 20
-1760.93467381
  0
LWPOLYLINE
  5
5CE
100
AcDbEntity
  8
Sc.1_5
 62
     9
  6
CONTINUOUS
370
    20
100
AcDbPolyline
 90
        8
 70
     1
 43
0.0
 38
548.63999023
 39
-548.63999023
 10
1999.98469375
 20
-1758.28537385
 10
1999.72436122
 20
-1758.82680553
 10
1998.99717421
 20
-1759.56119881
 10
1998.59916039
 20
-1759.8703171
 10
1998.85949292
 20
-1759.32888543
 10
1999.58667993
 20
-1758.59449215
 10
1999.98469375
 20
-1758.28537385
 10
1998.59916039
 20
-1759.8703171
  0
LWPOLYLINE
  5
5CF
100
AcDbEntity
  8
Sc.1_5
 62
     9
  6
CONTINUOUS
370
    20
100
AcDbPolyline
 90
        8
 70
     1
 43
0.0
 38
548.63999023
 39
-548.63999023
 10
1999.35389925
 20
-1757.22101714
 10
1999.09356671
 20
-1757.76244882
 10
1998.36637971
 20
-1758.4968421
 10
1997.96836588
 20
-1758.8059604
 10
1998.22869842
 20
-1758.26452872
 10
1998.95588542
 20
-1757.53013544
 10
1999.35389925
 20
-1757.22101714
 10
1997.96836588
 20
-1758.8059604
  0
LWPOLYLINE
  5
5D0
100
AcDbEntity
  8
Sc.1_5
 62
     9
  6
CONTINUOUS
370
    20
100
AcDbPolyline
 90
        8
 70
     1
 43
0.0
 38
548.63999023
 39
-548.63999023
 10
1998.72310474
 20
-1756.15666044
 10
1998.4627722
 20
-1756.69809211
 10
1997.7355852
 20
-1757.4324854
 10
1997.33757138
 20
-1757.74160369
 10
1997.59790391
 20
-1757.20017201
 10
1998.32509091
 20
-1756.46577873
 10
1998.72310474
 20
-1756.15666044
 10
1997.33757138
 20
-1757.74160369
  0
LWPOLYLINE
  5
5D1
100
AcDbEntity
  8
Sc.1_5
 62
     9
  6
CONTINUOUS
370
    20
100
AcDbPolyline
 90
        8
 70
     1
 43
0.0
 38
548.63999023
 39
-548.63999023
 10
1998.09231023
 20
-1755.09230373
 10
1997.8319777
 20
-1755.63373541
 10
1997.10479069
 20
-1756.36812869
 10
1996.70677687
 20
-1756.67724698
 10
1996.9671094
 20
-1756.13581531
 10
1997.69429641
 20
-1755.40142203
 10
1998.09231023
 20
-1755.09230373
 10
1996.70677687
 20
-1756.67724698
  0
LWPOLYLINE
  5
5D2
100
AcDbEntity
  8
Sc.1_5
 62
     9
  6
CONTINUOUS
370
    20
100
AcDbPolyline
 90
        8
 70
     1
 43
0.0
 38
548.63999023
 39
-548.63999023
 10
1997.46151573
 20
-1754.02794703
 10
1997.20118319
 20
-1754.5693787
 10
1996.47399619
 20
-1755.30377198
 10
1996.07598236
 20
-1755.61289028
 10
1996.3363149
 20
-1755.0714586
 10
1997.0635019
 20
-1754.33706532
 10
1997.46151573
 20
-1754.02794703
 10
1996.07598236
 20
-1755.61289028
  0
LWPOLYLINE
  5
5D3
100
AcDbEntity
  8
Sc.1_5
 62
     9
  6
CONTINUOUS
370
    20
100
AcDbPolyline
 90
        8
 70
     1
 43
0.0
 38
548.63999023
 39
-548.63999023
 10
1996.83072122
 20
-1752.96359032
 10
1996.57038869
 20
-1753.50502199
 10
1995.84320168
 20
-1754.23941528
 10
1995.44518786
 20
-1754.54853357
 10
1995.70552039
 20
-1754.00710189
 10
1996.4327074
 20
-1753.27270861
 10
1996.83072122
 20
-1752.96359032
 10
1995.44518786
 20
-1754.54853357
  0
LWPOLYLINE
  5
5D4
100
AcDbEntity
  8
Sc.1_5
 62
     9
  6
CONTINUOUS
370
    20
100
AcDbPolyline
 90
        8
 70
     1
 43
0.0
 38
548.63999023
 39
-548.63999023
 10
1996.19992671
 20
-1751.89923361
 10
1995.93959418
 20
-1752.44066529
 10
1995.21240718
 20
-1753.17505857
 10
1994.81439335
 20
-1753.48417686
 10
1995.07472589
 20
-1752.94274519
 10
1995.80191289
 20
-1752.20835191
 10
1996.19992671
 20
-1751.89923361
 10
1994.81439335
 20
-1753.48417686
  0
LWPOLYLINE
  5
5D5
100
AcDbEntity
  8
Sc.1_5
 62
     9
  6
CONTINUOUS
370
    20
100
AcDbPolyline
 90
        8
 70
     1
 43
0.0
 38
548.63999023
 39
-548.63999023
 10
1995.56913221
 20
-1750.83487691
 10
1995.30879967
 20
-1751.37630858
 10
1994.58161267
 20
-1752.11070186
 10
1994.18359884
 20
-1752.41982016
 10
1994.44393138
 20
-1751.87838848
 10
1995.17111838
 20
-1751.1439952
 10
1995.56913221
 20
-1750.83487691
 10
1994.18359884
 20
-1752.41982016
  0
LWPOLYLINE
  5
5D6
100
AcDbEntity
  8
Sc.1_5
 62
     9
  6
CONTINUOUS
370
    20
100
AcDbPolyline
 90
        8
 70
     1
 43
0.0
 38
548.63999023
 39
-548.63999023
 10
1994.9383377
 20
-1749.7705202
 10
1994.67800517
 20
-1750.31195187
 10
1993.95081816
 20
-1751.04634516
 10
1993.55280434
 20
-1751.35546345
 10
1993.81313687
 20
-1750.81403178
 10
1994.54032388
 20
-1750.07963849
 10
1994.9383377
 20
-1749.7705202
 10
1993.55280434
 20
-1751.35546345
  0
LWPOLYLINE
  5
5D7
100
AcDbEntity
  8
Sc.1_5
 62
     9
  6
CONTINUOUS
370
    20
100
AcDbPolyline
 90
        8
 70
     1
 43
0.0
 38
548.63999023
 39
-548.63999023
 10
1994.3075432
 20
-1748.70616349
 10
1994.04721066
 20
-1749.24759517
 10
1993.32002366
 20
-1749.98198845
 10
1992.92200983
 20
-1750.29110674
 10
1993.18234237
 20
-1749.74967507
 10
1993.90952937
 20
-1749.01528179
 10
1994.3075432
 20
-1748.70616349
 10
1992.92200983
 20
-1750.29110674
  0
LWPOLYLINE
  5
5D8
100
AcDbEntity
  8
Sc.1_5
 62
     9
  6
CONTINUOUS
370
    20
100
AcDbPolyline
 90
        8
 70
     1
 43
0.0
 38
548.63999023
 39
-548.63999023
 10
1993.67674869
 20
-1747.64180679
 10
1993.41641616
 20
-1748.18323846
 10
1992.68922915
 20
-1748.91763174
 10
1992.29121533
 20
-1749.22675004
 10
1992.55154786
 20
-1748.68531836
 10
1993.27873487
 20
-1747.95092508
 10
1993.67674869
 20
-1747.64180679
 10
1992.29121533
 20
-1749.22675004
  0
LWPOLYLINE
  5
5D9
100
AcDbEntity
  8
Sc.1_5
 62
     9
  6
CONTINUOUS
370
    20
100
AcDbPolyline
 90
        8
 70
     1
 43
0.0
 38
548.63999023
 39
-548.63999023
 10
1993.04595418
 20
-1746.57745008
 10
1992.78562165
 20
-1747.11888176
 10
1992.05843464
 20
-1747.85327504
 10
1991.66042082
 20
-1748.16239333
 10
1991.92075335
 20
-1747.62096166
 10
1992.64794036
 20
-1746.88656837
 10
1993.04595418
 20
-1746.57745008
 10
1991.66042082
 20
-1748.16239333
  0
LWPOLYLINE
  5
5DA
100
AcDbEntity
  8
Sc.1_5
 62
     9
  6
CONTINUOUS
370
    20
100
AcDbPolyline
 90
        8
 70
     1
 43
0.0
 38
548.63999023
 39
-548.63999023
 10
1992.41515968
 20
-1745.51309337
 10
1992.15482714
 20
-1746.05452505
 10
1991.42764014
 20
-1746.78891833
 10
1991.02962631
 20
-1747.09803662
 10
1991.28995885
 20
-1746.55660495
 10
1992.01714585
 20
-1745.82221167
 10
1992.41515968
 20
-1745.51309337
 10
1991.02962631
 20
-1747.09803662
  0
LWPOLYLINE
  5
5DB
100
AcDbEntity
  8
Sc.1_5
 62
     9
  6
CONTINUOUS
370
    20
100
AcDbPolyline
 90
        8
 70
     1
 43
0.0
 38
548.63999023
 39
-548.63999023
 10
1991.78436517
 20
-1744.44873667
 10
1991.52403264
 20
-1744.99016834
 10
1990.79684563
 20
-1745.72456162
 10
1990.39883181
 20
-1746.03367992
 10
1990.65916434
 20
-1745.49224824
 10
1991.38635135
 20
-1744.75785496
 10
1991.78436517
 20
-1744.44873667
 10
1990.39883181
 20
-1746.03367992
  0
LWPOLYLINE
  5
5DC
100
AcDbEntity
  8
Sc.1_5
 62
     9
  6
CONTINUOUS
370
    20
100
AcDbPolyline
 90
        8
 70
     1
 43
0.0
 38
548.63999023
 39
-548.63999023
 10
1991.15357066
 20
-1743.38437996
 10
1990.89323813
 20
-1743.92581164
 10
1990.16605113
 20
-1744.66020492
 10
1989.7680373
 20
-1744.96932321
 10
1990.02836984
 20
-1744.42789154
 10
1990.75555684
 20
-1743.69349825
 10
1991.15357066
 20
-1743.38437996
 10
1989.7680373
 20
-1744.96932321
  0
LWPOLYLINE
  5
5DD
100
AcDbEntity
  8
Sc.1_5
 62
     9
  6
CONTINUOUS
370
    20
100
AcDbPolyline
 90
        8
 70
     1
 43
0.0
 38
548.63999023
 39
-548.63999023
 10
1990.52277616
 20
-1742.32002325
 10
1990.26244362
 20
-1742.86145493
 10
1989.53525662
 20
-1743.59584821
 10
1989.1372428
 20
-1743.90496651
 10
1989.39757533
 20
-1743.36353483
 10
1990.12476233
 20
-1742.62914155
 10
1990.52277616
 20
-1742.32002325
 10
1989.1372428
 20
-1743.90496651
  0
LWPOLYLINE
  5
5DE
100
AcDbEntity
  8
Sc.1_5
 62
     9
  6
CONTINUOUS
370
    20
100
AcDbPolyline
 90
        8
 70
     1
 43
0.0
 38
548.63999023
 39
-548.63999023
 10
1989.89198165
 20
-1741.25566655
 10
1989.63164912
 20
-1741.79709822
 10
1988.90446211
 20
-1742.5314915
 10
1988.50644829
 20
-1742.8406098
 10
1988.76678082
 20
-1742.29917812
 10
1989.49396783
 20
-1741.56478484
 10
1989.89198165
 20
-1741.25566655
 10
1988.50644829
 20
-1742.8406098
  0
LWPOLYLINE
  5
5DF
100
AcDbEntity
  8
Sc.1_5
 62
     9
  6
CONTINUOUS
370
    20
100
AcDbPolyline
 90
        8
 70
     1
 43
0.0
 38
548.63999023
 39
-548.63999023
 10
1989.26118715
 20
-1740.19130984
 10
1989.00085461
 20
-1740.73274152
 10
1988.27366761
 20
-1741.4671348
 10
1987.87565378
 20
-1741.77625309
 10
1988.13598632
 20
-1741.23482142
 10
1988.86317332
 20
-1740.50042814
 10
1989.26118715
 20
-1740.19130984
 10
1987.87565378
 20
-1741.77625309
  0
LWPOLYLINE
  5
5E0
100
AcDbEntity
  8
Sc.1_5
 62
     9
  6
CONTINUOUS
370
    20
100
AcDbPolyline
 90
        8
 70
     1
 43
0.0
 38
548.63999023
 39
-548.63999023
 10
1988.63039264
 20
-1739.12695313
 10
1988.37006011
 20
-1739.66838481
 10
1987.6428731
 20
-1740.40277809
 10
1987.24485928
 20
-1740.71189639
 10
1987.50519181
 20
-1740.17046471
 10
1988.23237882
 20
-1739.43607143
 10
1988.63039264
 20
-1739.12695313
 10
1987.24485928
 20
-1740.71189639
  0
LWPOLYLINE
  5
5E1
100
AcDbEntity
  8
Sc.1_5
 62
     9
  6
CONTINUOUS
370
    20
100
AcDbPolyline
 90
        8
 70
     1
 43
0.0
 38
548.63999023
 39
-548.63999023
 10
1987.99959813
 20
-1738.06259643
 10
1987.7392656
 20
-1738.6040281
 10
1987.0120786
 20
-1739.33842138
 10
1986.61406477
 20
-1739.64753968
 10
1986.87439731
 20
-1739.106108
 10
1987.60158431
 20
-1738.37171472
 10
1987.99959813
 20
-1738.06259643
 10
1986.61406477
 20
-1739.64753968
  0
LWPOLYLINE
  5
5E2
100
AcDbEntity
  8
Sc.1_5
 62
     9
  6
CONTINUOUS
370
    20
100
AcDbPolyline
 90
        8
 70
     1
 43
0.0
 38
548.63999023
 39
-548.63999023
 10
1987.36880363
 20
-1736.99823972
 10
1987.10847109
 20
-1737.5396714
 10
1986.38128409
 20
-1738.27406468
 10
1985.98327026
 20
-1738.58318297
 10
1986.2436028
 20
-1738.0417513
 10
1986.9707898
 20
-1737.30735802
 10
1987.36880363
 20
-1736.99823972
 10
1985.98327026
 20
-1738.58318297
  0
LWPOLYLINE
  5
5E3
100
AcDbEntity
  8
Sc.1_5
 62
     9
  6
CONTINUOUS
370
    20
100
AcDbPolyline
 90
        8
 70
     1
 43
0.0
 38
548.63999023
 39
-548.63999023
 10
1986.73800912
 20
-1735.93388301
 10
1986.47767659
 20
-1736.47531469
 10
1985.75048958
 20
-1737.20970797
 10
1985.35247576
 20
-1737.51882627
 10
1985.61280829
 20
-1736.97739459
 10
1986.3399953
 20
-1736.24300131
 10
1986.73800912
 20
-1735.93388301
 10
1985.35247576
 20
-1737.51882627
  0
LWPOLYLINE
  5
5E4
100
AcDbEntity
  8
Sc.1_5
 62
     9
  6
CONTINUOUS
370
    20
100
AcDbPolyline
 90
        8
 70
     1
 43
0.0
 38
548.63999023
 39
-548.63999023
 10
2001.68005817
 20
-1764.80612111
 10
2002.02942814
 20
-1764.67760323
 10
2002.75457511
 20
-1763.93976775
 10
2002.9599057
 20
-1763.57635076
 10
2001.68005817
 20
-1764.80612111
 10
2001.88965857
 20
-1764.44176624
 10
2002.65011385
 20
-1763.76350743
 10
2002.9599057
 20
-1763.57635076
  0
LWPOLYLINE
  5
5E5
100
AcDbEntity
  8
Sc.1_5
 62
     9
  6
CONTINUOUS
370
    20
100
AcDbPolyline
 90
        8
 70
     1
 43
0.0
 38
548.63999023
 39
-548.63999023
 10
2002.31130551
 20
-1765.53163417
 10
2002.61558316
 20
-1765.41752586
 10
2003.18285542
 20
-1764.87867289
 10
2003.36210673
 20
-1764.59460321
 10
2003.125956
 20
-1764.73455871
 10
2002.47858084
 20
-1765.27546335
 10
2002.31130551
 20
-1765.53163417
 10
2003.36210673
 20
-1764.59460321
  0
3DFACE
  5
5E6
100
AcDbEntity
  8
LEGEND
 62
     7
  6
CONTINUOUS
370
    20
100
AcDbFace
 70
     0
 10
1964.04106118
 20
-1799.47116117
 30
2743.19995117
 11
1967.54106067
 21
-1805.53333942
 31
2743.19995117
 12
1979.66541715
 22
-1798.53334044
 32
2743.19995117
 13
1976.16541766
 23
-1792.47116219
 33
2743.19995117
  0
INSERT
  5
5E7
100
AcDbEntity
  8
LEGEND
 62
     0
370
    20
100
AcDbBlockReference
  2
*X2864
 10
0.0
 20
0.0
 30
0.0
  0
LINE
  5
5E8
100
AcDbEntity
  8
Sc.1_5
 62
     9
  6
CONTINUOUS
 48
0.25
370
    20
100
AcDbLine
 10
1922.79095661
 20
-1765.55205543
 30
548.63999023
 11
1932.58516111
 21
-1764.51611462
 31
548.63999023
  0
LINE
  5
5E9
100
AcDbEntity
  8
Sc.1_5
 62
     9
  6
CONTINUOUS
 48
0.25
370
    20
100
AcDbLine
 10
1933.79093345
 20
-1784.60457227
 30
548.63999023
 11
1943.58513795
 21
-1783.56863146
 31
548.63999023
  0
LINE
  5
5EA
100
AcDbEntity
  8
Sc.1_5
 62
     9
  6
CONTINUOUS
 48
0.25
370
    20
100
AcDbLine
 10
2008.16546997
 20
-1741.66446994
 30
548.63999023
 11
2017.95957553
 21
-1740.62853036
 31
548.63999023
  0
LINE
  5
5EB
100
AcDbEntity
  8
Sc.1_5
 62
     9
  6
CONTINUOUS
 48
0.25
370
    20
100
AcDbLine
 10
1997.16549314
 20
-1722.6119531
 30
548.63999023
 11
2006.95969764
 21
-1721.5760123
 31
548.63999023
  0
LINE
  5
5EC
100
AcDbEntity
  8
Sc.1_5
 62
     9
  6
CONTINUOUS
 48
0.25
370
    20
100
AcDbLine
 10
1877.85781658
 20
-1791.49432931
 30
548.63999023
 11
1887.65202108
 21
-1790.4583885
 31
548.63999023
  0
TEXT
  5
5ED
100
AcDbEntity
  8
Sc.1_5
 62
     7
370
    35
100
AcDbText
 10
1993.57649065
 20
-1803.23913703
 30
0.0
 40
2.5
  1
Woodspan PLT roof panel
  7
TAHOMA
 50
0.0
 41
0.8
 51
0.0
100
AcDbText
  0
TEXT
  5
5EE
100
AcDbEntity
  8
Sc.1_5
 62
     7
370
    18
100
AcDbText
 10
1993.57649065
 20
-1807.48913703
 30
0.0
 40
2.5
  1
fixings per engineer's details
  7
TAHOMA
 50
0.0
 41
0.8
 51
0.0
100
AcDbText
  0
TEXT
  5
5EF
100
AcDbEntity
  8
Sc.1_5
 62
     7
370
    18
100
AcDbText
 10
1993.61417416
 20
-1822.67491294
 30
0.0
 40
2.5
  1
Ceiling (if required)
  7
TAHOMA
 50
0.0
 41
0.8
 51
0.0
100
AcDbText
  0
TEXT
  5
5F0
100
AcDbEntity
  8
Sc.1_5
 62
     7
370
    18
100
AcDbText
 10
1867.33902779
 20
-1740.63777092
 30
0.0
 40
2.5
  1
Insulation, roofing underlay, roofing
  7
TAHOMA
 50
0.0
 41
0.8
 51
0.0
100
AcDbText
  0
TEXT
  5
5F1
100
AcDbEntity
  8
Sc.1_5
 62
     7
370
    18
100
AcDbText
 10
1993.57649065
 20
-1849.33018518
 30
0.0
 40
2.5
  1
Stud frame wall to NZS3604:2011
  7
TAHOMA
 50
0.0
 41
0.8
 51
0.0
100
AcDbText
  0
TEXT
  5
5F2
100
AcDbEntity
  8
Sc.1_5
 62
     7
370
    18
100
AcDbText
 10
1867.33902779
 20
-1744.88777092
 30
0.0
 40
2.5
  1
as per architect's details
  7
TAHOMA
 50
0.0
 41
0.8
 51
0.0
100
AcDbText
  0
TEXT
  5
5F3
100
AcDbEntity
  8
Sc.1_5
 62
     7
370
    18
100
AcDbText
 10
1946.6307904
 20
-1709.17594049
 30
0.0
 40
2.5
  1
Castellated spacer over purlin
  7
TAHOMA
 50
0.0
 41
0.8
 51
0.0
100
AcDbText
  0
TEXT
  5
5F4
100
AcDbEntity
  8
Sc.1_5
 62
     7
370
    18
100
AcDbText
 10
1951.72526326
 20
-1712.7380906
 30
0.0
 40
2.5
  1
Purlin on spaced packers
  7
TAHOMA
 50
0.0
 41
0.8
 51
0.0
100
AcDbText
  0
TEXT
  5
5F5
100
AcDbEntity
  8
Sc.1_5
 62
     7
370
    18
100
AcDbText
 10
1901.91131919
 20
-1825.6417767
 30
0.0
 40
2.5
  1
Soffit lining
  7
TAHOMA
 50
0.0
 41
0.8
 51
0.0
100
AcDbText
  0
TEXT
  5
5F6
100
AcDbEntity
  8
Sc.1_5
 62
     7
370
    18
100
AcDbText
 10
1993.74409998
 20
-1826.57268739
 30
0.0
 40
2.5
  1
fixed over battens/strapping
  7
TAHOMA
 50
0.0
 41
0.8
 51
0.0
100
AcDbText
  0
TEXT
  5
5F7
100
AcDbEntity
  8
Sc.1_5
 62
     7
370
    18
100
AcDbText
 10
1894.48034311
 20
-1756.07884965
 30
0.0
 40
2.5
  1
Dwang
  7
TAHOMA
 50
0.0
 41
0.8
 51
0.0
100
AcDbText
  0
TEXT
  5
5F8
100
AcDbEntity
  8
Sc.1_5
 62
     7
370
    18
100
AcDbText
 10
1929.19529735
 20
-1735.88979153
 30
0.0
 40
2.5
  1
Outrigger screw fixing
  7
TAHOMA
 50
0.0
 41
0.8
 51
0.0
100
AcDbText
  0
TEXT
  5
5F9
100
AcDbEntity
  8
LEGEND
 62
     7
370
    -3
100
AcDbText
 10
2020.01942105
 20
-1927.55865138
 30
0.0
 40
1.60000002
  1
Date
  7
TAHOMA
 50
0.0
 41
1.0
 51
0.0
100
AcDbText
  0
TEXT
  5
5FA
100
AcDbEntity
  8
LEGEND
 62
     7
370
    -3
100
AcDbText
 10
2005.11117238
 20
-1936.18983213
 30
0.0
 40
1.60000002
  1
Detail
  7
TAHOMA
 50
0.0
 41
1.0
 51
0.0
100
AcDbText
  0
TEXT
  5
5FB
100
AcDbEntity
  8
LEGEND
 62
     7
370
    18
100
AcDbText
 10
2008.53878762
 20
-1931.99980399
 30
0.0
 40
2.79999995
  1
1.0
  7
TAHOMA
 50
0.0
 41
1.0
 51
0.0
100
AcDbText
  0
TEXT
  5
5FC
100
AcDbEntity
  8
LEGEND
 62
     7
370
    -3
100
AcDbText
 10
2005.11117238
 20
-1927.55865138
 30
0.0
 40
1.60000002
  1
Version
  7
TAHOMA
 50
0.0
 41
1.0
 51
0.0
100
AcDbText
  0
TEXT
  5
5FD
100
AcDbEntity
  8
LEGEND
 62
     7
370
    -3
100
AcDbText
 10
1874.17038107
 20
-1927.55865138
 30
0.0
 40
1.60000002
  1
Phone:
  7
TAHOMA
 50
0.0
 41
1.0
 51
0.0
100
AcDbText
  0
TEXT
  5
5FE
100
AcDbEntity
  8
LEGEND
 62
     7
370
    -3
100
AcDbText
 10
1874.17038107
 20
-1931.67943855
 30
0.0
 40
1.60000002
  1
Email:
  7
TAHOMA
 50
0.0
 41
1.0
 51
0.0
100
AcDbText
  0
TEXT
  5
5FF
100
AcDbEntity
  8
LEGEND
 62
     7
370
    -3
100
AcDbText
 10
1874.17038107
 20
-1935.80022571
 30
0.0
 40
1.60000002
  1
Web:
  7
TAHOMA
 50
0.0
 41
1.0
 51
0.0
100
AcDbText
  0
TEXT
  5
600
100
AcDbEntity
  8
LEGEND
 62
     7
370
    18
100
AcDbText
 10
1884.07236204
 20
-1928.35865138
 30
0.0
 40
2.4000001
  1
06 755 9000
  7
TAHOMA
 50
0.0
 41
1.0
 51
0.0
100
AcDbText
  0
TEXT
  5
601
100
AcDbEntity
  8
LEGEND
 62
     7
370
    18
100
AcDbText
 10
1884.07236204
 20
-1932.47943855
 30
0.0
 40
2.4000001
  1
info@woodspan.co.nz
  7
TAHOMA
 50
0.0
 41
1.0
 51
0.0
100
AcDbText
  0
TEXT
  5
602
100
AcDbEntity
  8
LEGEND
 62
     7
370
    18
100
AcDbText
 10
1884.07236204
 20
-1936.60022571
 30
0.0
 40
2.4000001
  1
www.woodspan.co.nz
  7
TAHOMA
 50
0.0
 41
1.0
 51
0.0
100
AcDbText
  0
TEXT
  5
603
100
AcDbEntity
  8
LEGEND
 62
     7
370
    18
100
AcDbText
 10
1874.12274679
 20
-1940.72101287
 30
0.0
 40
2.4000001
  1
Connett Road, Bell Block, New Plymouth
  7
TAHOMA
 50
0.0
 41
1.0
 51
0.0
100
AcDbText
  0
TEXT
  5
604
100
AcDbEntity
  8
LEGEND
 62
     7
370
    18
100
AcDbText
 10
2021.10507053
 20
-1931.79980399
 30
0.0
 40
2.4000001
  1
11.07.2019
  7
TAHOMA
 50
0.0
 41
1.0
 51
0.0
100
AcDbText
  0
TEXT
  5
605
100
AcDbEntity
  8
LEGEND
 62
     7
370
    18
100
AcDbText
 10
2013.13844875
 20
-1939.73315868
 30
0.0
 40
4.0
  1

  7
TAHOMA
 50
0.0
 41
0.95
 51
0.0
100
AcDbText
  0
TEXT
  5
606
100
AcDbEntity
  8
LEGEND
 62
     7
370
    18
100
AcDbText
 10
2013.90415198
 20
-1940.05624061
 30
0.0
 40
4.0
  1
PLT 4.2
  7
TAHOMA
 50
0.0
 41
0.95
 51
0.0
100
AcDbText
  0
TEXT
  5
607
100
AcDbEntity
  8
LEGEND
 62
     7
370
    18
100
AcDbText
 10
1933.11424561
 20
-1932.13297832
 30
0.0
 40
4.0
  1
Eave - seat cut - overhang
  7
TAHOMA
 50
0.0
 41
0.95
 51
0.0
100
AcDbText
  0
TEXT
  5
608
100
AcDbEntity
  8
LEGEND
 62
     7
370
    18
100
AcDbText
 10
1933.11424561
 20
-1938.8921527
 30
0.0
 40
4.0
  1
PLT roof - Eave
  7
TAHOMA
 50
0.0
 41
0.95
 51
0.0
100
AcDbText
  0
TEXT
  5
609
100
AcDbEntity
  8
LEGEND
 62
     7
370
    18
100
AcDbText
 10
1925.74560604
 20
-1922.5982645
 30
0.0
 40
2.4000001
  1
Indicative details only
  7
TAHOMA
 50
0.0
 41
1.0
 51
0.0
100
AcDbText
  0
ENDSEC
  0
SECTION
  2
OBJECTS
  0
DICTIONARY
  5
1
100
AcDbDictionary
  3
ACAD_GROUP
350
2
  3
ACAD_MLINESTYLE
350
3
  0
DICTIONARY
  5
2
102
{CDWK_REACTORS
330
1
102
}
100
AcDbDictionary
  0
DICTIONARY
  5
3
102
{CDWK_REACTORS
330
1
102
}
100
AcDbDictionary
  3
STANDARD
350
4
  0
MLINESTYLE
  5
4
102
{CDWK_REACTORS
330
3
102
}
100
AcDbMlineStyle
  2
STANDARD
 70
     0
  3

 62
     0
 51
90.0
 52
90.0
 71
     2
 49
0.5
 62
   256
  6
BYLAYER
 49
-0.5
 62
   256
  6
BYLAYER
  0
ENDSEC
  0
EOF
