  0
SECTION
  2
HEADER
  9
$ACADVER
  1
AC1014
  9
$DWGCODEPAGE
  3
ANSI_1252
  9
$INSBASE
 10
0.0
 20
0.0
 30
0.0
  9
$EXTMIN
 10
2081.79963971
 20
-1942.22101287
  9
$EXTMAX
 10
2279.1164411
 20
-1671.22101287
  9
$LIMMIN
 10
2081.79963971
 20
-1942.22101287
  9
$LIMMAX
 10
2279.1164411
 20
-1671.22101287
  9
$ORTHOMODE
 70
     0
  9
$REGENMODE
 70
     1
  9
$FILLMODE
 70
     1
  9
$QTEXTMODE
 70
     0
  9
$MIRRTEXT
 70
     1
  9
$DRAGMODE
 70
     2
  9
$LTSCALE
 40
1.0
  9
$OSMODE
 70
     0
  9
$ATTMODE
 70
     1
  9
$TEXTSIZE
 40
3.5
  9
$TRACEWID
 40
1.0
  9
$TEXTSTYLE
  7
STANDARD
  9
$CLAYER
  8
0
  9
$CELTYPE
  6
BYLAYER
  9
$CECOLOR
 62
   256
  9
$DIMSCALE
 40
1.0
  9
$DIMASZ
 40
2.0
  9
$DIMEXO
 40
5.0
  9
$DIMDLI
 40
10.0
  9
$DIMRND
 40
0.0
  9
$DIMDLE
 40
2.0
  9
$DIMEXE
 40
2.0
  9
$DIMTP
 40
0.0
  9
$DIMTM
 40
0.0
  9
$DIMTXT
 40
2.1
  9
$DIMCEN
 40
1.5
  9
$DIMTSZ
 40
0.0
  9
$DIMTOL
 70
     0
  9
$DIMLIM
 70
     0
  9
$DIMTIH
 70
     1
  9
$DIMTOH
 70
     0
  9
$DIMSE1
 70
     0
  9
$DIMSE2
 70
     0
  9
$DIMTAD
 70
     1
  9
$DIMZIN
 70
     8
  9
$DIMBLK
  1

  9
$DIMASO
 70
     1
  9
$DIMSHO
 70
     1
  9
$DIMPOST
  1

  9
$DIMAPOST
  1

  9
$DIMALT
 70
     0
  9
$DIMALTD
 70
     2
  9
$DIMALTF
 40
25.4
  9
$DIMLFAC
 40
1.0
  9
$DIMTOFL
 70
     0
  9
$DIMTVP
 40
0.0
  9
$DIMTIX
 70
     0
  9
$DIMSOXD
 70
     0
  9
$DIMSAH
 70
     0
  9
$DIMBLK1
  1

  9
$DIMBLK2
  1

  9
$DIMSTYLE
  2
*UNNAMED
  9
$DIMCLRD
 70
     5
  9
$DIMCLRE
 70
     5
  9
$DIMCLRT
 70
     5
  9
$DIMTFAC
 40
1.0
  9
$DIMGAP
 40
0.09
  9
$DIMUNIT
 70
     2
  9
$LUNITS
 70
     2
  9
$LUPREC
 70
     6
  9
$AXISMODE
 70
     0
  9
$AXISUNIT
 10
0.0
 20
0.0
  9
$SKETCHINC
 40
0.1
  9
$FILLETRAD
 40
0.0
  9
$AUNITS
 70
     0
  9
$AUPREC
 70
     0
  9
$MENU
  1
ACAD
  9
$ELEVATION
 40
0.0
  9
$PELEVATION
 40
0.0
  9
$THICKNESS
 40
0.0
  9
$LIMCHECK
 70
     0
  9
$BLIPMODE
 70
     1
  9
$CHAMFERA
 40
0.0
  9
$CHAMFERB
 40
0.0
  9
$SKPOLY
 70
     1
  9
$TDCREATE
 40
2458675.0000000000
  9
$TDUPDATE
 40
2458675.0000000000
  9
$TDINDWG
 40
0.0
  9
$TDUSRTIMER
 40
0.0
  9
$USRTIMER
 70
     1
  9
$ANGBASE
 50
0.0
  9
$ANGDIR
 70
     0
  9
$PDMODE
 70
     0
  9
$PDSIZE
 40
0.0
  9
$PLINEWID
 40
0.0
  9
$COORDS
 70
     2
  9
$SPLFRAME
 70
     0
  9
$SPLINETYPE
 70
     6
  9
$SPLINESEGS
 70
     8
  9
$ATTDIA
 70
     1
  9
$ATTREQ
 70
     1
  9
$HANDLING
 70
     1
  9
$HANDSEED
  5
     571
  9
$SURFTAB1
 70
     6
  9
$SURFTAB2
 70
     6
  9
$SURFTYPE
 70
     6
  9
$SURFU
 70
     6
  9
$SURFV
 70
     6
  9
$UCSNAME
  2

  9
$UCSORG
 10
0.0
 20
0.0
 30
0.0
  9
$UCSXDIR
 10
1.0
 20
0.0
 30
0.0
  9
$UCSYDIR
 10
0.0
 20
1.0
 30
0.0
  9
$PUCSNAME
  2

  9
$PUCSORG
 10
0.0
 20
0.0
 30
0.0
  9
$PUCSXDIR
 10
1.0
 20
0.0
 30
0.0
  9
$PUCSYDIR
 10
0.0
 20
1.0
 30
0.0
  9
$USERI1
 70
     0
  9
$USERI2
 70
     0
  9
$USERI3
 70
     0
  9
$USERI4
 70
     0
  9
$USERI5
 70
     0
  9
$USERR1
 40
0.0
  9
$USERR2
 40
0.0
  9
$USERR3
 40
0.0
  9
$USERR4
 40
0.0
  9
$USERR5
 40
0.0
  9
$WORLDVIEW
 70
     1
  9
$SHADEDGE
 70
     3
  9
$SHADEDIF
 70
    70
  9
$TILEMODE
 70
     1
  9
$MAXACTVP
 70
    16
  9
$PINSBASE
 10
0.0
 20
0.0
 30
0.0
  9
$PLIMCHECK
 70
     0
  9
$PEXTMIN
 10
1.0000000000000E+20
 20
1.0000000000000E+20
 30
1.0000000000000E+20
  9
$PEXTMAX
 10
-1.0000000000000E+20
 20
-1.0000000000000E+20
 30
-1.0000000000000E+20
  9
$PLIMMIN
 10
0.0
 20
0.0
  9
$UNITMODE
 70
     0
  9
$VISRETAIN
 70
     0
  9
$MEASUREMENT
 70
     1
  0
ENDSEC
  0
SECTION
  2
TABLES
  0
TABLE
  2
VPORT
  5
1B2
100
AcDbSymbolTable
 70
     1
  0
ENDTAB
  0
TABLE
  2
STYLE
  5
1B3
100
AcDbSymbolTable
 70
     3
  0
STYLE
  5
1B4
100
AcDbSymbolTableRecord
100
AcDbTextStyleTableRecord
  2
STANDARD
 70
     0
 40
0.0
 41
1.0
 50
0.0
 71
     0
 42
3.5
  3
MONOTXT
  4

  0
STYLE
  5
1B5
100
AcDbSymbolTableRecord
100
AcDbTextStyleTableRecord
  2
SYMAP
 70
     0
 40
0.0
 41
1.0
 50
0.0
 71
     0
 42
3.5
  3
SYMAP
  4

  0
STYLE
  5
1B6
100
AcDbSymbolTableRecord
100
AcDbTextStyleTableRecord
  2
CADWORK1
 70
     0
 40
0.0
 41
1.0
 50
0.0
 71
     0
 42
3.5
  3
MONOTXT
  4

  0
STYLE
  5
1B7
100
AcDbSymbolTableRecord
100
AcDbTextStyleTableRecord
  2
MONOTXT
 70
     0
 40
0.0
 41
1.0
 50
0.0
 71
     0
 42
3.5
  3
MONOTXT
  4

  0
STYLE
  5
1B8
100
AcDbSymbolTableRecord
100
AcDbTextStyleTableRecord
  2
TAHOMA
 70
     0
 40
0.0
 41
1.0
 50
0.0
 71
     0
 42
3.5
  3

  4

1001
ACAD
1000
Tahoma
1071
        0
  0
ENDTAB
  0
TABLE
  2
LTYPE
  5
1B9
100
AcDbSymbolTable
 70
    15
  0
LTYPE
  5
1BA
100
AcDbSymbolTableRecord
100
AcDbLinetypeTableRecord
  2
BYBLOCK
 70
    64
  3

 72
    65
 73
     0
 40
0.0
  0
LTYPE
  5
1BB
100
AcDbSymbolTableRecord
100
AcDbLinetypeTableRecord
  2
BYLAYER
 70
    64
  3

 72
    65
 73
     0
 40
0.0
  0
LTYPE
  5
1BC
100
AcDbSymbolTableRecord
100
AcDbLinetypeTableRecord
  2
CONTINUOUS
 70
    64
  3
Solid line
 72
    65
 73
     0
 40
0.0
  0
LTYPE
  5
1BD
100
AcDbSymbolTableRecord
100
AcDbLinetypeTableRecord
  2
DOT2
 70
    64
  3
...............................................
 72
    65
 73
     2
 40
1.25
 49
0.0
 74
     0
 49
-1.25
 74
     0
  0
LTYPE
  5
1BE
100
AcDbSymbolTableRecord
100
AcDbLinetypeTableRecord
  2
CADWORK_13
 70
    64
  3
13 =======================================
 72
    65
 73
     2
 40
4.0
 49
2.0
 74
     0
 49
-2.0
 74
     0
  0
LTYPE
  5
1BF
100
AcDbSymbolTableRecord
100
AcDbLinetypeTableRecord
  2
DASHED
 70
    64
  3
__ __ __ __ __ __ __ __ __ __ __ __ __ __ __ __
 72
    65
 73
     2
 40
7.5
 49
5.0
 74
     0
 49
-2.5
 74
     0
  0
LTYPE
  5
1C0
100
AcDbSymbolTableRecord
100
AcDbLinetypeTableRecord
  2
DASHDOT
 70
    64
  3
 __ . __ . __ . __ . __ . __ . __ . __ . __ . __
 72
    65
 73
     4
 40
10.0
 49
5.0
 74
     0
 49
-2.5
 74
     0
 49
0.0
 74
     0
 49
-2.5
 74
     0
  0
LTYPE
  5
1C1
100
AcDbSymbolTableRecord
100
AcDbLinetypeTableRecord
  2
CADWORK_16
 70
    64
  3
--´\,----´\,----´\,----´\,----´\,----´\,----´\,--
 72
    65
 73
     5
 40
17.0
 49
2.0
 74
     0
 49
0.0
 74
     2
 75
     0
340
1B4
 46
6.0
 50
170.0
 44
3.01999998
 45
5.57999992
  9
|
 49
-2.0999999
 74
     2
 75
     0
340
1B4
 46
12.0
 50
10.0
 44
-2.9000001
 45
-6.5999999
  9
|
 49
-2.0999999
 74
     2
 75
     0
340
1B4
 46
6.0
 50
170.0
 44
1.96000004
 45
-0.36000001
  9
|
 49
10.80000019
 74
     0
  0
LTYPE
  5
1C2
100
AcDbSymbolTableRecord
100
AcDbLinetypeTableRecord
  2
CADWORK_15
 70
    64
  3
15 =======================================
 72
    65
 73
     0
 40
0.0
  0
LTYPE
  5
1C3
100
AcDbSymbolTableRecord
100
AcDbLinetypeTableRecord
  2
DAL
 70
    64
  3
Solid line (for MAPS)
 72
    65
 73
     0
 40
0.0
  0
LTYPE
  5
1C4
100
AcDbSymbolTableRecord
100
AcDbLinetypeTableRecord
  2
MUR
 70
    64
  3
Solid line (for MAPS)
 72
    65
 73
     0
 40
0.0
  0
LTYPE
  5
1C5
100
AcDbSymbolTableRecord
100
AcDbLinetypeTableRecord
  2
SOM
 70
    64
  3
Solid line (for MAPS)
 72
    65
 73
     0
 40
0.0
  0
LTYPE
  5
1C6
100
AcDbSymbolTableRecord
100
AcDbLinetypeTableRecord
  2
COL
 70
    64
  3
Solid line (for MAPS)
 72
    65
 73
     0
 40
0.0
  0
LTYPE
  5
1C7
100
AcDbSymbolTableRecord
100
AcDbLinetypeTableRecord
  2
LGN
 70
    64
  3
Solid line (for MAPS)
 72
    65
 73
     0
 40
0.0
  0
LTYPE
  5
1C8
100
AcDbSymbolTableRecord
100
AcDbLinetypeTableRecord
  2
PNT
 70
    64
  3
Solid line (for MAPS)
 72
    65
 73
     0
 40
0.0
  0
ENDTAB
  0
TABLE
  2
LAYER
  5
1C9
100
AcDbSymbolTable
 70
    16
  0
LAYER
  5
1CA
100
AcDbSymbolTableRecord
100
AcDbLayerTableRecord
  2
0
 70
     0
 62
     1
  6
CONTINUOUS
370
    -3
  0
LAYER
  5
1CB
100
AcDbSymbolTableRecord
100
AcDbLayerTableRecord
  2
Standard
 70
     0
 62
     7
  6
CONTINUOUS
370
    -3
  0
LAYER
  5
1CC
100
AcDbSymbolTableRecord
100
AcDbLayerTableRecord
  2
Sc.1_1
 70
     0
 62
     7
  6
CONTINUOUS
370
    -3
  0
LAYER
  5
1CD
100
AcDbSymbolTableRecord
100
AcDbLayerTableRecord
  2
Sc.1_2
 70
     0
 62
     7
  6
CONTINUOUS
370
    -3
  0
LAYER
  5
1CE
100
AcDbSymbolTableRecord
100
AcDbLayerTableRecord
  2
Sc.1_5
 70
     0
 62
     7
  6
CONTINUOUS
370
    -3
  0
LAYER
  5
1CF
100
AcDbSymbolTableRecord
100
AcDbLayerTableRecord
  2
Sc.1_10
 70
     0
 62
     7
  6
CONTINUOUS
370
    -3
  0
LAYER
  5
1D0
100
AcDbSymbolTableRecord
100
AcDbLayerTableRecord
  2
Sc.1_20
 70
     0
 62
     7
  6
CONTINUOUS
370
    -3
  0
LAYER
  5
1D1
100
AcDbSymbolTableRecord
100
AcDbLayerTableRecord
  2
Sc.1_25
 70
     0
 62
     7
  6
CONTINUOUS
370
    -3
  0
LAYER
  5
1D2
100
AcDbSymbolTableRecord
100
AcDbLayerTableRecord
  2
Sc.1_33
 70
     0
 62
     7
  6
CONTINUOUS
370
    -3
  0
LAYER
  5
1D3
100
AcDbSymbolTableRecord
100
AcDbLayerTableRecord
  2
Sc.1_50
 70
     0
 62
     7
  6
CONTINUOUS
370
    -3
  0
LAYER
  5
1D4
100
AcDbSymbolTableRecord
100
AcDbLayerTableRecord
  2
Sc.1_75
 70
     0
 62
     7
  6
CONTINUOUS
370
    -3
  0
LAYER
  5
1D5
100
AcDbSymbolTableRecord
100
AcDbLayerTableRecord
  2
Sc.1_100
 70
     0
 62
     7
  6
CONTINUOUS
370
    -3
  0
LAYER
  5
1D6
100
AcDbSymbolTableRecord
100
AcDbLayerTableRecord
  2
Sc.1_200
 70
     0
 62
     7
  6
CONTINUOUS
370
    -3
  0
LAYER
  5
1D7
100
AcDbSymbolTableRecord
100
AcDbLayerTableRecord
  2
Sc.1_500
 70
     0
 62
     7
  6
CONTINUOUS
370
    -3
  0
LAYER
  5
1D8
100
AcDbSymbolTableRecord
100
AcDbLayerTableRecord
  2
Sc.1_1000
 70
     0
 62
     7
  6
CONTINUOUS
370
    -3
  0
LAYER
  5
1D9
100
AcDbSymbolTableRecord
100
AcDbLayerTableRecord
  2
Laser frames
 70
     0
 62
     7
  6
CONTINUOUS
370
    18
  0
LAYER
  5
1DA
100
AcDbSymbolTableRecord
100
AcDbLayerTableRecord
  2
LEGEND
 70
     0
 62
     7
  6
CONTINUOUS
370
    -3
  0
ENDTAB
  0
TABLE
  2
VIEW
  5
1DB
100
AcDbSymbolTable
 70
     0
  0
ENDTAB
  0
TABLE
  2
UCS
  5
1DC
100
AcDbSymbolTable
 70
     0
  0
ENDTAB
  0
TABLE
  2
APPID
  5
1DD
100
AcDbSymbolTable
 70
     1
  0
APPID
  5
1DE
100
AcDbSymbolTableRecord
100
AcDbRegAppTableRecord
  2
ACAD
 70
     0
  0
ENDTAB
  0
TABLE
  2
DIMSTYLE
  5
1DF
100
AcDbSymbolTable
 70
     0
  0
ENDTAB
  0
TABLE
  2
BLOCK_RECORD
  5
1E0
100
AcDbSymbolTable
 70
     0
  0
BLOCK_RECORD
  5
1E1
100
AcDbSymbolTableRecord
100
AcDbBlockTableRecord
  2
*MODEL_SPACE
  0
BLOCK_RECORD
  5
1E2
100
AcDbSymbolTableRecord
100
AcDbBlockTableRecord
  2
*PAPER_SPACE
  0
BLOCK_RECORD
  5
1E3
100
AcDbSymbolTableRecord
100
AcDbBlockTableRecord
  2
CDWK_EXTR_0
  0
BLOCK_RECORD
  5
1E4
100
AcDbSymbolTableRecord
100
AcDbBlockTableRecord
  2
CDWK_EXTR_1D
  0
BLOCK_RECORD
  5
1E5
100
AcDbSymbolTableRecord
100
AcDbBlockTableRecord
  2
CDWK_EXTR_1G
  0
BLOCK_RECORD
  5
1E6
100
AcDbSymbolTableRecord
100
AcDbBlockTableRecord
  2
CDWK_EXTR_2
  0
BLOCK_RECORD
  5
1E7
100
AcDbSymbolTableRecord
100
AcDbBlockTableRecord
  2
CDWK_EXTR_3
  0
BLOCK_RECORD
  5
1E8
100
AcDbSymbolTableRecord
100
AcDbBlockTableRecord
  2
CDWK_EXTR_4
  0
BLOCK_RECORD
  5
1E9
100
AcDbSymbolTableRecord
100
AcDbBlockTableRecord
  2
CDWK_PTTYP0
  0
BLOCK_RECORD
  5
1EA
100
AcDbSymbolTableRecord
100
AcDbBlockTableRecord
  2
*X1654
  0
BLOCK_RECORD
  5
1EB
100
AcDbSymbolTableRecord
100
AcDbBlockTableRecord
  2
*X1655
  0
BLOCK_RECORD
  5
1EC
100
AcDbSymbolTableRecord
100
AcDbBlockTableRecord
  2
*X1656
  0
BLOCK_RECORD
  5
1ED
100
AcDbSymbolTableRecord
100
AcDbBlockTableRecord
  2
*X1657
  0
BLOCK_RECORD
  5
1EE
100
AcDbSymbolTableRecord
100
AcDbBlockTableRecord
  2
*X1659
  0
BLOCK_RECORD
  5
1EF
100
AcDbSymbolTableRecord
100
AcDbBlockTableRecord
  2
*X2010
  0
BLOCK_RECORD
  5
1F0
100
AcDbSymbolTableRecord
100
AcDbBlockTableRecord
  2
*X2238
  0
BLOCK_RECORD
  5
1F1
100
AcDbSymbolTableRecord
100
AcDbBlockTableRecord
  2
*X2239
  0
BLOCK_RECORD
  5
1F2
100
AcDbSymbolTableRecord
100
AcDbBlockTableRecord
  2
*X2242
  0
BLOCK_RECORD
  5
1F3
100
AcDbSymbolTableRecord
100
AcDbBlockTableRecord
  2
*X2300
  0
BLOCK_RECORD
  5
1F4
100
AcDbSymbolTableRecord
100
AcDbBlockTableRecord
  2
*X2301
  0
BLOCK_RECORD
  5
1F5
100
AcDbSymbolTableRecord
100
AcDbBlockTableRecord
  2
*X2302
  0
BLOCK_RECORD
  5
1F6
100
AcDbSymbolTableRecord
100
AcDbBlockTableRecord
  2
*X2303
  0
BLOCK_RECORD
  5
1F7
100
AcDbSymbolTableRecord
100
AcDbBlockTableRecord
  2
*X2525
  0
BLOCK_RECORD
  5
1F8
100
AcDbSymbolTableRecord
100
AcDbBlockTableRecord
  2
*X2630
  0
ENDTAB
  0
ENDSEC
  0
SECTION
  2
BLOCKS
  0
BLOCK
  5
1F9
100
AcDbEntity
  8
0
100
AcDbBlockBegin
  2
*MODEL_SPACE
 70
     0
 10
0.0
 20
0.0
 30
0.0
  3
*MODEL_SPACE
  1

  0
ENDBLK
  5
1FA
100
AcDbEntity
100
AcDbBlockEnd
  0
BLOCK
  5
1FB
100
AcDbEntity
  8
0
100
AcDbBlockBegin
  2
*PAPER_SPACE
 70
     0
 10
0.0
 20
0.0
 30
0.0
  3
*PAPER_SPACE
  1

  0
ENDBLK
  5
1FC
100
AcDbEntity
100
AcDbBlockEnd
  0
BLOCK
  5
1FD
100
AcDbEntity
  8
0
100
AcDbBlockBegin
  2
CDWK_EXTR_0
 70
     0
 10
0.0
 20
0.0
 30
0.0
  3
CDWK_EXTR_0
  1

  4
Cadwork line-extremity
  0
LINE
  5
1FE
100
AcDbEntity
  8
0
 62
     0
370
    -2
100
AcDbLine
 10
0.0
 20
0.0
 30
0.0
 11
2.0
 21
0.5
 31
0.0
  0
LINE
  5
1FF
100
AcDbEntity
  8
0
 62
     0
370
    -2
100
AcDbLine
 10
0.0
 20
0.0
 30
0.0
 11
2.0
 21
-0.5
 31
0.0
  0
LINE
  5
200
100
AcDbEntity
  8
0
 62
     0
370
    -2
100
AcDbLine
 10
2.0
 20
0.5
 30
0.0
 11
2.0
 21
-0.5
 31
0.0
  0
ENDBLK
  5
201
100
AcDbEntity
100
AcDbBlockEnd
  0
BLOCK
  5
202
100
AcDbEntity
  8
0
100
AcDbBlockBegin
  2
CDWK_EXTR_1D
 70
     0
 10
0.0
 20
0.0
 30
0.0
  3
CDWK_EXTR_1D
  1

  4
Cadwork line-extremity
  0
LINE
  5
203
100
AcDbEntity
  8
0
 62
     0
370
    -2
100
AcDbLine
 10
0.0
 20
0.0
 30
0.0
 11
0.0
 21
1.0
 31
0.0
  0
LINE
  5
204
100
AcDbEntity
  8
0
 62
     0
370
    -2
100
AcDbLine
 10
0.0
 20
1.0
 30
0.0
 11
0.5
 21
1.5
 31
0.0
  0
LINE
  5
205
100
AcDbEntity
  8
0
 62
     0
370
    -2
100
AcDbLine
 10
0.5
 20
1.5
 30
0.0
 11
1.5
 21
1.5
 31
0.0
  0
ENDBLK
  5
206
100
AcDbEntity
100
AcDbBlockEnd
  0
BLOCK
  5
207
100
AcDbEntity
  8
0
100
AcDbBlockBegin
  2
CDWK_EXTR_1G
 70
     0
 10
0.0
 20
0.0
 30
0.0
  3
CDWK_EXTR_1G
  1

  4
Cadwork line-extremity
  0
LINE
  5
208
100
AcDbEntity
  8
0
 62
     0
370
    -2
100
AcDbLine
 10
0.0
 20
0.0
 30
0.0
 11
0.0
 21
-1.0
 31
0.0
  0
LINE
  5
209
100
AcDbEntity
  8
0
 62
     0
370
    -2
100
AcDbLine
 10
0.0
 20
-1.0
 30
0.0
 11
0.5
 21
-1.5
 31
0.0
  0
LINE
  5
20A
100
AcDbEntity
  8
0
 62
     0
370
    -2
100
AcDbLine
 10
0.5
 20
-1.5
 30
0.0
 11
1.5
 21
-1.5
 31
0.0
  0
ENDBLK
  5
20B
100
AcDbEntity
100
AcDbBlockEnd
  0
BLOCK
  5
20C
100
AcDbEntity
  8
0
100
AcDbBlockBegin
  2
CDWK_EXTR_2
 70
     0
 10
0.0
 20
0.0
 30
0.0
  3
CDWK_EXTR_2
  1

  4
Cadwork line-extremity
  0
SOLID
  5
20D
100
AcDbEntity
  8
0
 62
     0
100
AcDbTrace
 10
0.0
 20
0.0
 11
2.0
 21
0.5
 12
2.0
 22
-0.5
 13
2.0
 23
-0.5
  0
ENDBLK
  5
20E
100
AcDbEntity
100
AcDbBlockEnd
  0
BLOCK
  5
20F
100
AcDbEntity
  8
0
100
AcDbBlockBegin
  2
CDWK_EXTR_3
 70
     0
 10
0.0
 20
0.0
 30
0.0
  3
CDWK_EXTR_3
  1

  4
Cadwork line-extremity
  0
SOLID
  5
210
100
AcDbEntity
  8
0
 62
     0
100
AcDbTrace
 10
0.0
 20
0.0
 11
2.0
 21
0.5
 12
2.0
 22
-0.5
 13
2.0
 23
-0.5
  0
LINE
  5
211
100
AcDbEntity
  8
0
 62
     0
370
    -2
100
AcDbLine
 10
0.0
 20
1.0
 30
0.0
 11
0.0
 21
-1.0
 31
0.0
  0
ENDBLK
  5
212
100
AcDbEntity
100
AcDbBlockEnd
  0
BLOCK
  5
213
100
AcDbEntity
  8
0
100
AcDbBlockBegin
  2
CDWK_EXTR_4
 70
     0
 10
0.0
 20
0.0
 30
0.0
  3
CDWK_EXTR_4
  1

  4
Cadwork line-extremity
  0
HATCH
  5
214
100
AcDbEntity
  8
0
 62
     0
370
    -2
100
AcDbHatch
 10
0.0
 20
0.0
 30
0.0
210
0.0
220
0.0
230
1.0
  2
SOLID
 70
     1
 71
     0
 91
        1
 92
        1
 93
        1
 72
     2
 10
0.0
 20
0.0
 40
0.5
 50
0.0
 51
360.0
 73
     1
 97
        0
 75
     0
 76
     1
 98
        1
 10
0.0
 20
0.0
  0
ENDBLK
  5
215
100
AcDbEntity
100
AcDbBlockEnd
  0
BLOCK
  5
216
100
AcDbEntity
  8
0
100
AcDbBlockBegin
  2
CDWK_PTTYP0
 70
     0
 10
0.0
 20
0.0
 30
0.0
  3
CDWK_PTTYP0
  1

  4
Cadwork point
  0
POINT
  5
217
100
AcDbEntity
  8
0
 62
     0
100
AcDbPoint
 10
0.0
 20
0.0
 30
0.0
  0
ENDBLK
  5
218
100
AcDbEntity
100
AcDbBlockEnd
  0
BLOCK
  5
219
100
AcDbEntity
  8
Sc.1_5
100
AcDbBlockBegin
  2
*X1654
 70
     1
 10
0.0
 20
0.0
 30
0.0
  3
*X1654
  1

  4
Cadwork hatch
  0
LINE
  5
21A
100
AcDbEntity
  8
Sc.1_5
 62
     9
  6
CONTINUOUS
370
    -2
100
AcDbLine
 10
2248.3730644
 20
-1741.66447231
 30
0.0
 11
2256.16730187
 21
-1737.16442799
 31
0.0
  0
LINE
  5
21B
100
AcDbEntity
  8
Sc.1_5
 62
     9
  6
CONTINUOUS
370
    -2
100
AcDbLine
 10
2258.16726303
 20
-1740.62853353
 30
0.0
 11
2258.16726303
 21
-1740.62853353
 31
0.0
  0
ENDBLK
  5
21C
100
AcDbEntity
100
AcDbBlockEnd
  0
BLOCK
  5
21D
100
AcDbEntity
  8
Sc.1_5
100
AcDbBlockBegin
  2
*X1655
 70
     1
 10
0.0
 20
0.0
 30
0.0
  3
*X1655
  1

  4
Cadwork hatch
  0
LINE
  5
21E
100
AcDbEntity
  8
Sc.1_5
 62
     9
  6
CONTINUOUS
370
    -2
100
AcDbLine
 10
2237.37301458
 20
-1722.61189184
 30
0.0
 11
2245.16725205
 21
-1718.11197922
 31
0.0
  0
LINE
  5
21F
100
AcDbEntity
  8
Sc.1_5
 62
     9
  6
CONTINUOUS
370
    -2
100
AcDbLine
 10
2247.16721321
 20
-1721.57595305
 30
0.0
 11
2247.16721321
 21
-1721.57595305
 31
0.0
  0
ENDBLK
  5
220
100
AcDbEntity
100
AcDbBlockEnd
  0
BLOCK
  5
221
100
AcDbEntity
  8
Sc.1_5
100
AcDbBlockBegin
  2
*X1656
 70
     1
 10
0.0
 20
0.0
 30
0.0
  3
*X1656
  1

  4
Cadwork hatch
  0
LINE
  5
222
100
AcDbEntity
  8
Sc.1_5
 62
     9
  6
CONTINUOUS
370
    -2
100
AcDbLine
 10
2173.99845499
 20
-1784.60462894
 30
0.0
 11
2181.79269246
 21
-1780.10458462
 31
0.0
  0
LINE
  5
223
100
AcDbEntity
  8
Sc.1_5
 62
     9
  6
CONTINUOUS
370
    -2
100
AcDbLine
 10
2183.79265362
 20
-1783.56869016
 30
0.0
 11
2183.79265362
 21
-1783.56869016
 31
0.0
  0
ENDBLK
  5
224
100
AcDbEntity
100
AcDbBlockEnd
  0
BLOCK
  5
225
100
AcDbEntity
  8
Sc.1_5
100
AcDbBlockBegin
  2
*X1657
 70
     1
 10
0.0
 20
0.0
 30
0.0
  3
*X1657
  1

  4
Cadwork hatch
  0
LINE
  5
226
100
AcDbEntity
  8
Sc.1_5
 62
     9
  6
CONTINUOUS
370
    -2
100
AcDbLine
 10
2162.99853689
 20
-1765.55204847
 30
0.0
 11
2170.79277436
 21
-1761.05200414
 31
0.0
  0
LINE
  5
227
100
AcDbEntity
  8
Sc.1_5
 62
     9
  6
CONTINUOUS
370
    -2
100
AcDbLine
 10
2172.79273552
 20
-1764.51610968
 30
0.0
 11
2164.99849805
 21
-1769.01615401
 31
0.0
  0
ENDBLK
  5
228
100
AcDbEntity
100
AcDbBlockEnd
  0
BLOCK
  5
229
100
AcDbEntity
  8
Sc.1_5
100
AcDbBlockBegin
  2
*X1659
 70
     1
 10
0.0
 20
0.0
 30
0.0
  3
*X1659
  1

  4
Cadwork hatch
  0
LINE
  5
22A
100
AcDbEntity
  8
Sc.1_5
 62
     9
  6
CONTINUOUS
370
    -2
100
AcDbLine
 10
2127.85959863
 20
-1790.45844045
 30
0.0
 11
2120.06536116
 21
-1794.95835306
 31
0.0
  0
LINE
  5
22B
100
AcDbEntity
  8
Sc.1_5
 62
     9
  6
CONTINUOUS
370
    -2
100
AcDbLine
 10
2125.85963747
 20
-1786.99433491
 30
0.0
 11
2127.85959863
 21
-1790.45844045
 31
0.0
  0
ENDBLK
  5
22C
100
AcDbEntity
100
AcDbBlockEnd
  0
BLOCK
  5
22D
100
AcDbEntity
  8
Sc.1_5
100
AcDbBlockBegin
  2
*X2010
 70
     1
 10
0.0
 20
0.0
 30
0.0
  3
*X2010
  1

  4
Cadwork hatch
  0
LINE
  5
22E
100
AcDbEntity
  8
Sc.1_5
 62
     9
  6
CONTINUOUS
370
    -2
100
AcDbLine
 10
2168.88422344
 20
-1824.92563201
 30
0.0
 11
2172.88414576
 21
-1832.92560837
 31
0.0
  0
LINE
  5
22F
100
AcDbEntity
  8
Sc.1_5
 62
     9
  6
CONTINUOUS
370
    -2
100
AcDbLine
 10
2172.88414576
 20
-1824.92563201
 30
0.0
 11
2168.88422344
 21
-1832.92560837
 31
0.0
  0
ENDBLK
  5
230
100
AcDbEntity
100
AcDbBlockEnd
  0
BLOCK
  5
231
100
AcDbEntity
  8
Sc.1_5
100
AcDbBlockBegin
  2
*X2238
 70
     1
 10
0.0
 20
0.0
 30
0.0
  3
*X2238
  1

  4
Cadwork hatch
  0
LINE
  5
232
100
AcDbEntity
  8
Sc.1_5
 62
     9
  6
CONTINUOUS
370
    -2
100
AcDbLine
 10
2175.74868444
 20
-1815.92567507
 30
0.0
 11
2203.74866756
 21
-1824.92563201
 31
0.0
  0
LINE
  5
233
100
AcDbEntity
  8
Sc.1_5
 62
     9
  6
CONTINUOUS
370
    -2
100
AcDbLine
 10
2175.74868444
 20
-1824.92563201
 30
0.0
 11
2203.74866756
 21
-1815.92567507
 31
0.0
  0
ENDBLK
  5
234
100
AcDbEntity
100
AcDbBlockEnd
  0
BLOCK
  5
235
100
AcDbEntity
  8
Sc.1_5
100
AcDbBlockBegin
  2
*X2239
 70
     1
 10
0.0
 20
0.0
 30
0.0
  3
*X2239
  1

  4
Cadwork hatch
  0
LINE
  5
236
100
AcDbEntity
  8
Sc.1_5
 62
     9
  6
CONTINUOUS
370
    -2
100
AcDbLine
 10
2175.74868444
 20
-1824.92563201
 30
0.0
 11
2203.74866756
 21
-1833.92558895
 31
0.0
  0
LINE
  5
237
100
AcDbEntity
  8
Sc.1_5
 62
     9
  6
CONTINUOUS
370
    -2
100
AcDbLine
 10
2175.74868444
 20
-1833.92558895
 30
0.0
 11
2203.74866756
 21
-1824.92563201
 31
0.0
  0
ENDBLK
  5
238
100
AcDbEntity
100
AcDbBlockEnd
  0
BLOCK
  5
239
100
AcDbEntity
  8
Sc.1_5
100
AcDbBlockBegin
  2
*X2242
 70
     1
 10
0.0
 20
0.0
 30
0.0
  3
*X2242
  1

  4
Cadwork hatch
  0
LINE
  5
23A
100
AcDbEntity
  8
Sc.1_5
 62
     9
  6
CONTINUOUS
370
    -2
100
AcDbLine
 10
2203.74853867
 20
-1833.92561184
 30
0.0
 11
2203.74853867
 21
-1834.55056119
 31
0.0
  0
LINE
  5
23B
100
AcDbEntity
  8
Sc.1_5
 62
     9
  6
CONTINUOUS
370
    -2
100
AcDbLine
 10
2203.74853867
 20
-1837.96731336
 30
0.0
 11
2203.74853867
 21
-1839.21721206
 31
0.0
  0
LINE
  5
23C
100
AcDbEntity
  8
Sc.1_5
 62
     9
  6
CONTINUOUS
370
    -2
100
AcDbLine
 10
2203.74853867
 20
-1842.63396423
 30
0.0
 11
2203.74853867
 21
-1843.88386293
 31
0.0
  0
LINE
  5
23D
100
AcDbEntity
  8
Sc.1_5
 62
     9
  6
CONTINUOUS
370
    -2
100
AcDbLine
 10
2203.74853867
 20
-1847.3006151
 30
0.0
 11
2203.74853867
 21
-1848.5505138
 31
0.0
  0
LINE
  5
23E
100
AcDbEntity
  8
Sc.1_5
 62
     9
  6
CONTINUOUS
370
    -2
100
AcDbLine
 10
2203.74853867
 20
-1851.96726598
 30
0.0
 11
2203.74853867
 21
-1853.21716467
 31
0.0
  0
LINE
  5
23F
100
AcDbEntity
  8
Sc.1_5
 62
     9
  6
CONTINUOUS
370
    -2
100
AcDbLine
 10
2203.74853867
 20
-1856.63391685
 30
0.0
 11
2203.74853867
 21
-1857.88381555
 31
0.0
  0
LINE
  5
240
100
AcDbEntity
  8
Sc.1_5
 62
     9
  6
CONTINUOUS
370
    -2
100
AcDbLine
 10
2203.74853867
 20
-1861.30056772
 30
0.0
 11
2203.74853867
 21
-1862.55046642
 31
0.0
  0
LINE
  5
241
100
AcDbEntity
  8
Sc.1_5
 62
     9
  6
CONTINUOUS
370
    -2
100
AcDbLine
 10
2203.74853867
 20
-1865.96721859
 30
0.0
 11
2203.74853867
 21
-1867.21711729
 31
0.0
  0
LINE
  5
242
100
AcDbEntity
  8
Sc.1_5
 62
     9
  6
CONTINUOUS
370
    -2
100
AcDbLine
 10
2203.74853867
 20
-1870.63386946
 30
0.0
 11
2203.74853867
 21
-1871.88376816
 31
0.0
  0
LINE
  5
243
100
AcDbEntity
  8
Sc.1_5
 62
     9
  6
CONTINUOUS
370
    -2
100
AcDbLine
 10
2203.74853867
 20
-1875.30052033
 30
0.0
 11
2203.74853867
 21
-1876.43955263
 31
0.0
  0
LINE
  5
244
100
AcDbEntity
  8
Sc.1_5
 62
     9
  6
CONTINUOUS
370
    -2
100
AcDbLine
 10
2179.65799742
 20
-1838.59226263
 30
0.0
 11
2180.41529107
 21
-1838.59226263
 31
0.0
  0
LINE
  5
245
100
AcDbEntity
  8
Sc.1_5
 62
     9
  6
CONTINUOUS
370
    -2
100
AcDbLine
 10
2179.65799742
 20
-1847.92556153
 30
0.0
 11
2180.41529107
 21
-1847.92556153
 31
0.0
  0
LINE
  5
246
100
AcDbEntity
  8
Sc.1_5
 62
     9
  6
CONTINUOUS
370
    -2
100
AcDbLine
 10
2179.65799742
 20
-1857.25886044
 30
0.0
 11
2180.41529107
 21
-1857.25886044
 31
0.0
  0
LINE
  5
247
100
AcDbEntity
  8
Sc.1_5
 62
     9
  6
CONTINUOUS
370
    -2
100
AcDbLine
 10
2179.65799742
 20
-1866.59215934
 30
0.0
 11
2180.41529107
 21
-1866.59215934
 31
0.0
  0
LINE
  5
248
100
AcDbEntity
  8
Sc.1_5
 62
     9
  6
CONTINUOUS
370
    -2
100
AcDbLine
 10
2179.65799742
 20
-1875.92545825
 30
0.0
 11
2180.41529107
 21
-1875.92545825
 31
0.0
  0
LINE
  5
249
100
AcDbEntity
  8
Sc.1_5
 62
     9
  6
CONTINUOUS
370
    -2
100
AcDbLine
 10
2199.08188888
 20
-1833.92561284
 30
0.0
 11
2199.83918253
 21
-1833.92561284
 31
0.0
  0
LINE
  5
24A
100
AcDbEntity
  8
Sc.1_5
 62
     9
  6
CONTINUOUS
370
    -2
100
AcDbLine
 10
2199.08188888
 20
-1843.25891175
 30
0.0
 11
2199.83918253
 21
-1843.25891175
 31
0.0
  0
LINE
  5
24B
100
AcDbEntity
  8
Sc.1_5
 62
     9
  6
CONTINUOUS
370
    -2
100
AcDbLine
 10
2199.08188888
 20
-1852.59221065
 30
0.0
 11
2199.83918253
 21
-1852.59221065
 31
0.0
  0
LINE
  5
24C
100
AcDbEntity
  8
Sc.1_5
 62
     9
  6
CONTINUOUS
370
    -2
100
AcDbLine
 10
2199.08188888
 20
-1861.92550956
 30
0.0
 11
2199.83918253
 21
-1861.92550956
 31
0.0
  0
LINE
  5
24D
100
AcDbEntity
  8
Sc.1_5
 62
     9
  6
CONTINUOUS
370
    -2
100
AcDbLine
 10
2199.08188888
 20
-1871.25880846
 30
0.0
 11
2199.83918253
 21
-1871.25880846
 31
0.0
  0
LINE
  5
24E
100
AcDbEntity
  8
Sc.1_5
 62
     9
  6
CONTINUOUS
370
    -2
100
AcDbLine
 10
2181.41648802
 20
-1838.48154702
 30
0.0
 11
2198.08099014
 21
-1834.03735348
 31
0.0
  0
LINE
  5
24F
100
AcDbEntity
  8
Sc.1_5
 62
     9
  6
CONTINUOUS
370
    -2
100
AcDbLine
 10
2181.41647201
 20
-1847.81484402
 30
0.0
 11
2198.08097413
 21
-1843.37065048
 31
0.0
  0
LINE
  5
250
100
AcDbEntity
  8
Sc.1_5
 62
     9
  6
CONTINUOUS
370
    -2
100
AcDbLine
 10
2181.416456
 20
-1857.14814103
 30
0.0
 11
2198.08095813
 21
-1852.70394749
 31
0.0
  0
LINE
  5
251
100
AcDbEntity
  8
Sc.1_5
 62
     9
  6
CONTINUOUS
370
    -2
100
AcDbLine
 10
2181.41643999
 20
-1866.48143804
 30
0.0
 11
2198.08094212
 21
-1862.0372445
 31
0.0
  0
LINE
  5
252
100
AcDbEntity
  8
Sc.1_5
 62
     9
  6
CONTINUOUS
370
    -2
100
AcDbLine
 10
2181.41642399
 20
-1875.81473504
 30
0.0
 11
2198.08092611
 21
-1871.3705415
 31
0.0
  0
LINE
  5
253
100
AcDbEntity
  8
Sc.1_5
 62
     9
  6
CONTINUOUS
370
    -2
100
AcDbLine
 10
2181.41648802
 20
-1838.70297557
 30
0.0
 11
2198.08099014
 21
-1843.14716911
 31
0.0
  0
LINE
  5
254
100
AcDbEntity
  8
Sc.1_5
 62
     9
  6
CONTINUOUS
370
    -2
100
AcDbLine
 10
2181.41650402
 20
-1848.03627257
 30
0.0
 11
2198.08100615
 21
-1852.48046611
 31
0.0
  0
LINE
  5
255
100
AcDbEntity
  8
Sc.1_5
 62
     9
  6
CONTINUOUS
370
    -2
100
AcDbLine
 10
2181.41652003
 20
-1857.36956958
 30
0.0
 11
2198.08102215
 21
-1861.81376312
 31
0.0
  0
LINE
  5
256
100
AcDbEntity
  8
Sc.1_5
 62
     9
  6
CONTINUOUS
370
    -2
100
AcDbLine
 10
2181.41653604
 20
-1866.70286658
 30
0.0
 11
2198.08103816
 21
-1871.14706013
 31
0.0
  0
LINE
  5
257
100
AcDbEntity
  8
Sc.1_5
 62
     9
  6
CONTINUOUS
370
    -2
100
AcDbLine
 10
2181.41655204
 20
-1876.03616359
 30
0.0
 11
2182.92914988
 21
-1876.43955263
 31
0.0
  0
LINE
  5
258
100
AcDbEntity
  8
Sc.1_5
 62
     9
  6
CONTINUOUS
370
    -2
100
AcDbLine
 10
2175.74863936
 20
-1834.55055927
 30
0.0
 11
2176.08240329
 21
-1835.77436031
 31
0.0
  0
LINE
  5
259
100
AcDbEntity
  8
Sc.1_5
 62
     9
  6
CONTINUOUS
370
    -2
100
AcDbLine
 10
2175.74863936
 20
-1843.8838588
 30
0.0
 11
2176.08240304
 21
-1845.10765893
 31
0.0
  0
LINE
  5
25A
100
AcDbEntity
  8
Sc.1_5
 62
     9
  6
CONTINUOUS
370
    -2
100
AcDbLine
 10
2175.74863936
 20
-1853.21715833
 30
0.0
 11
2176.08240279
 21
-1854.44095754
 31
0.0
  0
LINE
  5
25B
100
AcDbEntity
  8
Sc.1_5
 62
     9
  6
CONTINUOUS
370
    -2
100
AcDbLine
 10
2175.74863936
 20
-1862.55045786
 30
0.0
 11
2176.08240254
 21
-1863.77425615
 31
0.0
  0
LINE
  5
25C
100
AcDbEntity
  8
Sc.1_5
 62
     9
  6
CONTINUOUS
370
    -2
100
AcDbLine
 10
2175.74863936
 20
-1871.88375739
 30
0.0
 11
2176.08240229
 21
-1873.10755477
 31
0.0
  0
LINE
  5
25D
100
AcDbEntity
  8
Sc.1_5
 62
     9
  6
CONTINUOUS
370
    -2
100
AcDbLine
 10
2175.74863936
 20
-1842.63397223
 30
0.0
 11
2176.08240462
 21
-1841.41016566
 31
0.0
  0
LINE
  5
25E
100
AcDbEntity
  8
Sc.1_5
 62
     9
  6
CONTINUOUS
370
    -2
100
AcDbLine
 10
2175.74863936
 20
-1851.96727632
 30
0.0
 11
2176.08240612
 21
-1850.74346427
 31
0.0
  0
LINE
  5
25F
100
AcDbEntity
  8
Sc.1_5
 62
     9
  6
CONTINUOUS
370
    -2
100
AcDbLine
 10
2175.74864064
 20
-1861.30057568
 30
0.0
 11
2176.08240761
 21
-1860.07676289
 31
0.0
  0
LINE
  5
260
100
AcDbEntity
  8
Sc.1_5
 62
     9
  6
CONTINUOUS
370
    -2
100
AcDbLine
 10
2175.74864214
 20
-1870.63387429
 30
0.0
 11
2176.0824091
 21
-1869.4100615
 31
0.0
  0
LINE
  5
261
100
AcDbEntity
  8
Sc.1_5
 62
     9
  6
CONTINUOUS
370
    -2
100
AcDbLine
 10
2203.41476943
 20
-1836.7434857
 30
0.0
 11
2203.74853656
 21
-1837.96729845
 31
0.0
  0
LINE
  5
262
100
AcDbEntity
  8
Sc.1_5
 62
     9
  6
CONTINUOUS
370
    -2
100
AcDbLine
 10
2203.41476918
 20
-1846.07678431
 30
0.0
 11
2203.74853631
 21
-1847.30059706
 31
0.0
  0
LINE
  5
263
100
AcDbEntity
  8
Sc.1_5
 62
     9
  6
CONTINUOUS
370
    -2
100
AcDbLine
 10
2203.41476893
 20
-1855.41008292
 30
0.0
 11
2203.74853606
 21
-1856.63389567
 31
0.0
  0
LINE
  5
264
100
AcDbEntity
  8
Sc.1_5
 62
     9
  6
CONTINUOUS
370
    -2
100
AcDbLine
 10
2203.41476868
 20
-1864.74338153
 30
0.0
 11
2203.74853581
 21
-1865.96719428
 31
0.0
  0
LINE
  5
265
100
AcDbEntity
  8
Sc.1_5
 62
     9
  6
CONTINUOUS
370
    -2
100
AcDbLine
 10
2203.41476843
 20
-1874.07668015
 30
0.0
 11
2203.74853556
 21
-1875.3004929
 31
0.0
  0
LINE
  5
266
100
AcDbEntity
  8
Sc.1_5
 62
     9
  6
CONTINUOUS
370
    -2
100
AcDbLine
 10
2203.7485363
 20
-1867.21711873
 30
0.0
 11
2203.41476918
 21
-1868.44093148
 31
0.0
  0
LINE
  5
267
100
AcDbEntity
  8
Sc.1_5
 62
     9
  6
CONTINUOUS
370
    -2
100
AcDbLine
 10
2203.74853605
 20
-1857.88382011
 30
0.0
 11
2203.41476892
 21
-1859.10763286
 31
0.0
  0
LINE
  5
268
100
AcDbEntity
  8
Sc.1_5
 62
     9
  6
CONTINUOUS
370
    -2
100
AcDbLine
 10
2203.7485358
 20
-1848.5505215
 30
0.0
 11
2203.41476867
 21
-1849.77433425
 31
0.0
  0
LINE
  5
269
100
AcDbEntity
  8
Sc.1_5
 62
     9
  6
CONTINUOUS
370
    -2
100
AcDbLine
 10
2203.74853555
 20
-1839.21722289
 30
0.0
 11
2203.41476842
 21
-1840.44103564
 31
0.0
  0
LINE
  5
26A
100
AcDbEntity
  8
Sc.1_5
 62
     9
  6
CONTINUOUS
370
    -2
100
AcDbLine
 10
2176.08240912
 20
-1835.77437836
 30
0.0
 11
2176.7094041
 21
-1836.81937
 31
0.0
  0
LINE
  5
26B
100
AcDbEntity
  8
Sc.1_5
 62
     9
  6
CONTINUOUS
370
    -2
100
AcDbLine
 10
2176.08240918
 20
-1845.10767888
 30
0.0
 11
2176.70940417
 21
-1846.15267051
 31
0.0
  0
LINE
  5
26C
100
AcDbEntity
  8
Sc.1_5
 62
     9
  6
CONTINUOUS
370
    -2
100
AcDbLine
 10
2176.08240925
 20
-1854.4409794
 30
0.0
 11
2176.70940423
 21
-1855.48597103
 31
0.0
  0
LINE
  5
26D
100
AcDbEntity
  8
Sc.1_5
 62
     9
  6
CONTINUOUS
370
    -2
100
AcDbLine
 10
2176.08240931
 20
-1863.77427991
 30
0.0
 11
2176.70940429
 21
-1864.81927155
 31
0.0
  0
LINE
  5
26E
100
AcDbEntity
  8
Sc.1_5
 62
     9
  6
CONTINUOUS
370
    -2
100
AcDbLine
 10
2176.08240937
 20
-1873.10758043
 30
0.0
 11
2176.70940435
 21
-1874.15257207
 31
0.0
  0
LINE
  5
26F
100
AcDbEntity
  8
Sc.1_5
 62
     9
  6
CONTINUOUS
370
    -2
100
AcDbLine
 10
2176.08240844
 20
-1841.4032393
 30
0.0
 11
2176.70940349
 21
-1840.35824771
 31
0.0
  0
LINE
  5
270
100
AcDbEntity
  8
Sc.1_5
 62
     9
  6
CONTINUOUS
370
    -2
100
AcDbLine
 10
2176.08240775
 20
-1850.73653982
 30
0.0
 11
2176.70940281
 21
-1849.69154822
 31
0.0
  0
LINE
  5
271
100
AcDbEntity
  8
Sc.1_5
 62
     9
  6
CONTINUOUS
370
    -2
100
AcDbLine
 10
2176.08240707
 20
-1860.06984034
 30
0.0
 11
2176.70940212
 21
-1859.02484874
 31
0.0
  0
LINE
  5
272
100
AcDbEntity
  8
Sc.1_5
 62
     9
  6
CONTINUOUS
370
    -2
100
AcDbLine
 10
2176.08240639
 20
-1869.40314086
 30
0.0
 11
2176.70940144
 21
-1868.35814926
 31
0.0
  0
LINE
  5
273
100
AcDbEntity
  8
Sc.1_5
 62
     9
  6
CONTINUOUS
370
    -2
100
AcDbLine
 10
2202.78777777
 20
-1835.69851541
 30
0.0
 11
2203.41477276
 21
-1836.74350705
 31
0.0
  0
LINE
  5
274
100
AcDbEntity
  8
Sc.1_5
 62
     9
  6
CONTINUOUS
370
    -2
100
AcDbLine
 10
2202.78777784
 20
-1845.03181593
 30
0.0
 11
2203.41477282
 21
-1846.07680757
 31
0.0
  0
LINE
  5
275
100
AcDbEntity
  8
Sc.1_5
 62
     9
  6
CONTINUOUS
370
    -2
100
AcDbLine
 10
2202.7877779
 20
-1854.36511645
 30
0.0
 11
2203.41477288
 21
-1855.41010809
 31
0.0
  0
LINE
  5
276
100
AcDbEntity
  8
Sc.1_5
 62
     9
  6
CONTINUOUS
370
    -2
100
AcDbLine
 10
2202.78777796
 20
-1863.69841697
 30
0.0
 11
2203.41477294
 21
-1864.74340861
 31
0.0
  0
LINE
  5
277
100
AcDbEntity
  8
Sc.1_5
 62
     9
  6
CONTINUOUS
370
    -2
100
AcDbLine
 10
2202.78777802
 20
-1873.03171749
 30
0.0
 11
2203.41477301
 21
-1874.07670912
 31
0.0
  0
LINE
  5
278
100
AcDbEntity
  8
Sc.1_5
 62
     9
  6
CONTINUOUS
370
    -2
100
AcDbLine
 10
2203.414775
 20
-1868.44091894
 30
0.0
 11
2202.78778002
 21
-1869.48591058
 31
0.0
  0
LINE
  5
279
100
AcDbEntity
  8
Sc.1_5
 62
     9
  6
CONTINUOUS
370
    -2
100
AcDbLine
 10
2203.41477506
 20
-1859.10761842
 30
0.0
 11
2202.78778008
 21
-1860.15261006
 31
0.0
  0
LINE
  5
27A
100
AcDbEntity
  8
Sc.1_5
 62
     9
  6
CONTINUOUS
370
    -2
100
AcDbLine
 10
2203.41477512
 20
-1849.7743179
 30
0.0
 11
2202.78778014
 21
-1850.81930954
 31
0.0
  0
LINE
  5
27B
100
AcDbEntity
  8
Sc.1_5
 62
     9
  6
CONTINUOUS
370
    -2
100
AcDbLine
 10
2203.41477519
 20
-1840.44101738
 30
0.0
 11
2202.7877802
 21
-1841.48600902
 31
0.0
  0
LINE
  5
27C
100
AcDbEntity
  8
Sc.1_5
 62
     9
  6
CONTINUOUS
370
    -2
100
AcDbLine
 10
2176.70940294
 20
-1836.81936628
 30
0.0
 11
2177.44221832
 21
-1837.55218166
 31
0.0
  0
LINE
  5
27D
100
AcDbEntity
  8
Sc.1_5
 62
     9
  6
CONTINUOUS
370
    -2
100
AcDbLine
 10
2176.70940294
 20
-1846.15266764
 30
0.0
 11
2177.44221832
 21
-1846.88548302
 31
0.0
  0
LINE
  5
27E
100
AcDbEntity
  8
Sc.1_5
 62
     9
  6
CONTINUOUS
370
    -2
100
AcDbLine
 10
2176.70940294
 20
-1855.48596901
 30
0.0
 11
2177.44221832
 21
-1856.21878439
 31
0.0
  0
LINE
  5
27F
100
AcDbEntity
  8
Sc.1_5
 62
     9
  6
CONTINUOUS
370
    -2
100
AcDbLine
 10
2176.70940294
 20
-1864.81927038
 30
0.0
 11
2177.44221832
 21
-1865.55208576
 31
0.0
  0
LINE
  5
280
100
AcDbEntity
  8
Sc.1_5
 62
     9
  6
CONTINUOUS
370
    -2
100
AcDbLine
 10
2176.70940294
 20
-1874.15257175
 30
0.0
 11
2177.44221832
 21
-1874.88538712
 31
0.0
  0
LINE
  5
281
100
AcDbEntity
  8
Sc.1_5
 62
     9
  6
CONTINUOUS
370
    -2
100
AcDbLine
 10
2176.70940294
 20
-1840.36515877
 30
0.0
 11
2177.44221832
 21
-1839.63234339
 31
0.0
  0
LINE
  5
282
100
AcDbEntity
  8
Sc.1_5
 62
     9
  6
CONTINUOUS
370
    -2
100
AcDbLine
 10
2176.70940294
 20
-1849.69846013
 30
0.0
 11
2177.44221832
 21
-1848.96564476
 31
0.0
  0
LINE
  5
283
100
AcDbEntity
  8
Sc.1_5
 62
     9
  6
CONTINUOUS
370
    -2
100
AcDbLine
 10
2176.70940294
 20
-1859.0317615
 30
0.0
 11
2177.44221832
 21
-1858.29894612
 31
0.0
  0
LINE
  5
284
100
AcDbEntity
  8
Sc.1_5
 62
     9
  6
CONTINUOUS
370
    -2
100
AcDbLine
 10
2176.70940294
 20
-1868.36506287
 30
0.0
 11
2177.44221832
 21
-1867.63224749
 31
0.0
  0
LINE
  5
285
100
AcDbEntity
  8
Sc.1_5
 62
     9
  6
CONTINUOUS
370
    -2
100
AcDbLine
 10
2202.0549629
 20
-1834.96570009
 30
0.0
 11
2202.78777827
 21
-1835.69851547
 31
0.0
  0
LINE
  5
286
100
AcDbEntity
  8
Sc.1_5
 62
     9
  6
CONTINUOUS
370
    -2
100
AcDbLine
 10
2202.0549629
 20
-1844.29900146
 30
0.0
 11
2202.78777827
 21
-1845.03181683
 31
0.0
  0
LINE
  5
287
100
AcDbEntity
  8
Sc.1_5
 62
     9
  6
CONTINUOUS
370
    -2
100
AcDbLine
 10
2202.0549629
 20
-1853.63230282
 30
0.0
 11
2202.78777827
 21
-1854.3651182
 31
0.0
  0
LINE
  5
288
100
AcDbEntity
  8
Sc.1_5
 62
     9
  6
CONTINUOUS
370
    -2
100
AcDbLine
 10
2202.0549629
 20
-1862.96560419
 30
0.0
 11
2202.78777827
 21
-1863.69841957
 31
0.0
  0
LINE
  5
289
100
AcDbEntity
  8
Sc.1_5
 62
     9
  6
CONTINUOUS
370
    -2
100
AcDbLine
 10
2202.0549629
 20
-1872.29890556
 30
0.0
 11
2202.78777827
 21
-1873.03172093
 31
0.0
  0
LINE
  5
28A
100
AcDbEntity
  8
Sc.1_5
 62
     9
  6
CONTINUOUS
370
    -2
100
AcDbLine
 10
2202.78777543
 20
-1869.48591348
 30
0.0
 11
2202.05496006
 21
-1870.21872885
 31
0.0
  0
LINE
  5
28B
100
AcDbEntity
  8
Sc.1_5
 62
     9
  6
CONTINUOUS
370
    -2
100
AcDbLine
 10
2202.78777543
 20
-1860.15261211
 30
0.0
 11
2202.05496006
 21
-1860.88542749
 31
0.0
  0
LINE
  5
28C
100
AcDbEntity
  8
Sc.1_5
 62
     9
  6
CONTINUOUS
370
    -2
100
AcDbLine
 10
2202.78777543
 20
-1850.81931074
 30
0.0
 11
2202.05496006
 21
-1851.55212612
 31
0.0
  0
LINE
  5
28D
100
AcDbEntity
  8
Sc.1_5
 62
     9
  6
CONTINUOUS
370
    -2
100
AcDbLine
 10
2202.78777543
 20
-1841.48600937
 30
0.0
 11
2202.05496006
 21
-1842.21882475
 31
0.0
  0
LINE
  5
28E
100
AcDbEntity
  8
Sc.1_5
 62
     9
  6
CONTINUOUS
370
    -2
100
AcDbLine
 10
2177.44222014
 20
-1837.55218026
 30
0.0
 11
2178.34668987
 21
-1838.15516007
 31
0.0
  0
LINE
  5
28F
100
AcDbEntity
  8
Sc.1_5
 62
     9
  6
CONTINUOUS
370
    -2
100
AcDbLine
 10
2177.44222119
 20
-1846.88548052
 30
0.0
 11
2178.34669093
 21
-1847.48846034
 31
0.0
  0
LINE
  5
290
100
AcDbEntity
  8
Sc.1_5
 62
     9
  6
CONTINUOUS
370
    -2
100
AcDbLine
 10
2177.44222225
 20
-1856.21878079
 30
0.0
 11
2178.34669198
 21
-1856.8217606
 31
0.0
  0
LINE
  5
291
100
AcDbEntity
  8
Sc.1_5
 62
     9
  6
CONTINUOUS
370
    -2
100
AcDbLine
 10
2177.44222331
 20
-1865.55208106
 30
0.0
 11
2178.34669304
 21
-1866.15506087
 31
0.0
  0
LINE
  5
292
100
AcDbEntity
  8
Sc.1_5
 62
     9
  6
CONTINUOUS
370
    -2
100
AcDbLine
 10
2177.44222436
 20
-1874.88538132
 30
0.0
 11
2178.3466941
 21
-1875.48836114
 31
0.0
  0
LINE
  5
293
100
AcDbEntity
  8
Sc.1_5
 62
     9
  6
CONTINUOUS
370
    -2
100
AcDbLine
 10
2177.44221846
 20
-1839.63234183
 30
0.0
 11
2178.34668823
 21
-1839.02936207
 31
0.0
  0
LINE
  5
294
100
AcDbEntity
  8
Sc.1_5
 62
     9
  6
CONTINUOUS
370
    -2
100
AcDbLine
 10
2177.44221678
 20
-1848.96564209
 30
0.0
 11
2178.34668655
 21
-1848.36266234
 31
0.0
  0
LINE
  5
295
100
AcDbEntity
  8
Sc.1_5
 62
     9
  6
CONTINUOUS
370
    -2
100
AcDbLine
 10
2177.4422151
 20
-1858.29894236
 30
0.0
 11
2178.34668488
 21
-1857.6959626
 31
0.0
  0
LINE
  5
296
100
AcDbEntity
  8
Sc.1_5
 62
     9
  6
CONTINUOUS
370
    -2
100
AcDbLine
 10
2177.44221343
 20
-1867.63224263
 30
0.0
 11
2178.3466832
 21
-1867.02926287
 31
0.0
  0
LINE
  5
297
100
AcDbEntity
  8
Sc.1_5
 62
     9
  6
CONTINUOUS
370
    -2
100
AcDbLine
 10
2178.23119726
 20
-1876.43955263
 30
0.0
 11
2178.34668152
 21
-1876.36256314
 31
0.0
  0
LINE
  5
298
100
AcDbEntity
  8
Sc.1_5
 62
     9
  6
CONTINUOUS
370
    -2
100
AcDbLine
 10
2201.15049533
 20
-1834.36271726
 30
0.0
 11
2202.05496506
 21
-1834.96569708
 31
0.0
  0
LINE
  5
299
100
AcDbEntity
  8
Sc.1_5
 62
     9
  6
CONTINUOUS
370
    -2
100
AcDbLine
 10
2201.15049639
 20
-1843.69601753
 30
0.0
 11
2202.05496612
 21
-1844.29899735
 31
0.0
  0
LINE
  5
29A
100
AcDbEntity
  8
Sc.1_5
 62
     9
  6
CONTINUOUS
370
    -2
100
AcDbLine
 10
2201.15049744
 20
-1853.0293178
 30
0.0
 11
2202.05496718
 21
-1853.63229761
 31
0.0
  0
LINE
  5
29B
100
AcDbEntity
  8
Sc.1_5
 62
     9
  6
CONTINUOUS
370
    -2
100
AcDbLine
 10
2201.1504985
 20
-1862.36261806
 30
0.0
 11
2202.05496823
 21
-1862.96559788
 31
0.0
  0
LINE
  5
29C
100
AcDbEntity
  8
Sc.1_5
 62
     9
  6
CONTINUOUS
370
    -2
100
AcDbLine
 10
2201.15049956
 20
-1871.69591833
 30
0.0
 11
2202.05496929
 21
-1872.29889815
 31
0.0
  0
LINE
  5
29D
100
AcDbEntity
  8
Sc.1_5
 62
     9
  6
CONTINUOUS
370
    -2
100
AcDbLine
 10
2202.05496355
 20
-1870.21872828
 30
0.0
 11
2201.15049382
 21
-1870.8217081
 31
0.0
  0
LINE
  5
29E
100
AcDbEntity
  8
Sc.1_5
 62
     9
  6
CONTINUOUS
370
    -2
100
AcDbLine
 10
2202.05496461
 20
-1860.88542801
 30
0.0
 11
2201.15049488
 21
-1861.48840783
 31
0.0
  0
LINE
  5
29F
100
AcDbEntity
  8
Sc.1_5
 62
     9
  6
CONTINUOUS
370
    -2
100
AcDbLine
 10
2202.05496566
 20
-1851.55212775
 30
0.0
 11
2201.15049593
 21
-1852.15510756
 31
0.0
  0
LINE
  5
2A0
100
AcDbEntity
  8
Sc.1_5
 62
     9
  6
CONTINUOUS
370
    -2
100
AcDbLine
 10
2202.05496672
 20
-1842.21882748
 30
0.0
 11
2201.15049699
 21
-1842.8218073
 31
0.0
  0
LINE
  5
2A1
100
AcDbEntity
  8
Sc.1_5
 62
     9
  6
CONTINUOUS
370
    -2
100
AcDbLine
 10
2178.34668625
 20
-1838.15515833
 30
0.0
 11
2179.65799712
 21
-1838.59226203
 31
0.0
  0
LINE
  5
2A2
100
AcDbEntity
  8
Sc.1_5
 62
     9
  6
CONTINUOUS
370
    -2
100
AcDbLine
 10
2178.34668672
 20
-1847.48845926
 30
0.0
 11
2179.65799759
 21
-1847.92556296
 31
0.0
  0
LINE
  5
2A3
100
AcDbEntity
  8
Sc.1_5
 62
     9
  6
CONTINUOUS
370
    -2
100
AcDbLine
 10
2178.34668719
 20
-1856.82176019
 30
0.0
 11
2179.65799806
 21
-1857.25886389
 31
0.0
  0
LINE
  5
2A4
100
AcDbEntity
  8
Sc.1_5
 62
     9
  6
CONTINUOUS
370
    -2
100
AcDbLine
 10
2178.34668766
 20
-1866.15506112
 30
0.0
 11
2179.65799852
 21
-1866.59216482
 31
0.0
  0
LINE
  5
2A5
100
AcDbEntity
  8
Sc.1_5
 62
     9
  6
CONTINUOUS
370
    -2
100
AcDbLine
 10
2178.34668813
 20
-1875.48836205
 30
0.0
 11
2179.65799899
 21
-1875.92546575
 31
0.0
  0
LINE
  5
2A6
100
AcDbEntity
  8
Sc.1_5
 62
     9
  6
CONTINUOUS
370
    -2
100
AcDbLine
 10
2178.34668579
 20
-1839.02936627
 30
0.0
 11
2179.65799665
 21
-1838.59226258
 31
0.0
  0
LINE
  5
2A7
100
AcDbEntity
  8
Sc.1_5
 62
     9
  6
CONTINUOUS
370
    -2
100
AcDbLine
 10
2178.34668532
 20
-1848.3626672
 30
0.0
 11
2179.65799618
 21
-1847.92556351
 31
0.0
  0
LINE
  5
2A8
100
AcDbEntity
  8
Sc.1_5
 62
     9
  6
CONTINUOUS
370
    -2
100
AcDbLine
 10
2178.34668485
 20
-1857.69596813
 30
0.0
 11
2179.65799572
 21
-1857.25886444
 31
0.0
  0
LINE
  5
2A9
100
AcDbEntity
  8
Sc.1_5
 62
     9
  6
CONTINUOUS
370
    -2
100
AcDbLine
 10
2178.34668438
 20
-1867.02926906
 30
0.0
 11
2179.65799525
 21
-1866.59216537
 31
0.0
  0
LINE
  5
2AA
100
AcDbEntity
  8
Sc.1_5
 62
     9
  6
CONTINUOUS
370
    -2
100
AcDbLine
 10
2178.34668392
 20
-1876.36256999
 30
0.0
 11
2179.65799478
 21
-1875.9254663
 31
0.0
  0
LINE
  5
2AB
100
AcDbEntity
  8
Sc.1_5
 62
     9
  6
CONTINUOUS
370
    -2
100
AcDbLine
 10
2199.83918442
 20
-1833.92561184
 30
0.0
 11
2201.15049308
 21
-1834.3627148
 31
0.0
  0
LINE
  5
2AC
100
AcDbEntity
  8
Sc.1_5
 62
     9
  6
CONTINUOUS
370
    -2
100
AcDbLine
 10
2199.83918268
 20
-1843.25891204
 30
0.0
 11
2201.15049355
 21
-1843.69601573
 31
0.0
  0
LINE
  5
2AD
100
AcDbEntity
  8
Sc.1_5
 62
     9
  6
CONTINUOUS
370
    -2
100
AcDbLine
 10
2199.83918315
 20
-1852.59221296
 30
0.0
 11
2201.15049402
 21
-1853.02931666
 31
0.0
  0
LINE
  5
2AE
100
AcDbEntity
  8
Sc.1_5
 62
     9
  6
CONTINUOUS
370
    -2
100
AcDbLine
 10
2199.83918362
 20
-1861.92551389
 30
0.0
 11
2201.15049448
 21
-1862.36261759
 31
0.0
  0
LINE
  5
2AF
100
AcDbEntity
  8
Sc.1_5
 62
     9
  6
CONTINUOUS
370
    -2
100
AcDbLine
 10
2199.83918409
 20
-1871.25881482
 30
0.0
 11
2201.15049495
 21
-1871.69591852
 31
0.0
  0
LINE
  5
2B0
100
AcDbEntity
  8
Sc.1_5
 62
     9
  6
CONTINUOUS
370
    -2
100
AcDbLine
 10
2201.15049049
 20
-1870.82171037
 30
0.0
 11
2199.83917963
 21
-1871.25881407
 31
0.0
  0
LINE
  5
2B1
100
AcDbEntity
  8
Sc.1_5
 62
     9
  6
CONTINUOUS
370
    -2
100
AcDbLine
 10
2201.15049096
 20
-1861.48840944
 30
0.0
 11
2199.83918009
 21
-1861.92551314
 31
0.0
  0
LINE
  5
2B2
100
AcDbEntity
  8
Sc.1_5
 62
     9
  6
CONTINUOUS
370
    -2
100
AcDbLine
 10
2201.15049143
 20
-1852.15510851
 30
0.0
 11
2199.83918056
 21
-1852.59221221
 31
0.0
  0
LINE
  5
2B3
100
AcDbEntity
  8
Sc.1_5
 62
     9
  6
CONTINUOUS
370
    -2
100
AcDbLine
 10
2201.1504919
 20
-1842.82180758
 30
0.0
 11
2199.83918103
 21
-1843.25891128
 31
0.0
  0
LINE
  5
2B4
100
AcDbEntity
  8
Sc.1_5
 62
     9
  6
CONTINUOUS
370
    -2
100
AcDbLine
 10
2180.41530409
 20
-1838.59226141
 30
0.0
 11
2181.41635333
 21
-1838.70348916
 31
0.0
  0
LINE
  5
2B5
100
AcDbEntity
  8
Sc.1_5
 62
     9
  6
CONTINUOUS
370
    -2
100
AcDbLine
 10
2180.4153155
 20
-1847.92556068
 30
0.0
 11
2181.41636473
 21
-1848.03678843
 31
0.0
  0
LINE
  5
2B6
100
AcDbEntity
  8
Sc.1_5
 62
     9
  6
CONTINUOUS
370
    -2
100
AcDbLine
 10
2180.4153269
 20
-1857.25885995
 30
0.0
 11
2181.41637614
 21
-1857.3700877
 31
0.0
  0
LINE
  5
2B7
100
AcDbEntity
  8
Sc.1_5
 62
     9
  6
CONTINUOUS
370
    -2
100
AcDbLine
 10
2180.41533831
 20
-1866.59215923
 30
0.0
 11
2181.41638755
 21
-1866.70338697
 31
0.0
  0
LINE
  5
2B8
100
AcDbEntity
  8
Sc.1_5
 62
     9
  6
CONTINUOUS
370
    -2
100
AcDbLine
 10
2180.41534972
 20
-1875.9254585
 30
0.0
 11
2181.41639895
 21
-1876.03668624
 31
0.0
  0
LINE
  5
2B9
100
AcDbEntity
  8
Sc.1_5
 62
     9
  6
CONTINUOUS
370
    -2
100
AcDbLine
 10
2180.41529269
 20
-1838.59226154
 30
0.0
 11
2181.41634192
 21
-1838.48103379
 31
0.0
  0
LINE
  5
2BA
100
AcDbEntity
  8
Sc.1_5
 62
     9
  6
CONTINUOUS
370
    -2
100
AcDbLine
 10
2180.41528128
 20
-1847.92556081
 30
0.0
 11
2181.41633052
 21
-1847.81433307
 31
0.0
  0
LINE
  5
2BB
100
AcDbEntity
  8
Sc.1_5
 62
     9
  6
CONTINUOUS
370
    -2
100
AcDbLine
 10
2180.41526987
 20
-1857.25886008
 30
0.0
 11
2181.41631911
 21
-1857.14763234
 31
0.0
  0
LINE
  5
2BC
100
AcDbEntity
  8
Sc.1_5
 62
     9
  6
CONTINUOUS
370
    -2
100
AcDbLine
 10
2180.41525847
 20
-1866.59215936
 30
0.0
 11
2181.41630771
 21
-1866.48093161
 31
0.0
  0
LINE
  5
2BD
100
AcDbEntity
  8
Sc.1_5
 62
     9
  6
CONTINUOUS
370
    -2
100
AcDbLine
 10
2180.41524706
 20
-1875.92545863
 30
0.0
 11
2181.4162963
 21
-1875.81423088
 31
0.0
  0
LINE
  5
2BE
100
AcDbEntity
  8
Sc.1_5
 62
     9
  6
CONTINUOUS
370
    -2
100
AcDbLine
 10
2199.08194873
 20
-1871.2588148
 30
0.0
 11
2198.08089947
 21
-1871.14758732
 31
0.0
  0
LINE
  5
2BF
100
AcDbEntity
  8
Sc.1_5
 62
     9
  6
CONTINUOUS
370
    -2
100
AcDbLine
 10
2199.08193484
 20
-1861.92551553
 30
0.0
 11
2198.08088558
 21
-1861.81428805
 31
0.0
  0
LINE
  5
2C0
100
AcDbEntity
  8
Sc.1_5
 62
     9
  6
CONTINUOUS
370
    -2
100
AcDbLine
 10
2199.08192095
 20
-1852.59221626
 30
0.0
 11
2198.08087168
 21
-1852.48098878
 31
0.0
  0
LINE
  5
2C1
100
AcDbEntity
  8
Sc.1_5
 62
     9
  6
CONTINUOUS
370
    -2
100
AcDbLine
 10
2199.08190706
 20
-1843.25891699
 30
0.0
 11
2198.08085779
 21
-1843.14768951
 31
0.0
  0
LINE
  5
2C2
100
AcDbEntity
  8
Sc.1_5
 62
     9
  6
CONTINUOUS
370
    -2
100
AcDbLine
 10
2199.08189317
 20
-1833.92561771
 30
0.0
 11
2199.0818403
 21
-1833.92561184
 31
0.0
  0
LINE
  5
2C3
100
AcDbEntity
  8
Sc.1_5
 62
     9
  6
CONTINUOUS
370
    -2
100
AcDbLine
 10
2199.08184754
 20
-1871.25881051
 30
0.0
 11
2198.08079831
 21
-1871.37003826
 31
0.0
  0
LINE
  5
2C4
100
AcDbEntity
  8
Sc.1_5
 62
     9
  6
CONTINUOUS
370
    -2
100
AcDbLine
 10
2199.08185895
 20
-1861.92551124
 30
0.0
 11
2198.08080971
 21
-1862.03673898
 31
0.0
  0
LINE
  5
2C5
100
AcDbEntity
  8
Sc.1_5
 62
     9
  6
CONTINUOUS
370
    -2
100
AcDbLine
 10
2199.08187036
 20
-1852.59221197
 30
0.0
 11
2198.08082112
 21
-1852.70343971
 31
0.0
  0
LINE
  5
2C6
100
AcDbEntity
  8
Sc.1_5
 62
     9
  6
CONTINUOUS
370
    -2
100
AcDbLine
 10
2199.08188176
 20
-1843.25891269
 30
0.0
 11
2198.08083252
 21
-1843.37014044
 31
0.0
  0
LINE
  5
2C7
100
AcDbEntity
  8
Sc.1_5
 62
     9
  6
CONTINUOUS
370
    -2
100
AcDbLine
 10
2199.08189317
 20
-1833.92561342
 30
0.0
 11
2198.08084393
 21
-1834.03684117
 31
0.0
  0
ENDBLK
  5
2C8
100
AcDbEntity
100
AcDbBlockEnd
  0
BLOCK
  5
2C9
100
AcDbEntity
  8
Sc.1_5
100
AcDbBlockBegin
  2
*X2300
 70
     1
 10
0.0
 20
0.0
 30
0.0
  3
*X2300
  1

  4
Cadwork hatch
  0
LINE
  5
2CA
100
AcDbEntity
  8
Sc.1_5
 62
     9
  6
CONTINUOUS
370
    -2
100
AcDbLine
 10
2164.99849805
 20
-1769.01615401
 30
0.0
 11
2181.79269246
 21
-1780.10458462
 31
0.0
  0
LINE
  5
2CB
100
AcDbEntity
  8
Sc.1_5
 62
     9
  6
CONTINUOUS
370
    -2
100
AcDbLine
 10
2172.79273552
 20
-1764.51610968
 30
0.0
 11
2173.99845499
 21
-1784.60462894
 31
0.0
  0
ENDBLK
  5
2CC
100
AcDbEntity
100
AcDbBlockEnd
  0
BLOCK
  5
2CD
100
AcDbEntity
  8
Sc.1_5
100
AcDbBlockBegin
  2
*X2301
 70
     1
 10
0.0
 20
0.0
 30
0.0
  3
*X2301
  1

  4
Cadwork hatch
  0
LINE
  5
2CE
100
AcDbEntity
  8
Sc.1_5
 62
     9
  6
CONTINUOUS
370
    -2
100
AcDbLine
 10
2239.37310746
 20
-1726.07599738
 30
0.0
 11
2256.16730187
 21
-1737.16442799
 31
0.0
  0
LINE
  5
2CF
100
AcDbEntity
  8
Sc.1_5
 62
     9
  6
CONTINUOUS
370
    -2
100
AcDbLine
 10
2247.16721321
 20
-1721.57595305
 30
0.0
 11
2248.3730644
 21
-1741.66447231
 31
0.0
  0
ENDBLK
  5
2D0
100
AcDbEntity
100
AcDbBlockEnd
  0
BLOCK
  5
2D1
100
AcDbEntity
  8
Sc.1_5
100
AcDbBlockBegin
  2
*X2302
 70
     1
 10
0.0
 20
0.0
 30
0.0
  3
*X2302
  1

  4
Cadwork hatch
  0
LINE
  5
2D2
100
AcDbEntity
  8
Sc.1_5
 62
     9
  6
CONTINUOUS
370
    -2
100
AcDbLine
 10
2127.85959863
 20
-1790.45844045
 30
0.0
 11
2118.85964169
 21
-1816.43910029
 31
0.0
  0
LINE
  5
2D3
100
AcDbEntity
  8
Sc.1_5
 62
     9
  6
CONTINUOUS
370
    -2
100
AcDbLine
 10
2118.85964169
 20
-1795.65446705
 30
0.0
 11
2127.85959863
 21
-1811.24294198
 31
0.0
  0
ENDBLK
  5
2D4
100
AcDbEntity
100
AcDbBlockEnd
  0
BLOCK
  5
2D5
100
AcDbEntity
  8
Sc.1_5
100
AcDbBlockBegin
  2
*X2303
 70
     1
 10
0.0
 20
0.0
 30
0.0
  3
*X2303
  1

  4
Cadwork hatch
  0
LINE
  5
2D6
100
AcDbEntity
  8
Sc.1_5
 62
     9
  6
CONTINUOUS
370
    -2
100
AcDbLine
 10
2204.24865785
 20
-1799.47117375
 30
0.0
 11
2219.87295927
 21
-1798.53336267
 31
0.0
  0
LINE
  5
2D7
100
AcDbEntity
  8
Sc.1_5
 62
     9
  6
CONTINUOUS
370
    -2
100
AcDbLine
 10
2207.74858988
 20
-1805.53335845
 30
0.0
 11
2216.37302724
 21
-1792.47117797
 31
0.0
  0
ENDBLK
  5
2D8
100
AcDbEntity
100
AcDbBlockEnd
  0
BLOCK
  5
2D9
100
AcDbEntity
  8
Sc.1_5
100
AcDbBlockBegin
  2
*X2525
 70
     1
 10
0.0
 20
0.0
 30
0.0
  3
*X2525
  1

  4
Cadwork hatch
  0
LINE
  5
2DA
100
AcDbEntity
  8
Sc.1_5
 62
     9
  6
CONTINUOUS
370
    -2
100
AcDbLine
 10
2249.76465043
 20
-1744.03008155
 30
0.0
 11
2249.45537899
 21
-1744.2086395
 31
0.0
  0
LINE
  5
2DB
100
AcDbEntity
  8
Sc.1_5
 62
     9
  6
CONTINUOUS
370
    -2
100
AcDbLine
 10
2247.76451907
 20
-1745.18485793
 30
0.0
 11
2247.1459774
 21
-1745.54197313
 31
0.0
  0
LINE
  5
2DC
100
AcDbEntity
  8
Sc.1_5
 62
     9
  6
CONTINUOUS
370
    -2
100
AcDbLine
 10
2245.45511748
 20
-1746.51819156
 30
0.0
 11
2244.83657581
 21
-1746.87530676
 31
0.0
  0
LINE
  5
2DD
100
AcDbEntity
  8
Sc.1_5
 62
     9
  6
CONTINUOUS
370
    -2
100
AcDbLine
 10
2243.14571589
 20
-1747.85152519
 30
0.0
 11
2242.52717421
 21
-1748.20864039
 31
0.0
  0
LINE
  5
2DE
100
AcDbEntity
  8
Sc.1_5
 62
     9
  6
CONTINUOUS
370
    -2
100
AcDbLine
 10
2240.83631429
 20
-1749.18485882
 30
0.0
 11
2240.21777262
 21
-1749.54197403
 31
0.0
  0
LINE
  5
2DF
100
AcDbEntity
  8
Sc.1_5
 62
     9
  6
CONTINUOUS
370
    -2
100
AcDbLine
 10
2238.5269127
 20
-1750.51819245
 30
0.0
 11
2237.90837103
 21
-1750.87530766
 31
0.0
  0
LINE
  5
2E0
100
AcDbEntity
  8
Sc.1_5
 62
     9
  6
CONTINUOUS
370
    -2
100
AcDbLine
 10
2236.21751111
 20
-1751.85152609
 30
0.0
 11
2235.59896943
 21
-1752.20864129
 31
0.0
  0
LINE
  5
2E1
100
AcDbEntity
  8
Sc.1_5
 62
     9
  6
CONTINUOUS
370
    -2
100
AcDbLine
 10
2233.90810952
 20
-1753.18485972
 30
0.0
 11
2233.28956784
 21
-1753.54197492
 31
0.0
  0
LINE
  5
2E2
100
AcDbEntity
  8
Sc.1_5
 62
     9
  6
CONTINUOUS
370
    -2
100
AcDbLine
 10
2231.59870792
 20
-1754.51819335
 30
0.0
 11
2230.98016625
 21
-1754.87530855
 31
0.0
  0
LINE
  5
2E3
100
AcDbEntity
  8
Sc.1_5
 62
     9
  6
CONTINUOUS
370
    -2
100
AcDbLine
 10
2229.28930633
 20
-1755.85152698
 30
0.0
 11
2228.67076465
 21
-1756.20864218
 31
0.0
  0
LINE
  5
2E4
100
AcDbEntity
  8
Sc.1_5
 62
     9
  6
CONTINUOUS
370
    -2
100
AcDbLine
 10
2226.97990474
 20
-1757.18486061
 30
0.0
 11
2226.36136306
 21
-1757.54197581
 31
0.0
  0
LINE
  5
2E5
100
AcDbEntity
  8
Sc.1_5
 62
     9
  6
CONTINUOUS
370
    -2
100
AcDbLine
 10
2224.67050314
 20
-1758.51819424
 30
0.0
 11
2224.05196147
 21
-1758.87530944
 31
0.0
  0
LINE
  5
2E6
100
AcDbEntity
  8
Sc.1_5
 62
     9
  6
CONTINUOUS
370
    -2
100
AcDbLine
 10
2222.36110155
 20
-1759.85152787
 30
0.0
 11
2221.74255988
 21
-1760.20864308
 31
0.0
  0
LINE
  5
2E7
100
AcDbEntity
  8
Sc.1_5
 62
     9
  6
CONTINUOUS
370
    -2
100
AcDbLine
 10
2220.05169996
 20
-1761.18486151
 30
0.0
 11
2219.43315828
 21
-1761.54197671
 31
0.0
  0
LINE
  5
2E8
100
AcDbEntity
  8
Sc.1_5
 62
     9
  6
CONTINUOUS
370
    -2
100
AcDbLine
 10
2217.74229836
 20
-1762.51819514
 30
0.0
 11
2217.12375669
 21
-1762.87531034
 31
0.0
  0
LINE
  5
2E9
100
AcDbEntity
  8
Sc.1_5
 62
     9
  6
CONTINUOUS
370
    -2
100
AcDbLine
 10
2215.43289677
 20
-1763.85152877
 30
0.0
 11
2214.8143551
 21
-1764.20864397
 31
0.0
  0
LINE
  5
2EA
100
AcDbEntity
  8
Sc.1_5
 62
     9
  6
CONTINUOUS
370
    -2
100
AcDbLine
 10
2213.12349518
 20
-1765.1848624
 30
0.0
 11
2212.5049535
 21
-1765.5419776
 31
0.0
  0
LINE
  5
2EB
100
AcDbEntity
  8
Sc.1_5
 62
     9
  6
CONTINUOUS
370
    -2
100
AcDbLine
 10
2210.81409359
 20
-1766.51819603
 30
0.0
 11
2210.19555191
 21
-1766.87531123
 31
0.0
  0
LINE
  5
2EC
100
AcDbEntity
  8
Sc.1_5
 62
     9
  6
CONTINUOUS
370
    -2
100
AcDbLine
 10
2208.50469199
 20
-1767.85152966
 30
0.0
 11
2207.88615032
 21
-1768.20864486
 31
0.0
  0
LINE
  5
2ED
100
AcDbEntity
  8
Sc.1_5
 62
     9
  6
CONTINUOUS
370
    -2
100
AcDbLine
 10
2206.1952904
 20
-1769.18486329
 30
0.0
 11
2205.57674873
 21
-1769.5419785
 31
0.0
  0
LINE
  5
2EE
100
AcDbEntity
  8
Sc.1_5
 62
     9
  6
CONTINUOUS
370
    -2
100
AcDbLine
 10
2203.88588881
 20
-1770.51819692
 30
0.0
 11
2203.26734713
 21
-1770.87531213
 31
0.0
  0
LINE
  5
2EF
100
AcDbEntity
  8
Sc.1_5
 62
     9
  6
CONTINUOUS
370
    -2
100
AcDbLine
 10
2201.57648721
 20
-1771.85153056
 30
0.0
 11
2200.95794554
 21
-1772.20864576
 31
0.0
  0
LINE
  5
2F0
100
AcDbEntity
  8
Sc.1_5
 62
     9
  6
CONTINUOUS
370
    -2
100
AcDbLine
 10
2199.26708562
 20
-1773.18486419
 30
0.0
 11
2198.64854395
 21
-1773.54197939
 31
0.0
  0
LINE
  5
2F1
100
AcDbEntity
  8
Sc.1_5
 62
     9
  6
CONTINUOUS
370
    -2
100
AcDbLine
 10
2196.95768403
 20
-1774.51819782
 30
0.0
 11
2196.33914235
 21
-1774.87531302
 31
0.0
  0
LINE
  5
2F2
100
AcDbEntity
  8
Sc.1_5
 62
     9
  6
CONTINUOUS
370
    -2
100
AcDbLine
 10
2194.64828244
 20
-1775.85153145
 30
0.0
 11
2194.02974076
 21
-1776.20864665
 31
0.0
  0
LINE
  5
2F3
100
AcDbEntity
  8
Sc.1_5
 62
     9
  6
CONTINUOUS
370
    -2
100
AcDbLine
 10
2192.33888084
 20
-1777.18486508
 30
0.0
 11
2191.72033917
 21
-1777.54198028
 31
0.0
  0
LINE
  5
2F4
100
AcDbEntity
  8
Sc.1_5
 62
     9
  6
CONTINUOUS
370
    -2
100
AcDbLine
 10
2190.02947925
 20
-1778.51819871
 30
0.0
 11
2189.41093757
 21
-1778.87531392
 31
0.0
  0
LINE
  5
2F5
100
AcDbEntity
  8
Sc.1_5
 62
     9
  6
CONTINUOUS
370
    -2
100
AcDbLine
 10
2187.72007766
 20
-1779.85153234
 30
0.0
 11
2187.10153598
 21
-1780.20864755
 31
0.0
  0
LINE
  5
2F6
100
AcDbEntity
  8
Sc.1_5
 62
     9
  6
CONTINUOUS
370
    -2
100
AcDbLine
 10
2185.41067606
 20
-1781.18486598
 30
0.0
 11
2184.79213439
 21
-1781.54198118
 31
0.0
  0
LINE
  5
2F7
100
AcDbEntity
  8
Sc.1_5
 62
     9
  6
CONTINUOUS
370
    -2
100
AcDbLine
 10
2240.57221187
 20
-1733.44164674
 30
0.0
 11
2240.78858227
 21
-1733.81641126
 31
0.0
  0
LINE
  5
2F8
100
AcDbEntity
  8
Sc.1_5
 62
     9
  6
CONTINUOUS
370
    -2
100
AcDbLine
 10
2235.95341009
 20
-1736.10831319
 30
0.0
 11
2236.16978048
 21
-1736.48307771
 31
0.0
  0
LINE
  5
2F9
100
AcDbEntity
  8
Sc.1_5
 62
     9
  6
CONTINUOUS
370
    -2
100
AcDbLine
 10
2231.33460831
 20
-1738.77497964
 30
0.0
 11
2231.5509787
 21
-1739.14974416
 31
0.0
  0
LINE
  5
2FA
100
AcDbEntity
  8
Sc.1_5
 62
     9
  6
CONTINUOUS
370
    -2
100
AcDbLine
 10
2226.71580652
 20
-1741.4416461
 30
0.0
 11
2226.93217692
 21
-1741.81641061
 31
0.0
  0
LINE
  5
2FB
100
AcDbEntity
  8
Sc.1_5
 62
     9
  6
CONTINUOUS
370
    -2
100
AcDbLine
 10
2222.09700474
 20
-1744.10831255
 30
0.0
 11
2222.31337514
 21
-1744.48307707
 31
0.0
  0
LINE
  5
2FC
100
AcDbEntity
  8
Sc.1_5
 62
     9
  6
CONTINUOUS
370
    -2
100
AcDbLine
 10
2217.47820296
 20
-1746.774979
 30
0.0
 11
2217.69457336
 21
-1747.14974352
 31
0.0
  0
LINE
  5
2FD
100
AcDbEntity
  8
Sc.1_5
 62
     9
  6
CONTINUOUS
370
    -2
100
AcDbLine
 10
2212.85940118
 20
-1749.44164545
 30
0.0
 11
2213.07577157
 21
-1749.81640997
 31
0.0
  0
LINE
  5
2FE
100
AcDbEntity
  8
Sc.1_5
 62
     9
  6
CONTINUOUS
370
    -2
100
AcDbLine
 10
2208.2405994
 20
-1752.1083119
 30
0.0
 11
2208.45696979
 21
-1752.48307642
 31
0.0
  0
LINE
  5
2FF
100
AcDbEntity
  8
Sc.1_5
 62
     9
  6
CONTINUOUS
370
    -2
100
AcDbLine
 10
2203.62179762
 20
-1754.77497836
 30
0.0
 11
2203.83816801
 21
-1755.14974287
 31
0.0
  0
LINE
  5
300
100
AcDbEntity
  8
Sc.1_5
 62
     9
  6
CONTINUOUS
370
    -2
100
AcDbLine
 10
2199.00299583
 20
-1757.44164481
 30
0.0
 11
2199.21936623
 21
-1757.81640933
 31
0.0
  0
LINE
  5
301
100
AcDbEntity
  8
Sc.1_5
 62
     9
  6
CONTINUOUS
370
    -2
100
AcDbLine
 10
2194.38419405
 20
-1760.10831126
 30
0.0
 11
2194.60056445
 21
-1760.48307578
 31
0.0
  0
LINE
  5
302
100
AcDbEntity
  8
Sc.1_5
 62
     9
  6
CONTINUOUS
370
    -2
100
AcDbLine
 10
2189.76539227
 20
-1762.77497771
 30
0.0
 11
2189.98176267
 21
-1763.14974223
 31
0.0
  0
LINE
  5
303
100
AcDbEntity
  8
Sc.1_5
 62
     9
  6
CONTINUOUS
370
    -2
100
AcDbLine
 10
2185.14659049
 20
-1765.44164416
 30
0.0
 11
2185.36296088
 21
-1765.81640868
 31
0.0
  0
LINE
  5
304
100
AcDbEntity
  8
Sc.1_5
 62
     9
  6
CONTINUOUS
370
    -2
100
AcDbLine
 10
2180.52778871
 20
-1768.10831062
 30
0.0
 11
2180.7441591
 21
-1768.48307513
 31
0.0
  0
LINE
  5
305
100
AcDbEntity
  8
Sc.1_5
 62
     9
  6
CONTINUOUS
370
    -2
100
AcDbLine
 10
2248.43131586
 20
-1741.72068171
 30
0.0
 11
2248.64768625
 21
-1742.09544623
 31
0.0
  0
LINE
  5
306
100
AcDbEntity
  8
Sc.1_5
 62
     9
  6
CONTINUOUS
370
    -2
100
AcDbLine
 10
2243.81251407
 20
-1744.38734817
 30
0.0
 11
2244.02888447
 21
-1744.76211268
 31
0.0
  0
LINE
  5
307
100
AcDbEntity
  8
Sc.1_5
 62
     9
  6
CONTINUOUS
370
    -2
100
AcDbLine
 10
2239.19371229
 20
-1747.05401462
 30
0.0
 11
2239.41008269
 21
-1747.42877913
 31
0.0
  0
LINE
  5
308
100
AcDbEntity
  8
Sc.1_5
 62
     9
  6
CONTINUOUS
370
    -2
100
AcDbLine
 10
2234.57491051
 20
-1749.72068107
 30
0.0
 11
2234.7912809
 21
-1750.09544559
 31
0.0
  0
LINE
  5
309
100
AcDbEntity
  8
Sc.1_5
 62
     9
  6
CONTINUOUS
370
    -2
100
AcDbLine
 10
2229.95610873
 20
-1752.38734752
 30
0.0
 11
2230.17247912
 21
-1752.76211204
 31
0.0
  0
LINE
  5
30A
100
AcDbEntity
  8
Sc.1_5
 62
     9
  6
CONTINUOUS
370
    -2
100
AcDbLine
 10
2225.33730695
 20
-1755.05401397
 30
0.0
 11
2225.55367734
 21
-1755.42877849
 31
0.0
  0
LINE
  5
30B
100
AcDbEntity
  8
Sc.1_5
 62
     9
  6
CONTINUOUS
370
    -2
100
AcDbLine
 10
2220.71850516
 20
-1757.72068043
 30
0.0
 11
2220.93487556
 21
-1758.09544494
 31
0.0
  0
LINE
  5
30C
100
AcDbEntity
  8
Sc.1_5
 62
     9
  6
CONTINUOUS
370
    -2
100
AcDbLine
 10
2216.09970338
 20
-1760.38734688
 30
0.0
 11
2216.31607378
 21
-1760.7621114
 31
0.0
  0
LINE
  5
30D
100
AcDbEntity
  8
Sc.1_5
 62
     9
  6
CONTINUOUS
370
    -2
100
AcDbLine
 10
2211.4809016
 20
-1763.05401333
 30
0.0
 11
2211.697272
 21
-1763.42877785
 31
0.0
  0
LINE
  5
30E
100
AcDbEntity
  8
Sc.1_5
 62
     9
  6
CONTINUOUS
370
    -2
100
AcDbLine
 10
2206.86209982
 20
-1765.72067978
 30
0.0
 11
2207.07847021
 21
-1766.0954443
 31
0.0
  0
LINE
  5
30F
100
AcDbEntity
  8
Sc.1_5
 62
     9
  6
CONTINUOUS
370
    -2
100
AcDbLine
 10
2202.24329804
 20
-1768.38734623
 30
0.0
 11
2202.45966843
 21
-1768.76211075
 31
0.0
  0
LINE
  5
310
100
AcDbEntity
  8
Sc.1_5
 62
     9
  6
CONTINUOUS
370
    -2
100
AcDbLine
 10
2197.62449625
 20
-1771.05401269
 30
0.0
 11
2197.84086665
 21
-1771.4287772
 31
0.0
  0
LINE
  5
311
100
AcDbEntity
  8
Sc.1_5
 62
     9
  6
CONTINUOUS
370
    -2
100
AcDbLine
 10
2193.00569447
 20
-1773.72067914
 30
0.0
 11
2193.22206487
 21
-1774.09544366
 31
0.0
  0
LINE
  5
312
100
AcDbEntity
  8
Sc.1_5
 62
     9
  6
CONTINUOUS
370
    -2
100
AcDbLine
 10
2188.38689269
 20
-1776.38734559
 30
0.0
 11
2188.60326309
 21
-1776.76211011
 31
0.0
  0
LINE
  5
313
100
AcDbEntity
  8
Sc.1_5
 62
     9
  6
CONTINUOUS
370
    -2
100
AcDbLine
 10
2183.76809091
 20
-1779.05401204
 30
0.0
 11
2183.9844613
 21
-1779.42877656
 31
0.0
  0
LINE
  5
314
100
AcDbEntity
  8
Sc.1_5
 62
     9
  6
CONTINUOUS
370
    -2
100
AcDbLine
 10
2241.12964114
 20
-1734.28002272
 30
0.0
 11
2248.09025801
 21
-1741.25706813
 31
0.0
  0
LINE
  5
315
100
AcDbEntity
  8
Sc.1_5
 62
     9
  6
CONTINUOUS
370
    -2
100
AcDbLine
 10
2236.51083572
 20
-1736.94668071
 30
0.0
 11
2243.47145259
 21
-1743.92372612
 31
0.0
  0
LINE
  5
316
100
AcDbEntity
  8
Sc.1_5
 62
     9
  6
CONTINUOUS
370
    -2
100
AcDbLine
 10
2231.89203031
 20
-1739.6133387
 30
0.0
 11
2238.85264718
 21
-1746.59038411
 31
0.0
  0
LINE
  5
317
100
AcDbEntity
  8
Sc.1_5
 62
     9
  6
CONTINUOUS
370
    -2
100
AcDbLine
 10
2227.27322489
 20
-1742.27999668
 30
0.0
 11
2234.23384176
 21
-1749.25704209
 31
0.0
  0
LINE
  5
318
100
AcDbEntity
  8
Sc.1_5
 62
     9
  6
CONTINUOUS
370
    -2
100
AcDbLine
 10
2222.65441948
 20
-1744.94665467
 30
0.0
 11
2229.61503634
 21
-1751.92370008
 31
0.0
  0
LINE
  5
319
100
AcDbEntity
  8
Sc.1_5
 62
     9
  6
CONTINUOUS
370
    -2
100
AcDbLine
 10
2218.03561406
 20
-1747.61331266
 30
0.0
 11
2224.99623093
 21
-1754.59035807
 31
0.0
  0
LINE
  5
31A
100
AcDbEntity
  8
Sc.1_5
 62
     9
  6
CONTINUOUS
370
    -2
100
AcDbLine
 10
2213.41680865
 20
-1750.27997065
 30
0.0
 11
2220.37742551
 21
-1757.25701606
 31
0.0
  0
LINE
  5
31B
100
AcDbEntity
  8
Sc.1_5
 62
     9
  6
CONTINUOUS
370
    -2
100
AcDbLine
 10
2208.79800323
 20
-1752.94662864
 30
0.0
 11
2215.7586201
 21
-1759.92367405
 31
0.0
  0
LINE
  5
31C
100
AcDbEntity
  8
Sc.1_5
 62
     9
  6
CONTINUOUS
370
    -2
100
AcDbLine
 10
2204.17919782
 20
-1755.61328662
 30
0.0
 11
2211.13981468
 21
-1762.59033203
 31
0.0
  0
LINE
  5
31D
100
AcDbEntity
  8
Sc.1_5
 62
     9
  6
CONTINUOUS
370
    -2
100
AcDbLine
 10
2199.5603924
 20
-1758.27994461
 30
0.0
 11
2206.52100927
 21
-1765.25699002
 31
0.0
  0
LINE
  5
31E
100
AcDbEntity
  8
Sc.1_5
 62
     9
  6
CONTINUOUS
370
    -2
100
AcDbLine
 10
2194.94158698
 20
-1760.9466026
 30
0.0
 11
2201.90220385
 21
-1767.92364801
 31
0.0
  0
LINE
  5
31F
100
AcDbEntity
  8
Sc.1_5
 62
     9
  6
CONTINUOUS
370
    -2
100
AcDbLine
 10
2190.32278157
 20
-1763.61326059
 30
0.0
 11
2197.28339844
 21
-1770.590306
 31
0.0
  0
LINE
  5
320
100
AcDbEntity
  8
Sc.1_5
 62
     9
  6
CONTINUOUS
370
    -2
100
AcDbLine
 10
2185.70397615
 20
-1766.27991858
 30
0.0
 11
2192.66459302
 21
-1773.25696399
 31
0.0
  0
LINE
  5
321
100
AcDbEntity
  8
Sc.1_5
 62
     9
  6
CONTINUOUS
370
    -2
100
AcDbLine
 10
2181.08517074
 20
-1768.94657656
 30
0.0
 11
2188.04578761
 21
-1775.92362197
 31
0.0
  0
LINE
  5
322
100
AcDbEntity
  8
Sc.1_5
 62
     9
  6
CONTINUOUS
370
    -2
100
AcDbLine
 10
2177.533842
 20
-1772.6832307
 30
0.0
 11
2183.42698219
 21
-1778.59027996
 31
0.0
  0
LINE
  5
323
100
AcDbEntity
  8
Sc.1_5
 62
     9
  6
CONTINUOUS
370
    -2
100
AcDbLine
 10
2241.01955346
 20
-1734.34358187
 30
0.0
 11
2243.58154359
 21
-1743.86017561
 31
0.0
  0
LINE
  5
324
100
AcDbEntity
  8
Sc.1_5
 62
     9
  6
CONTINUOUS
370
    -2
100
AcDbLine
 10
2236.40075719
 20
-1737.0102557
 30
0.0
 11
2238.96274732
 21
-1746.52684944
 31
0.0
  0
LINE
  5
325
100
AcDbEntity
  8
Sc.1_5
 62
     9
  6
CONTINUOUS
370
    -2
100
AcDbLine
 10
2231.78196092
 20
-1739.67692953
 30
0.0
 11
2234.34395105
 21
-1749.19352327
 31
0.0
  0
LINE
  5
326
100
AcDbEntity
  8
Sc.1_5
 62
     9
  6
CONTINUOUS
370
    -2
100
AcDbLine
 10
2227.16316465
 20
-1742.34360336
 30
0.0
 11
2229.72515479
 21
-1751.8601971
 31
0.0
  0
LINE
  5
327
100
AcDbEntity
  8
Sc.1_5
 62
     9
  6
CONTINUOUS
370
    -2
100
AcDbLine
 10
2222.54436838
 20
-1745.0102772
 30
0.0
 11
2225.10635852
 21
-1754.52687093
 31
0.0
  0
LINE
  5
328
100
AcDbEntity
  8
Sc.1_5
 62
     9
  6
CONTINUOUS
370
    -2
100
AcDbLine
 10
2217.92557211
 20
-1747.67695103
 30
0.0
 11
2220.48756225
 21
-1757.19354477
 31
0.0
  0
LINE
  5
329
100
AcDbEntity
  8
Sc.1_5
 62
     9
  6
CONTINUOUS
370
    -2
100
AcDbLine
 10
2213.30677585
 20
-1750.34362486
 30
0.0
 11
2215.86876598
 21
-1759.8602186
 31
0.0
  0
LINE
  5
32A
100
AcDbEntity
  8
Sc.1_5
 62
     9
  6
CONTINUOUS
370
    -2
100
AcDbLine
 10
2208.68797958
 20
-1753.01029869
 30
0.0
 11
2211.24996971
 21
-1762.52689243
 31
0.0
  0
LINE
  5
32B
100
AcDbEntity
  8
Sc.1_5
 62
     9
  6
CONTINUOUS
370
    -2
100
AcDbLine
 10
2204.06918331
 20
-1755.67697252
 30
0.0
 11
2206.63117344
 21
-1765.19356626
 31
0.0
  0
LINE
  5
32C
100
AcDbEntity
  8
Sc.1_5
 62
     9
  6
CONTINUOUS
370
    -2
100
AcDbLine
 10
2199.45038704
 20
-1758.34364635
 30
0.0
 11
2202.01237717
 21
-1767.86024009
 31
0.0
  0
LINE
  5
32D
100
AcDbEntity
  8
Sc.1_5
 62
     9
  6
CONTINUOUS
370
    -2
100
AcDbLine
 10
2194.83159077
 20
-1761.01032018
 30
0.0
 11
2197.39358091
 21
-1770.52691392
 31
0.0
  0
LINE
  5
32E
100
AcDbEntity
  8
Sc.1_5
 62
     9
  6
CONTINUOUS
370
    -2
100
AcDbLine
 10
2190.2127945
 20
-1763.67699401
 30
0.0
 11
2192.77478464
 21
-1773.19358775
 31
0.0
  0
LINE
  5
32F
100
AcDbEntity
  8
Sc.1_5
 62
     9
  6
CONTINUOUS
370
    -2
100
AcDbLine
 10
2185.59399824
 20
-1766.34366784
 30
0.0
 11
2188.15598837
 21
-1775.86026158
 31
0.0
  0
LINE
  5
330
100
AcDbEntity
  8
Sc.1_5
 62
     9
  6
CONTINUOUS
370
    -2
100
AcDbLine
 10
2180.97520197
 20
-1769.01034167
 30
0.0
 11
2183.5371921
 21
-1778.52693541
 31
0.0
  0
LINE
  5
331
100
AcDbEntity
  8
Sc.1_5
 62
     9
  6
CONTINUOUS
370
    -2
100
AcDbLine
 10
2241.45537937
 20
-1730.3522337
 30
0.0
 11
2240.94510932
 21
-1730.86706823
 31
0.0
  0
LINE
  5
332
100
AcDbEntity
  8
Sc.1_5
 62
     9
  6
CONTINUOUS
370
    -2
100
AcDbLine
 10
2236.83657728
 20
-1733.01890033
 30
0.0
 11
2236.32630761
 21
-1733.53373448
 31
0.0
  0
LINE
  5
333
100
AcDbEntity
  8
Sc.1_5
 62
     9
  6
CONTINUOUS
370
    -2
100
AcDbLine
 10
2232.21777519
 20
-1735.68556696
 30
0.0
 11
2231.7075059
 21
-1736.20040072
 31
0.0
  0
LINE
  5
334
100
AcDbEntity
  8
Sc.1_5
 62
     9
  6
CONTINUOUS
370
    -2
100
AcDbLine
 10
2227.5989731
 20
-1738.35223359
 30
0.0
 11
2227.0887042
 21
-1738.86706697
 31
0.0
  0
LINE
  5
335
100
AcDbEntity
  8
Sc.1_5
 62
     9
  6
CONTINUOUS
370
    -2
100
AcDbLine
 10
2222.98017101
 20
-1741.01890022
 30
0.0
 11
2222.46990249
 21
-1741.53373321
 31
0.0
  0
LINE
  5
336
100
AcDbEntity
  8
Sc.1_5
 62
     9
  6
CONTINUOUS
370
    -2
100
AcDbLine
 10
2218.36136892
 20
-1743.68556685
 30
0.0
 11
2217.85110078
 21
-1744.20039946
 31
0.0
  0
LINE
  5
337
100
AcDbEntity
  8
Sc.1_5
 62
     9
  6
CONTINUOUS
370
    -2
100
AcDbLine
 10
2213.74256683
 20
-1746.35223348
 30
0.0
 11
2213.23229907
 21
-1746.8670657
 31
0.0
  0
LINE
  5
338
100
AcDbEntity
  8
Sc.1_5
 62
     9
  6
CONTINUOUS
370
    -2
100
AcDbLine
 10
2209.12376474
 20
-1749.01890011
 30
0.0
 11
2208.61349736
 21
-1749.53373195
 31
0.0
  0
LINE
  5
339
100
AcDbEntity
  8
Sc.1_5
 62
     9
  6
CONTINUOUS
370
    -2
100
AcDbLine
 10
2204.50496265
 20
-1751.68556674
 30
0.0
 11
2203.99469565
 21
-1752.20039819
 31
0.0
  0
LINE
  5
33A
100
AcDbEntity
  8
Sc.1_5
 62
     9
  6
CONTINUOUS
370
    -2
100
AcDbLine
 10
2199.88616055
 20
-1754.35223337
 30
0.0
 11
2199.37589395
 21
-1754.86706444
 31
0.0
  0
LINE
  5
33B
100
AcDbEntity
  8
Sc.1_5
 62
     9
  6
CONTINUOUS
370
    -2
100
AcDbLine
 10
2195.26735846
 20
-1757.0189
 30
0.0
 11
2194.75709224
 21
-1757.53373068
 31
0.0
  0
LINE
  5
33C
100
AcDbEntity
  8
Sc.1_5
 62
     9
  6
CONTINUOUS
370
    -2
100
AcDbLine
 10
2190.64855637
 20
-1759.68556663
 30
0.0
 11
2190.13829053
 21
-1760.20039692
 31
0.0
  0
LINE
  5
33D
100
AcDbEntity
  8
Sc.1_5
 62
     9
  6
CONTINUOUS
370
    -2
100
AcDbLine
 10
2186.02975428
 20
-1762.35223326
 30
0.0
 11
2185.51948882
 21
-1762.86706317
 31
0.0
  0
LINE
  5
33E
100
AcDbEntity
  8
Sc.1_5
 62
     9
  6
CONTINUOUS
370
    -2
100
AcDbLine
 10
2181.41095219
 20
-1765.0188999
 30
0.0
 11
2180.90068711
 21
-1765.53372941
 31
0.0
  0
LINE
  5
33F
100
AcDbEntity
  8
Sc.1_5
 62
     9
  6
CONTINUOUS
370
    -2
100
AcDbLine
 10
2176.7921501
 20
-1767.68556653
 30
0.0
 11
2176.2818854
 21
-1768.20039566
 31
0.0
  0
LINE
  5
340
100
AcDbEntity
  8
Sc.1_5
 62
     9
  6
CONTINUOUS
370
    -2
100
AcDbLine
 10
2237.45511984
 20
-1732.6617856
 30
0.0
 11
2238.15611462
 21
-1732.47729595
 31
0.0
  0
LINE
  5
341
100
AcDbEntity
  8
Sc.1_5
 62
     9
  6
CONTINUOUS
370
    -2
100
AcDbLine
 10
2232.83631863
 20
-1735.32845271
 30
0.0
 11
2233.53731341
 21
-1735.14396306
 31
0.0
  0
LINE
  5
342
100
AcDbEntity
  8
Sc.1_5
 62
     9
  6
CONTINUOUS
370
    -2
100
AcDbLine
 10
2228.21751742
 20
-1737.99511982
 30
0.0
 11
2228.9185122
 21
-1737.81063017
 31
0.0
  0
LINE
  5
343
100
AcDbEntity
  8
Sc.1_5
 62
     9
  6
CONTINUOUS
370
    -2
100
AcDbLine
 10
2223.59871621
 20
-1740.66178693
 30
0.0
 11
2224.29971099
 21
-1740.47729727
 31
0.0
  0
LINE
  5
344
100
AcDbEntity
  8
Sc.1_5
 62
     9
  6
CONTINUOUS
370
    -2
100
AcDbLine
 10
2218.979915
 20
-1743.32845403
 30
0.0
 11
2219.68090978
 21
-1743.14396438
 31
0.0
  0
LINE
  5
345
100
AcDbEntity
  8
Sc.1_5
 62
     9
  6
CONTINUOUS
370
    -2
100
AcDbLine
 10
2214.36111379
 20
-1745.99512114
 30
0.0
 11
2215.06210857
 21
-1745.81063149
 31
0.0
  0
LINE
  5
346
100
AcDbEntity
  8
Sc.1_5
 62
     9
  6
CONTINUOUS
370
    -2
100
AcDbLine
 10
2209.74231258
 20
-1748.66178825
 30
0.0
 11
2210.44330736
 21
-1748.47729859
 31
0.0
  0
LINE
  5
347
100
AcDbEntity
  8
Sc.1_5
 62
     9
  6
CONTINUOUS
370
    -2
100
AcDbLine
 10
2205.12351136
 20
-1751.32845535
 30
0.0
 11
2205.82450615
 21
-1751.1439657
 31
0.0
  0
LINE
  5
348
100
AcDbEntity
  8
Sc.1_5
 62
     9
  6
CONTINUOUS
370
    -2
100
AcDbLine
 10
2200.50471015
 20
-1753.99512246
 30
0.0
 11
2201.20570494
 21
-1753.81063281
 31
0.0
  0
LINE
  5
349
100
AcDbEntity
  8
Sc.1_5
 62
     9
  6
CONTINUOUS
370
    -2
100
AcDbLine
 10
2195.88590894
 20
-1756.66178957
 30
0.0
 11
2196.58690373
 21
-1756.47729992
 31
0.0
  0
LINE
  5
34A
100
AcDbEntity
  8
Sc.1_5
 62
     9
  6
CONTINUOUS
370
    -2
100
AcDbLine
 10
2191.26710773
 20
-1759.32845668
 30
0.0
 11
2191.96810252
 21
-1759.14396702
 31
0.0
  0
LINE
  5
34B
100
AcDbEntity
  8
Sc.1_5
 62
     9
  6
CONTINUOUS
370
    -2
100
AcDbLine
 10
2186.64830652
 20
-1761.99512378
 30
0.0
 11
2187.34930131
 21
-1761.81063413
 31
0.0
  0
LINE
  5
34C
100
AcDbEntity
  8
Sc.1_5
 62
     9
  6
CONTINUOUS
370
    -2
100
AcDbLine
 10
2182.02950531
 20
-1764.66179089
 30
0.0
 11
2182.7305001
 21
-1764.47730124
 31
0.0
  0
LINE
  5
34D
100
AcDbEntity
  8
Sc.1_5
 62
     9
  6
CONTINUOUS
370
    -2
100
AcDbLine
 10
2177.4107041
 20
-1767.328458
 30
0.0
 11
2178.11169889
 21
-1767.14396835
 31
0.0
  0
LINE
  5
34E
100
AcDbEntity
  8
Sc.1_5
 62
     9
  6
CONTINUOUS
370
    -2
100
AcDbLine
 10
2248.27479055
 20
-1744.67002439
 30
0.0
 11
2247.76452182
 21
-1745.18485759
 31
0.0
  0
LINE
  5
34F
100
AcDbEntity
  8
Sc.1_5
 62
     9
  6
CONTINUOUS
370
    -2
100
AcDbLine
 10
2243.65598884
 20
-1747.33669063
 30
0.0
 11
2243.14571973
 21
-1747.85152423
 31
0.0
  0
LINE
  5
350
100
AcDbEntity
  8
Sc.1_5
 62
     9
  6
CONTINUOUS
370
    -2
100
AcDbLine
 10
2239.03718713
 20
-1750.00335688
 30
0.0
 11
2238.52691764
 21
-1750.51819086
 31
0.0
  0
LINE
  5
351
100
AcDbEntity
  8
Sc.1_5
 62
     9
  6
CONTINUOUS
370
    -2
100
AcDbLine
 10
2234.41838543
 20
-1752.67002312
 30
0.0
 11
2233.90811555
 21
-1753.18485749
 31
0.0
  0
LINE
  5
352
100
AcDbEntity
  8
Sc.1_5
 62
     9
  6
CONTINUOUS
370
    -2
100
AcDbLine
 10
2229.79958372
 20
-1755.33668937
 30
0.0
 11
2229.28931367
 21
-1755.8515239
 31
0.0
  0
LINE
  5
353
100
AcDbEntity
  8
Sc.1_5
 62
     9
  6
CONTINUOUS
370
    -2
100
AcDbLine
 10
2225.18078201
 20
-1758.00335561
 30
0.0
 11
2224.67051196
 21
-1758.51819015
 31
0.0
  0
LINE
  5
354
100
AcDbEntity
  8
Sc.1_5
 62
     9
  6
CONTINUOUS
370
    -2
100
AcDbLine
 10
2220.5619803
 20
-1760.67002186
 30
0.0
 11
2220.05171025
 21
-1761.18485639
 31
0.0
  0
LINE
  5
355
100
AcDbEntity
  8
Sc.1_5
 62
     9
  6
CONTINUOUS
370
    -2
100
AcDbLine
 10
2215.94317859
 20
-1763.3366881
 30
0.0
 11
2215.43290854
 21
-1763.85152264
 31
0.0
  0
LINE
  5
356
100
AcDbEntity
  8
Sc.1_5
 62
     9
  6
CONTINUOUS
370
    -2
100
AcDbLine
 10
2211.32437688
 20
-1766.00335435
 30
0.0
 11
2210.81410683
 21
-1766.51818888
 31
0.0
  0
LINE
  5
357
100
AcDbEntity
  8
Sc.1_5
 62
     9
  6
CONTINUOUS
370
    -2
100
AcDbLine
 10
2206.70557518
 20
-1768.67002059
 30
0.0
 11
2206.19530513
 21
-1769.18485513
 31
0.0
  0
LINE
  5
358
100
AcDbEntity
  8
Sc.1_5
 62
     9
  6
CONTINUOUS
370
    -2
100
AcDbLine
 10
2202.08677347
 20
-1771.33668683
 30
0.0
 11
2201.57650342
 21
-1771.85152137
 31
0.0
  0
LINE
  5
359
100
AcDbEntity
  8
Sc.1_5
 62
     9
  6
CONTINUOUS
370
    -2
100
AcDbLine
 10
2197.46797176
 20
-1774.00335308
 30
0.0
 11
2196.95770171
 21
-1774.51818762
 31
0.0
  0
LINE
  5
35A
100
AcDbEntity
  8
Sc.1_5
 62
     9
  6
CONTINUOUS
370
    -2
100
AcDbLine
 10
2192.84917005
 20
-1776.67001932
 30
0.0
 11
2192.3389
 21
-1777.18485386
 31
0.0
  0
LINE
  5
35B
100
AcDbEntity
  8
Sc.1_5
 62
     9
  6
CONTINUOUS
370
    -2
100
AcDbLine
 10
2188.23036834
 20
-1779.33668557
 30
0.0
 11
2187.72009829
 21
-1779.8515201
 31
0.0
  0
LINE
  5
35C
100
AcDbEntity
  8
Sc.1_5
 62
     9
  6
CONTINUOUS
370
    -2
100
AcDbLine
 10
2183.61156663
 20
-1782.00335181
 30
0.0
 11
2183.17128667
 21
-1782.44757018
 31
0.0
  0
LINE
  5
35D
100
AcDbEntity
  8
Sc.1_5
 62
     9
  6
CONTINUOUS
370
    -2
100
AcDbLine
 10
2187.10155241
 20
-1780.20863931
 30
0.0
 11
2186.40056412
 21
-1780.39312716
 31
0.0
  0
LINE
  5
35E
100
AcDbEntity
  8
Sc.1_5
 62
     9
  6
CONTINUOUS
370
    -2
100
AcDbLine
 10
2191.7203545
 20
-1777.54197268
 30
0.0
 11
2191.01936569
 21
-1777.72646066
 31
0.0
  0
LINE
  5
35F
100
AcDbEntity
  8
Sc.1_5
 62
     9
  6
CONTINUOUS
370
    -2
100
AcDbLine
 10
2196.33915659
 20
-1774.87530605
 30
0.0
 11
2195.63816725
 21
-1775.05979417
 31
0.0
  0
LINE
  5
360
100
AcDbEntity
  8
Sc.1_5
 62
     9
  6
CONTINUOUS
370
    -2
100
AcDbLine
 10
2200.95795868
 20
-1772.20863942
 30
0.0
 11
2200.25696882
 21
-1772.39312768
 31
0.0
  0
LINE
  5
361
100
AcDbEntity
  8
Sc.1_5
 62
     9
  6
CONTINUOUS
370
    -2
100
AcDbLine
 10
2205.57676077
 20
-1769.54197279
 30
0.0
 11
2204.87577038
 21
-1769.72646119
 31
0.0
  0
LINE
  5
362
100
AcDbEntity
  8
Sc.1_5
 62
     9
  6
CONTINUOUS
370
    -2
100
AcDbLine
 10
2210.19556286
 20
-1766.87530616
 30
0.0
 11
2209.49457195
 21
-1767.0597947
 31
0.0
  0
LINE
  5
363
100
AcDbEntity
  8
Sc.1_5
 62
     9
  6
CONTINUOUS
370
    -2
100
AcDbLine
 10
2214.81436495
 20
-1764.20863953
 30
0.0
 11
2214.11337351
 21
-1764.3931282
 31
0.0
  0
LINE
  5
364
100
AcDbEntity
  8
Sc.1_5
 62
     9
  6
CONTINUOUS
370
    -2
100
AcDbLine
 10
2219.43316704
 20
-1761.5419729
 30
0.0
 11
2218.73217508
 21
-1761.72646171
 31
0.0
  0
LINE
  5
365
100
AcDbEntity
  8
Sc.1_5
 62
     9
  6
CONTINUOUS
370
    -2
100
AcDbLine
 10
2224.05196913
 20
-1758.87530627
 30
0.0
 11
2223.35097664
 21
-1759.05979522
 31
0.0
  0
LINE
  5
366
100
AcDbEntity
  8
Sc.1_5
 62
     9
  6
CONTINUOUS
370
    -2
100
AcDbLine
 10
2228.67077123
 20
-1756.20863964
 30
0.0
 11
2227.96977821
 21
-1756.39312873
 31
0.0
  0
LINE
  5
367
100
AcDbEntity
  8
Sc.1_5
 62
     9
  6
CONTINUOUS
370
    -2
100
AcDbLine
 10
2233.28957332
 20
-1753.54197301
 30
0.0
 11
2232.58857977
 21
-1753.72646223
 31
0.0
  0
LINE
  5
368
100
AcDbEntity
  8
Sc.1_5
 62
     9
  6
CONTINUOUS
370
    -2
100
AcDbLine
 10
2237.90837541
 20
-1750.87530638
 30
0.0
 11
2237.20738134
 21
-1751.05979574
 31
0.0
  0
LINE
  5
369
100
AcDbEntity
  8
Sc.1_5
 62
     9
  6
CONTINUOUS
370
    -2
100
AcDbLine
 10
2242.5271775
 20
-1748.20863975
 30
0.0
 11
2241.8261829
 21
-1748.39312925
 31
0.0
  0
LINE
  5
36A
100
AcDbEntity
  8
Sc.1_5
 62
     9
  6
CONTINUOUS
370
    -2
100
AcDbLine
 10
2247.14597928
 20
-1745.5419732
 30
0.0
 11
2246.44498447
 21
-1745.72646276
 31
0.0
  0
LINE
  5
36B
100
AcDbEntity
  8
Sc.1_5
 62
     9
  6
CONTINUOUS
370
    -2
100
AcDbLine
 10
2240.94511007
 20
-1730.86706785
 30
0.0
 11
2240.60711353
 21
-1731.47592114
 31
0.0
  0
LINE
  5
36C
100
AcDbEntity
  8
Sc.1_5
 62
     9
  6
CONTINUOUS
370
    -2
100
AcDbLine
 10
2236.3263075
 20
-1733.5337348
 30
0.0
 11
2235.98831096
 21
-1734.14258808
 31
0.0
  0
LINE
  5
36D
100
AcDbEntity
  8
Sc.1_5
 62
     9
  6
CONTINUOUS
370
    -2
100
AcDbLine
 10
2231.70750494
 20
-1736.20040174
 30
0.0
 11
2231.3695084
 21
-1736.80925503
 31
0.0
  0
LINE
  5
36E
100
AcDbEntity
  8
Sc.1_5
 62
     9
  6
CONTINUOUS
370
    -2
100
AcDbLine
 10
2227.08870238
 20
-1738.86706869
 30
0.0
 11
2226.75070584
 21
-1739.47592197
 31
0.0
  0
LINE
  5
36F
100
AcDbEntity
  8
Sc.1_5
 62
     9
  6
CONTINUOUS
370
    -2
100
AcDbLine
 10
2222.46989982
 20
-1741.53373563
 30
0.0
 11
2222.13190328
 21
-1742.14258891
 31
0.0
  0
LINE
  5
370
100
AcDbEntity
  8
Sc.1_5
 62
     9
  6
CONTINUOUS
370
    -2
100
AcDbLine
 10
2217.85109726
 20
-1744.20040257
 30
0.0
 11
2217.51310071
 21
-1744.80925586
 31
0.0
  0
LINE
  5
371
100
AcDbEntity
  8
Sc.1_5
 62
     9
  6
CONTINUOUS
370
    -2
100
AcDbLine
 10
2213.23229469
 20
-1746.86706952
 30
0.0
 11
2212.89429815
 21
-1747.4759228
 31
0.0
  0
LINE
  5
372
100
AcDbEntity
  8
Sc.1_5
 62
     9
  6
CONTINUOUS
370
    -2
100
AcDbLine
 10
2208.61349213
 20
-1749.53373646
 30
0.0
 11
2208.27549559
 21
-1750.14258974
 31
0.0
  0
LINE
  5
373
100
AcDbEntity
  8
Sc.1_5
 62
     9
  6
CONTINUOUS
370
    -2
100
AcDbLine
 10
2203.99468957
 20
-1752.2004034
 30
0.0
 11
2203.65669303
 21
-1752.80925669
 31
0.0
  0
LINE
  5
374
100
AcDbEntity
  8
Sc.1_5
 62
     9
  6
CONTINUOUS
370
    -2
100
AcDbLine
 10
2199.37588701
 20
-1754.86707035
 30
0.0
 11
2199.03789046
 21
-1755.47592363
 31
0.0
  0
LINE
  5
375
100
AcDbEntity
  8
Sc.1_5
 62
     9
  6
CONTINUOUS
370
    -2
100
AcDbLine
 10
2194.75708444
 20
-1757.53373729
 30
0.0
 11
2194.4190879
 21
-1758.14259057
 31
0.0
  0
LINE
  5
376
100
AcDbEntity
  8
Sc.1_5
 62
     9
  6
CONTINUOUS
370
    -2
100
AcDbLine
 10
2190.13828188
 20
-1760.20040423
 30
0.0
 11
2189.80028534
 21
-1760.80925752
 31
0.0
  0
LINE
  5
377
100
AcDbEntity
  8
Sc.1_5
 62
     9
  6
CONTINUOUS
370
    -2
100
AcDbLine
 10
2185.51947932
 20
-1762.86707118
 30
0.0
 11
2185.18148278
 21
-1763.47592446
 31
0.0
  0
LINE
  5
378
100
AcDbEntity
  8
Sc.1_5
 62
     9
  6
CONTINUOUS
370
    -2
100
AcDbLine
 10
2180.90067676
 20
-1765.53373812
 30
0.0
 11
2180.56268022
 21
-1766.1425914
 31
0.0
  0
LINE
  5
379
100
AcDbEntity
  8
Sc.1_5
 62
     9
  6
CONTINUOUS
370
    -2
100
AcDbLine
 10
2176.2818742
 20
-1768.20040506
 30
0.0
 11
2175.94387765
 21
-1768.80925835
 31
0.0
  0
LINE
  5
37A
100
AcDbEntity
  8
Sc.1_5
 62
     9
  6
CONTINUOUS
370
    -2
100
AcDbLine
 10
2238.15952932
 20
-1732.4753232
 30
0.0
 11
2238.85581
 21
-1732.48703629
 31
0.0
  0
LINE
  5
37B
100
AcDbEntity
  8
Sc.1_5
 62
     9
  6
CONTINUOUS
370
    -2
100
AcDbLine
 10
2233.54072655
 20
-1735.14198977
 30
0.0
 11
2234.23700723
 21
-1735.15370287
 31
0.0
  0
LINE
  5
37C
100
AcDbEntity
  8
Sc.1_5
 62
     9
  6
CONTINUOUS
370
    -2
100
AcDbLine
 10
2228.92192377
 20
-1737.80865635
 30
0.0
 11
2229.61820445
 21
-1737.82036944
 31
0.0
  0
LINE
  5
37D
100
AcDbEntity
  8
Sc.1_5
 62
     9
  6
CONTINUOUS
370
    -2
100
AcDbLine
 10
2224.303121
 20
-1740.47532292
 30
0.0
 11
2224.99940168
 21
-1740.48703602
 31
0.0
  0
LINE
  5
37E
100
AcDbEntity
  8
Sc.1_5
 62
     9
  6
CONTINUOUS
370
    -2
100
AcDbLine
 10
2219.68431822
 20
-1743.1419895
 30
0.0
 11
2220.3805989
 21
-1743.15370259
 31
0.0
  0
LINE
  5
37F
100
AcDbEntity
  8
Sc.1_5
 62
     9
  6
CONTINUOUS
370
    -2
100
AcDbLine
 10
2215.06551545
 20
-1745.80865607
 30
0.0
 11
2215.76179613
 21
-1745.82036917
 31
0.0
  0
LINE
  5
380
100
AcDbEntity
  8
Sc.1_5
 62
     9
  6
CONTINUOUS
370
    -2
100
AcDbLine
 10
2210.44671267
 20
-1748.47532265
 30
0.0
 11
2211.14299335
 21
-1748.48703574
 31
0.0
  0
LINE
  5
381
100
AcDbEntity
  8
Sc.1_5
 62
     9
  6
CONTINUOUS
370
    -2
100
AcDbLine
 10
2205.82790989
 20
-1751.14198922
 30
0.0
 11
2206.52419058
 21
-1751.15370232
 31
0.0
  0
LINE
  5
382
100
AcDbEntity
  8
Sc.1_5
 62
     9
  6
CONTINUOUS
370
    -2
100
AcDbLine
 10
2201.20910712
 20
-1753.80865579
 30
0.0
 11
2201.9053878
 21
-1753.82036889
 31
0.0
  0
LINE
  5
383
100
AcDbEntity
  8
Sc.1_5
 62
     9
  6
CONTINUOUS
370
    -2
100
AcDbLine
 10
2196.59030434
 20
-1756.47532237
 30
0.0
 11
2197.28658503
 21
-1756.48703547
 31
0.0
  0
LINE
  5
384
100
AcDbEntity
  8
Sc.1_5
 62
     9
  6
CONTINUOUS
370
    -2
100
AcDbLine
 10
2191.97150157
 20
-1759.14198894
 30
0.0
 11
2192.66778225
 21
-1759.15370204
 31
0.0
  0
LINE
  5
385
100
AcDbEntity
  8
Sc.1_5
 62
     9
  6
CONTINUOUS
370
    -2
100
AcDbLine
 10
2187.35269879
 20
-1761.80865552
 30
0.0
 11
2188.04897947
 21
-1761.82036862
 31
0.0
  0
LINE
  5
386
100
AcDbEntity
  8
Sc.1_5
 62
     9
  6
CONTINUOUS
370
    -2
100
AcDbLine
 10
2182.73389602
 20
-1764.47532209
 30
0.0
 11
2183.4301767
 21
-1764.48703519
 31
0.0
  0
LINE
  5
387
100
AcDbEntity
  8
Sc.1_5
 62
     9
  6
CONTINUOUS
370
    -2
100
AcDbLine
 10
2178.11509324
 20
-1767.14198867
 30
0.0
 11
2178.81137392
 21
-1767.15370176
 31
0.0
  0
LINE
  5
388
100
AcDbEntity
  8
Sc.1_5
 62
     9
  6
CONTINUOUS
370
    -2
100
AcDbLine
 10
2248.61278548
 20
-1744.06117043
 30
0.0
 11
2248.27478894
 21
-1744.67002372
 31
0.0
  0
LINE
  5
389
100
AcDbEntity
  8
Sc.1_5
 62
     9
  6
CONTINUOUS
370
    -2
100
AcDbLine
 10
2243.99398292
 20
-1746.72783738
 30
0.0
 11
2243.65598638
 21
-1747.33669066
 31
0.0
  0
LINE
  5
38A
100
AcDbEntity
  8
Sc.1_5
 62
     9
  6
CONTINUOUS
370
    -2
100
AcDbLine
 10
2239.37518036
 20
-1749.39450432
 30
0.0
 11
2239.03718382
 21
-1750.0033576
 31
0.0
  0
LINE
  5
38B
100
AcDbEntity
  8
Sc.1_5
 62
     9
  6
CONTINUOUS
370
    -2
100
AcDbLine
 10
2234.7563778
 20
-1752.06117126
 30
0.0
 11
2234.41838126
 21
-1752.67002455
 31
0.0
  0
LINE
  5
38C
100
AcDbEntity
  8
Sc.1_5
 62
     9
  6
CONTINUOUS
370
    -2
100
AcDbLine
 10
2230.13757524
 20
-1754.72783821
 30
0.0
 11
2229.79957869
 21
-1755.33669149
 31
0.0
  0
LINE
  5
38D
100
AcDbEntity
  8
Sc.1_5
 62
     9
  6
CONTINUOUS
370
    -2
100
AcDbLine
 10
2225.51877267
 20
-1757.39450515
 30
0.0
 11
2225.18077613
 21
-1758.00335843
 31
0.0
  0
LINE
  5
38E
100
AcDbEntity
  8
Sc.1_5
 62
     9
  6
CONTINUOUS
370
    -2
100
AcDbLine
 10
2220.89997011
 20
-1760.06117209
 30
0.0
 11
2220.56197357
 21
-1760.67002538
 31
0.0
  0
LINE
  5
38F
100
AcDbEntity
  8
Sc.1_5
 62
     9
  6
CONTINUOUS
370
    -2
100
AcDbLine
 10
2216.28116755
 20
-1762.72783904
 30
0.0
 11
2215.94317101
 21
-1763.33669232
 31
0.0
  0
LINE
  5
390
100
AcDbEntity
  8
Sc.1_5
 62
     9
  6
CONTINUOUS
370
    -2
100
AcDbLine
 10
2211.66236499
 20
-1765.39450598
 30
0.0
 11
2211.32436844
 21
-1766.00335926
 31
0.0
  0
LINE
  5
391
100
AcDbEntity
  8
Sc.1_5
 62
     9
  6
CONTINUOUS
370
    -2
100
AcDbLine
 10
2207.04356242
 20
-1768.06117292
 30
0.0
 11
2206.70556588
 21
-1768.67002621
 31
0.0
  0
LINE
  5
392
100
AcDbEntity
  8
Sc.1_5
 62
     9
  6
CONTINUOUS
370
    -2
100
AcDbLine
 10
2202.42475986
 20
-1770.72783987
 30
0.0
 11
2202.08676332
 21
-1771.33669315
 31
0.0
  0
LINE
  5
393
100
AcDbEntity
  8
Sc.1_5
 62
     9
  6
CONTINUOUS
370
    -2
100
AcDbLine
 10
2197.8059573
 20
-1773.39450681
 30
0.0
 11
2197.46796076
 21
-1774.0033601
 31
0.0
  0
LINE
  5
394
100
AcDbEntity
  8
Sc.1_5
 62
     9
  6
CONTINUOUS
370
    -2
100
AcDbLine
 10
2193.18715474
 20
-1776.06117375
 30
0.0
 11
2192.8491582
 21
-1776.67002704
 31
0.0
  0
LINE
  5
395
100
AcDbEntity
  8
Sc.1_5
 62
     9
  6
CONTINUOUS
370
    -2
100
AcDbLine
 10
2188.56835217
 20
-1778.7278407
 30
0.0
 11
2188.23035563
 21
-1779.33669398
 31
0.0
  0
LINE
  5
396
100
AcDbEntity
  8
Sc.1_5
 62
     9
  6
CONTINUOUS
370
    -2
100
AcDbLine
 10
2183.94954961
 20
-1781.39450764
 30
0.0
 11
2183.61155307
 21
-1782.00336093
 31
0.0
  0
LINE
  5
397
100
AcDbEntity
  8
Sc.1_5
 62
     9
  6
CONTINUOUS
370
    -2
100
AcDbLine
 10
2186.40055037
 20
-1780.39313308
 30
0.0
 11
2185.70426969
 21
-1780.38142003
 31
0.0
  0
LINE
  5
398
100
AcDbEntity
  8
Sc.1_5
 62
     9
  6
CONTINUOUS
370
    -2
100
AcDbLine
 10
2191.01935297
 20
-1777.7264662
 30
0.0
 11
2190.32307229
 21
-1777.71475315
 31
0.0
  0
LINE
  5
399
100
AcDbEntity
  8
Sc.1_5
 62
     9
  6
CONTINUOUS
370
    -2
100
AcDbLine
 10
2195.63815556
 20
-1775.05979932
 30
0.0
 11
2194.94187488
 21
-1775.04808627
 31
0.0
  0
LINE
  5
39A
100
AcDbEntity
  8
Sc.1_5
 62
     9
  6
CONTINUOUS
370
    -2
100
AcDbLine
 10
2200.25695816
 20
-1772.39313244
 30
0.0
 11
2199.56067748
 21
-1772.38141939
 31
0.0
  0
LINE
  5
39B
100
AcDbEntity
  8
Sc.1_5
 62
     9
  6
CONTINUOUS
370
    -2
100
AcDbLine
 10
2204.87576076
 20
-1769.72646555
 30
0.0
 11
2204.17948008
 21
-1769.7147525
 31
0.0
  0
LINE
  5
39C
100
AcDbEntity
  8
Sc.1_5
 62
     9
  6
CONTINUOUS
370
    -2
100
AcDbLine
 10
2209.49456336
 20
-1767.05979867
 30
0.0
 11
2208.79828268
 21
-1767.04808562
 31
0.0
  0
LINE
  5
39D
100
AcDbEntity
  8
Sc.1_5
 62
     9
  6
CONTINUOUS
370
    -2
100
AcDbLine
 10
2214.11336596
 20
-1764.39313179
 30
0.0
 11
2213.41708527
 21
-1764.38141874
 31
0.0
  0
LINE
  5
39E
100
AcDbEntity
  8
Sc.1_5
 62
     9
  6
CONTINUOUS
370
    -2
100
AcDbLine
 10
2218.73216855
 20
-1761.72646491
 30
0.0
 11
2218.03588787
 21
-1761.71475186
 31
0.0
  0
LINE
  5
39F
100
AcDbEntity
  8
Sc.1_5
 62
     9
  6
CONTINUOUS
370
    -2
100
AcDbLine
 10
2223.35097115
 20
-1759.05979802
 30
0.0
 11
2222.65469047
 21
-1759.04808497
 31
0.0
  0
LINE
  5
3A0
100
AcDbEntity
  8
Sc.1_5
 62
     9
  6
CONTINUOUS
370
    -2
100
AcDbLine
 10
2227.96977375
 20
-1756.39313114
 30
0.0
 11
2227.27349307
 21
-1756.38141809
 31
0.0
  0
LINE
  5
3A1
100
AcDbEntity
  8
Sc.1_5
 62
     9
  6
CONTINUOUS
370
    -2
100
AcDbLine
 10
2232.58857635
 20
-1753.72646426
 30
0.0
 11
2231.89229566
 21
-1753.71475121
 31
0.0
  0
LINE
  5
3A2
100
AcDbEntity
  8
Sc.1_5
 62
     9
  6
CONTINUOUS
370
    -2
100
AcDbLine
 10
2237.20737894
 20
-1751.05979738
 30
0.0
 11
2236.51109826
 21
-1751.04808433
 31
0.0
  0
LINE
  5
3A3
100
AcDbEntity
  8
Sc.1_5
 62
     9
  6
CONTINUOUS
370
    -2
100
AcDbLine
 10
2241.82618154
 20
-1748.3931305
 30
0.0
 11
2241.12990086
 21
-1748.38141745
 31
0.0
  0
LINE
  5
3A4
100
AcDbEntity
  8
Sc.1_5
 62
     9
  6
CONTINUOUS
370
    -2
100
AcDbLine
 10
2246.44498414
 20
-1745.72646361
 30
0.0
 11
2245.74870346
 21
-1745.71475056
 31
0.0
  0
LINE
  5
3A5
100
AcDbEntity
  8
Sc.1_5
 62
     9
  6
CONTINUOUS
370
    -2
100
AcDbLine
 10
2240.60711478
 20
-1731.47592119
 30
0.0
 11
2240.45384048
 21
-1732.04794864
 31
0.0
  0
LINE
  5
3A6
100
AcDbEntity
  8
Sc.1_5
 62
     9
  6
CONTINUOUS
370
    -2
100
AcDbLine
 10
2235.98831178
 20
-1734.14258835
 30
0.0
 11
2235.83503748
 21
-1734.7146158
 31
0.0
  0
LINE
  5
3A7
100
AcDbEntity
  8
Sc.1_5
 62
     9
  6
CONTINUOUS
370
    -2
100
AcDbLine
 10
2231.36950878
 20
-1736.8092555
 30
0.0
 11
2231.21623448
 21
-1737.38128295
 31
0.0
  0
LINE
  5
3A8
100
AcDbEntity
  8
Sc.1_5
 62
     9
  6
CONTINUOUS
370
    -2
100
AcDbLine
 10
2226.75070578
 20
-1739.47592266
 30
0.0
 11
2226.59743148
 21
-1740.04795011
 31
0.0
  0
LINE
  5
3A9
100
AcDbEntity
  8
Sc.1_5
 62
     9
  6
CONTINUOUS
370
    -2
100
AcDbLine
 10
2222.13190278
 20
-1742.14258981
 30
0.0
 11
2221.97862848
 21
-1742.71461726
 31
0.0
  0
LINE
  5
3AA
100
AcDbEntity
  8
Sc.1_5
 62
     9
  6
CONTINUOUS
370
    -2
100
AcDbLine
 10
2217.51309978
 20
-1744.80925697
 30
0.0
 11
2217.35982548
 21
-1745.38128442
 31
0.0
  0
LINE
  5
3AB
100
AcDbEntity
  8
Sc.1_5
 62
     9
  6
CONTINUOUS
370
    -2
100
AcDbLine
 10
2212.89429678
 20
-1747.47592412
 30
0.0
 11
2212.74102248
 21
-1748.04795157
 31
0.0
  0
LINE
  5
3AC
100
AcDbEntity
  8
Sc.1_5
 62
     9
  6
CONTINUOUS
370
    -2
100
AcDbLine
 10
2208.27549378
 20
-1750.14259128
 30
0.0
 11
2208.12221948
 21
-1750.71461873
 31
0.0
  0
LINE
  5
3AD
100
AcDbEntity
  8
Sc.1_5
 62
     9
  6
CONTINUOUS
370
    -2
100
AcDbLine
 10
2203.65669078
 20
-1752.80925843
 30
0.0
 11
2203.50341648
 21
-1753.38128588
 31
0.0
  0
LINE
  5
3AE
100
AcDbEntity
  8
Sc.1_5
 62
     9
  6
CONTINUOUS
370
    -2
100
AcDbLine
 10
2199.03788778
 20
-1755.47592559
 30
0.0
 11
2198.88461348
 21
-1756.04795304
 31
0.0
  0
LINE
  5
3AF
100
AcDbEntity
  8
Sc.1_5
 62
     9
  6
CONTINUOUS
370
    -2
100
AcDbLine
 10
2194.41908478
 20
-1758.14259275
 30
0.0
 11
2194.26581049
 21
-1758.71462019
 31
0.0
  0
LINE
  5
3B0
100
AcDbEntity
  8
Sc.1_5
 62
     9
  6
CONTINUOUS
370
    -2
100
AcDbLine
 10
2189.80028178
 20
-1760.8092599
 30
0.0
 11
2189.64700749
 21
-1761.38128735
 31
0.0
  0
LINE
  5
3B1
100
AcDbEntity
  8
Sc.1_5
 62
     9
  6
CONTINUOUS
370
    -2
100
AcDbLine
 10
2185.18147878
 20
-1763.47592706
 30
0.0
 11
2185.02820449
 21
-1764.0479545
 31
0.0
  0
LINE
  5
3B2
100
AcDbEntity
  8
Sc.1_5
 62
     9
  6
CONTINUOUS
370
    -2
100
AcDbLine
 10
2180.56267578
 20
-1766.14259421
 30
0.0
 11
2180.40940149
 21
-1766.71462166
 31
0.0
  0
LINE
  5
3B3
100
AcDbEntity
  8
Sc.1_5
 62
     9
  6
CONTINUOUS
370
    -2
100
AcDbLine
 10
2175.94387278
 20
-1768.80926137
 30
0.0
 11
2175.79059849
 21
-1769.38128881
 31
0.0
  0
LINE
  5
3B4
100
AcDbEntity
  8
Sc.1_5
 62
     9
  6
CONTINUOUS
370
    -2
100
AcDbLine
 10
2238.85239226
 20
-1732.48901071
 30
0.0
 11
2239.42441971
 21
-1732.642285
 31
0.0
  0
LINE
  5
3B5
100
AcDbEntity
  8
Sc.1_5
 62
     9
  6
CONTINUOUS
370
    -2
100
AcDbLine
 10
2234.23358926
 20
-1735.15567786
 30
0.0
 11
2234.80561671
 21
-1735.30895216
 31
0.0
  0
LINE
  5
3B6
100
AcDbEntity
  8
Sc.1_5
 62
     9
  6
CONTINUOUS
370
    -2
100
AcDbLine
 10
2229.61478626
 20
-1737.82234502
 30
0.0
 11
2230.18681371
 21
-1737.97561931
 31
0.0
  0
LINE
  5
3B7
100
AcDbEntity
  8
Sc.1_5
 62
     9
  6
CONTINUOUS
370
    -2
100
AcDbLine
 10
2224.99598326
 20
-1740.48901218
 30
0.0
 11
2225.56801071
 21
-1740.64228647
 31
0.0
  0
LINE
  5
3B8
100
AcDbEntity
  8
Sc.1_5
 62
     9
  6
CONTINUOUS
370
    -2
100
AcDbLine
 10
2220.37718026
 20
-1743.15567933
 30
0.0
 11
2220.94920771
 21
-1743.30895362
 31
0.0
  0
LINE
  5
3B9
100
AcDbEntity
  8
Sc.1_5
 62
     9
  6
CONTINUOUS
370
    -2
100
AcDbLine
 10
2215.75837726
 20
-1745.82234649
 30
0.0
 11
2216.33040471
 21
-1745.97562078
 31
0.0
  0
LINE
  5
3BA
100
AcDbEntity
  8
Sc.1_5
 62
     9
  6
CONTINUOUS
370
    -2
100
AcDbLine
 10
2211.13957426
 20
-1748.48901364
 30
0.0
 11
2211.71160171
 21
-1748.64228793
 31
0.0
  0
LINE
  5
3BB
100
AcDbEntity
  8
Sc.1_5
 62
     9
  6
CONTINUOUS
370
    -2
100
AcDbLine
 10
2206.52077126
 20
-1751.1556808
 30
0.0
 11
2207.09279871
 21
-1751.30895509
 31
0.0
  0
LINE
  5
3BC
100
AcDbEntity
  8
Sc.1_5
 62
     9
  6
CONTINUOUS
370
    -2
100
AcDbLine
 10
2201.90196826
 20
-1753.82234795
 30
0.0
 11
2202.47399571
 21
-1753.97562224
 31
0.0
  0
LINE
  5
3BD
100
AcDbEntity
  8
Sc.1_5
 62
     9
  6
CONTINUOUS
370
    -2
100
AcDbLine
 10
2197.28316526
 20
-1756.48901511
 30
0.0
 11
2197.85519271
 21
-1756.6422894
 31
0.0
  0
LINE
  5
3BE
100
AcDbEntity
  8
Sc.1_5
 62
     9
  6
CONTINUOUS
370
    -2
100
AcDbLine
 10
2192.66436226
 20
-1759.15568226
 30
0.0
 11
2193.23638971
 21
-1759.30895656
 31
0.0
  0
LINE
  5
3BF
100
AcDbEntity
  8
Sc.1_5
 62
     9
  6
CONTINUOUS
370
    -2
100
AcDbLine
 10
2188.04555926
 20
-1761.82234942
 30
0.0
 11
2188.61758671
 21
-1761.97562371
 31
0.0
  0
LINE
  5
3C0
100
AcDbEntity
  8
Sc.1_5
 62
     9
  6
CONTINUOUS
370
    -2
100
AcDbLine
 10
2183.42675626
 20
-1764.48901657
 30
0.0
 11
2183.99878371
 21
-1764.64229087
 31
0.0
  0
LINE
  5
3C1
100
AcDbEntity
  8
Sc.1_5
 62
     9
  6
CONTINUOUS
370
    -2
100
AcDbLine
 10
2178.80795326
 20
-1767.15568373
 30
0.0
 11
2179.37998071
 21
-1767.30895802
 31
0.0
  0
LINE
  5
3C2
100
AcDbEntity
  8
Sc.1_5
 62
     9
  6
CONTINUOUS
370
    -2
100
AcDbLine
 10
2248.76605964
 20
-1743.48914494
 30
0.0
 11
2248.61278534
 21
-1744.06117239
 31
0.0
  0
LINE
  5
3C3
100
AcDbEntity
  8
Sc.1_5
 62
     9
  6
CONTINUOUS
370
    -2
100
AcDbLine
 10
2244.14725664
 20
-1746.15581209
 30
0.0
 11
2243.99398234
 21
-1746.72783954
 31
0.0
  0
LINE
  5
3C4
100
AcDbEntity
  8
Sc.1_5
 62
     9
  6
CONTINUOUS
370
    -2
100
AcDbLine
 10
2239.52845364
 20
-1748.82247925
 30
0.0
 11
2239.37517934
 21
-1749.3945067
 31
0.0
  0
LINE
  5
3C5
100
AcDbEntity
  8
Sc.1_5
 62
     9
  6
CONTINUOUS
370
    -2
100
AcDbLine
 10
2234.90965064
 20
-1751.4891464
 30
0.0
 11
2234.75637634
 21
-1752.06117385
 31
0.0
  0
LINE
  5
3C6
100
AcDbEntity
  8
Sc.1_5
 62
     9
  6
CONTINUOUS
370
    -2
100
AcDbLine
 10
2230.29084764
 20
-1754.15581356
 30
0.0
 11
2230.13757335
 21
-1754.72784101
 31
0.0
  0
LINE
  5
3C7
100
AcDbEntity
  8
Sc.1_5
 62
     9
  6
CONTINUOUS
370
    -2
100
AcDbLine
 10
2225.67204464
 20
-1756.82248072
 30
0.0
 11
2225.51877035
 21
-1757.39450816
 31
0.0
  0
LINE
  5
3C8
100
AcDbEntity
  8
Sc.1_5
 62
     9
  6
CONTINUOUS
370
    -2
100
AcDbLine
 10
2221.05324164
 20
-1759.48914787
 30
0.0
 11
2220.89996735
 21
-1760.06117532
 31
0.0
  0
LINE
  5
3C9
100
AcDbEntity
  8
Sc.1_5
 62
     9
  6
CONTINUOUS
370
    -2
100
AcDbLine
 10
2216.43443864
 20
-1762.15581503
 30
0.0
 11
2216.28116435
 21
-1762.72784247
 31
0.0
  0
LINE
  5
3CA
100
AcDbEntity
  8
Sc.1_5
 62
     9
  6
CONTINUOUS
370
    -2
100
AcDbLine
 10
2211.81563564
 20
-1764.82248218
 30
0.0
 11
2211.66236135
 21
-1765.39450963
 31
0.0
  0
LINE
  5
3CB
100
AcDbEntity
  8
Sc.1_5
 62
     9
  6
CONTINUOUS
370
    -2
100
AcDbLine
 10
2207.19683264
 20
-1767.48914934
 30
0.0
 11
2207.04355835
 21
-1768.06117678
 31
0.0
  0
LINE
  5
3CC
100
AcDbEntity
  8
Sc.1_5
 62
     9
  6
CONTINUOUS
370
    -2
100
AcDbLine
 10
2202.57802964
 20
-1770.15581649
 30
0.0
 11
2202.42475535
 21
-1770.72784394
 31
0.0
  0
LINE
  5
3CD
100
AcDbEntity
  8
Sc.1_5
 62
     9
  6
CONTINUOUS
370
    -2
100
AcDbLine
 10
2197.95922664
 20
-1772.82248365
 30
0.0
 11
2197.80595235
 21
-1773.3945111
 31
0.0
  0
LINE
  5
3CE
100
AcDbEntity
  8
Sc.1_5
 62
     9
  6
CONTINUOUS
370
    -2
100
AcDbLine
 10
2193.34042364
 20
-1775.4891508
 30
0.0
 11
2193.18714935
 21
-1776.06117825
 31
0.0
  0
LINE
  5
3CF
100
AcDbEntity
  8
Sc.1_5
 62
     9
  6
CONTINUOUS
370
    -2
100
AcDbLine
 10
2188.72162064
 20
-1778.15581796
 30
0.0
 11
2188.56834635
 21
-1778.72784541
 31
0.0
  0
LINE
  5
3D0
100
AcDbEntity
  8
Sc.1_5
 62
     9
  6
CONTINUOUS
370
    -2
100
AcDbLine
 10
2184.10281764
 20
-1780.82248511
 30
0.0
 11
2183.94954335
 21
-1781.39451256
 31
0.0
  0
LINE
  5
3D1
100
AcDbEntity
  8
Sc.1_5
 62
     9
  6
CONTINUOUS
370
    -2
100
AcDbLine
 10
2185.70426452
 20
-1780.38142195
 30
0.0
 11
2185.13223707
 21
-1780.22814765
 31
0.0
  0
LINE
  5
3D2
100
AcDbEntity
  8
Sc.1_5
 62
     9
  6
CONTINUOUS
370
    -2
100
AcDbLine
 10
2190.32306752
 20
-1777.71475479
 30
0.0
 11
2189.75104007
 21
-1777.5614805
 31
0.0
  0
LINE
  5
3D3
100
AcDbEntity
  8
Sc.1_5
 62
     9
  6
CONTINUOUS
370
    -2
100
AcDbLine
 10
2194.94187052
 20
-1775.04808764
 30
0.0
 11
2194.36984307
 21
-1774.89481334
 31
0.0
  0
LINE
  5
3D4
100
AcDbEntity
  8
Sc.1_5
 62
     9
  6
CONTINUOUS
370
    -2
100
AcDbLine
 10
2199.56067352
 20
-1772.38142048
 30
0.0
 11
2198.98864607
 21
-1772.22814619
 31
0.0
  0
LINE
  5
3D5
100
AcDbEntity
  8
Sc.1_5
 62
     9
  6
CONTINUOUS
370
    -2
100
AcDbLine
 10
2204.17947652
 20
-1769.71475333
 30
0.0
 11
2203.60744907
 21
-1769.56147903
 31
0.0
  0
LINE
  5
3D6
100
AcDbEntity
  8
Sc.1_5
 62
     9
  6
CONTINUOUS
370
    -2
100
AcDbLine
 10
2208.79827951
 20
-1767.04808617
 30
0.0
 11
2208.22625207
 21
-1766.89481188
 31
0.0
  0
LINE
  5
3D7
100
AcDbEntity
  8
Sc.1_5
 62
     9
  6
CONTINUOUS
370
    -2
100
AcDbLine
 10
2213.41708251
 20
-1764.38141902
 30
0.0
 11
2212.84505507
 21
-1764.22814472
 31
0.0
  0
LINE
  5
3D8
100
AcDbEntity
  8
Sc.1_5
 62
     9
  6
CONTINUOUS
370
    -2
100
AcDbLine
 10
2218.03588551
 20
-1761.71475186
 30
0.0
 11
2217.46385807
 21
-1761.56147757
 31
0.0
  0
LINE
  5
3D9
100
AcDbEntity
  8
Sc.1_5
 62
     9
  6
CONTINUOUS
370
    -2
100
AcDbLine
 10
2222.65468851
 20
-1759.04808471
 30
0.0
 11
2222.08266107
 21
-1758.89481041
 31
0.0
  0
LINE
  5
3DA
100
AcDbEntity
  8
Sc.1_5
 62
     9
  6
CONTINUOUS
370
    -2
100
AcDbLine
 10
2227.27349151
 20
-1756.38141755
 30
0.0
 11
2226.70146407
 21
-1756.22814326
 31
0.0
  0
LINE
  5
3DB
100
AcDbEntity
  8
Sc.1_5
 62
     9
  6
CONTINUOUS
370
    -2
100
AcDbLine
 10
2231.89229451
 20
-1753.71475039
 30
0.0
 11
2231.32026707
 21
-1753.5614761
 31
0.0
  0
LINE
  5
3DC
100
AcDbEntity
  8
Sc.1_5
 62
     9
  6
CONTINUOUS
370
    -2
100
AcDbLine
 10
2236.51109751
 20
-1751.04808324
 30
0.0
 11
2235.93907007
 21
-1750.89480895
 31
0.0
  0
LINE
  5
3DD
100
AcDbEntity
  8
Sc.1_5
 62
     9
  6
CONTINUOUS
370
    -2
100
AcDbLine
 10
2241.12990051
 20
-1748.38141608
 30
0.0
 11
2240.55787307
 21
-1748.22814179
 31
0.0
  0
LINE
  5
3DE
100
AcDbEntity
  8
Sc.1_5
 62
     9
  6
CONTINUOUS
370
    -2
100
AcDbLine
 10
2245.74870351
 20
-1745.71474893
 30
0.0
 11
2245.17667607
 21
-1745.56147464
 31
0.0
  0
LINE
  5
3DF
100
AcDbEntity
  8
Sc.1_5
 62
     9
  6
CONTINUOUS
370
    -2
100
AcDbLine
 10
2240.4538395
 20
-1732.04794789
 30
0.0
 11
2240.41386166
 21
-1732.66782651
 31
0.0
  0
LINE
  5
3E0
100
AcDbEntity
  8
Sc.1_5
 62
     9
  6
CONTINUOUS
370
    -2
100
AcDbLine
 10
2235.83503735
 20
-1734.71461525
 30
0.0
 11
2235.7950595
 21
-1735.33449387
 31
0.0
  0
LINE
  5
3E1
100
AcDbEntity
  8
Sc.1_5
 62
     9
  6
CONTINUOUS
370
    -2
100
AcDbLine
 10
2231.21623519
 20
-1737.38128261
 30
0.0
 11
2231.17625735
 21
-1738.00116123
 31
0.0
  0
LINE
  5
3E2
100
AcDbEntity
  8
Sc.1_5
 62
     9
  6
CONTINUOUS
370
    -2
100
AcDbLine
 10
2226.59743304
 20
-1740.04794998
 30
0.0
 11
2226.5574552
 21
-1740.6678286
 31
0.0
  0
LINE
  5
3E3
100
AcDbEntity
  8
Sc.1_5
 62
     9
  6
CONTINUOUS
370
    -2
100
AcDbLine
 10
2221.97863088
 20
-1742.71461734
 30
0.0
 11
2221.93865304
 21
-1743.33449596
 31
0.0
  0
LINE
  5
3E4
100
AcDbEntity
  8
Sc.1_5
 62
     9
  6
CONTINUOUS
370
    -2
100
AcDbLine
 10
2217.35982873
 20
-1745.3812847
 30
0.0
 11
2217.31985089
 21
-1746.00116333
 31
0.0
  0
LINE
  5
3E5
100
AcDbEntity
  8
Sc.1_5
 62
     9
  6
CONTINUOUS
370
    -2
100
AcDbLine
 10
2212.74102658
 20
-1748.04795207
 30
0.0
 11
2212.70104873
 21
-1748.66783069
 31
0.0
  0
LINE
  5
3E6
100
AcDbEntity
  8
Sc.1_5
 62
     9
  6
CONTINUOUS
370
    -2
100
AcDbLine
 10
2208.12222442
 20
-1750.71461943
 30
0.0
 11
2208.08224658
 21
-1751.33449805
 31
0.0
  0
LINE
  5
3E7
100
AcDbEntity
  8
Sc.1_5
 62
     9
  6
CONTINUOUS
370
    -2
100
AcDbLine
 10
2203.50342227
 20
-1753.3812868
 30
0.0
 11
2203.46344443
 21
-1754.00116542
 31
0.0
  0
LINE
  5
3E8
100
AcDbEntity
  8
Sc.1_5
 62
     9
  6
CONTINUOUS
370
    -2
100
AcDbLine
 10
2198.88462012
 20
-1756.04795416
 30
0.0
 11
2198.84464227
 21
-1756.66783278
 31
0.0
  0
LINE
  5
3E9
100
AcDbEntity
  8
Sc.1_5
 62
     9
  6
CONTINUOUS
370
    -2
100
AcDbLine
 10
2194.26581796
 20
-1758.71462152
 30
0.0
 11
2194.22584012
 21
-1759.33450014
 31
0.0
  0
LINE
  5
3EA
100
AcDbEntity
  8
Sc.1_5
 62
     9
  6
CONTINUOUS
370
    -2
100
AcDbLine
 10
2189.64701581
 20
-1761.38128889
 30
0.0
 11
2189.60703797
 21
-1762.00116751
 31
0.0
  0
LINE
  5
3EB
100
AcDbEntity
  8
Sc.1_5
 62
     9
  6
CONTINUOUS
370
    -2
100
AcDbLine
 10
2185.02821366
 20
-1764.04795625
 30
0.0
 11
2184.98823581
 21
-1764.66783487
 31
0.0
  0
LINE
  5
3EC
100
AcDbEntity
  8
Sc.1_5
 62
     9
  6
CONTINUOUS
370
    -2
100
AcDbLine
 10
2180.4094115
 20
-1766.71462362
 30
0.0
 11
2180.36943366
 21
-1767.33450224
 31
0.0
  0
LINE
  5
3ED
100
AcDbEntity
  8
Sc.1_5
 62
     9
  6
CONTINUOUS
370
    -2
100
AcDbLine
 10
2175.79060935
 20
-1769.38129098
 30
0.0
 11
2175.77421655
 21
-1769.63547038
 31
0.0
  0
LINE
  5
3EE
100
AcDbEntity
  8
Sc.1_5
 62
     9
  6
CONTINUOUS
370
    -2
100
AcDbLine
 10
2239.42441961
 20
-1732.64228263
 30
0.0
 11
2239.98123915
 21
-1732.91760015
 31
0.0
  0
LINE
  5
3EF
100
AcDbEntity
  8
Sc.1_5
 62
     9
  6
CONTINUOUS
370
    -2
100
AcDbLine
 10
2234.80561668
 20
-1735.30894864
 30
0.0
 11
2235.36243621
 21
-1735.58426616
 31
0.0
  0
LINE
  5
3F0
100
AcDbEntity
  8
Sc.1_5
 62
     9
  6
CONTINUOUS
370
    -2
100
AcDbLine
 10
2230.18681374
 20
-1737.97561465
 30
0.0
 11
2230.74363328
 21
-1738.25093217
 31
0.0
  0
LINE
  5
3F1
100
AcDbEntity
  8
Sc.1_5
 62
     9
  6
CONTINUOUS
370
    -2
100
AcDbLine
 10
2225.56801081
 20
-1740.64228066
 30
0.0
 11
2226.12483034
 21
-1740.91759818
 31
0.0
  0
LINE
  5
3F2
100
AcDbEntity
  8
Sc.1_5
 62
     9
  6
CONTINUOUS
370
    -2
100
AcDbLine
 10
2220.94920787
 20
-1743.30894667
 30
0.0
 11
2221.50602741
 21
-1743.58426419
 31
0.0
  0
LINE
  5
3F3
100
AcDbEntity
  8
Sc.1_5
 62
     9
  6
CONTINUOUS
370
    -2
100
AcDbLine
 10
2216.33040494
 20
-1745.97561268
 30
0.0
 11
2216.88722447
 21
-1746.2509302
 31
0.0
  0
LINE
  5
3F4
100
AcDbEntity
  8
Sc.1_5
 62
     9
  6
CONTINUOUS
370
    -2
100
AcDbLine
 10
2211.711602
 20
-1748.64227869
 30
0.0
 11
2212.26842154
 21
-1748.91759621
 31
0.0
  0
LINE
  5
3F5
100
AcDbEntity
  8
Sc.1_5
 62
     9
  6
CONTINUOUS
370
    -2
100
AcDbLine
 10
2207.09279907
 20
-1751.3089447
 30
0.0
 11
2207.6496186
 21
-1751.58426222
 31
0.0
  0
LINE
  5
3F6
100
AcDbEntity
  8
Sc.1_5
 62
     9
  6
CONTINUOUS
370
    -2
100
AcDbLine
 10
2202.47399613
 20
-1753.97561071
 30
0.0
 11
2203.03081567
 21
-1754.25092823
 31
0.0
  0
LINE
  5
3F7
100
AcDbEntity
  8
Sc.1_5
 62
     9
  6
CONTINUOUS
370
    -2
100
AcDbLine
 10
2197.8551932
 20
-1756.64227672
 30
0.0
 11
2198.41201273
 21
-1756.91759424
 31
0.0
  0
LINE
  5
3F8
100
AcDbEntity
  8
Sc.1_5
 62
     9
  6
CONTINUOUS
370
    -2
100
AcDbLine
 10
2193.23639026
 20
-1759.30894273
 30
0.0
 11
2193.7932098
 21
-1759.58426025
 31
0.0
  0
LINE
  5
3F9
100
AcDbEntity
  8
Sc.1_5
 62
     9
  6
CONTINUOUS
370
    -2
100
AcDbLine
 10
2188.61758733
 20
-1761.97560874
 30
0.0
 11
2189.17440686
 21
-1762.25092626
 31
0.0
  0
LINE
  5
3FA
100
AcDbEntity
  8
Sc.1_5
 62
     9
  6
CONTINUOUS
370
    -2
100
AcDbLine
 10
2183.99878439
 20
-1764.64227475
 30
0.0
 11
2184.55560393
 21
-1764.91759227
 31
0.0
  0
LINE
  5
3FB
100
AcDbEntity
  8
Sc.1_5
 62
     9
  6
CONTINUOUS
370
    -2
100
AcDbLine
 10
2179.37998146
 20
-1767.30894076
 30
0.0
 11
2179.936801
 21
-1767.58425828
 31
0.0
  0
LINE
  5
3FC
100
AcDbEntity
  8
Sc.1_5
 62
     9
  6
CONTINUOUS
370
    -2
100
AcDbLine
 10
2248.80603739
 20
-1742.86926528
 30
0.0
 11
2248.76605955
 21
-1743.4891439
 31
0.0
  0
LINE
  5
3FD
100
AcDbEntity
  8
Sc.1_5
 62
     9
  6
CONTINUOUS
370
    -2
100
AcDbLine
 10
2244.18723524
 20
-1745.53593264
 30
0.0
 11
2244.14725739
 21
-1746.15581126
 31
0.0
  0
LINE
  5
3FE
100
AcDbEntity
  8
Sc.1_5
 62
     9
  6
CONTINUOUS
370
    -2
100
AcDbLine
 10
2239.56843308
 20
-1748.2026
 30
0.0
 11
2239.52845524
 21
-1748.82247862
 31
0.0
  0
LINE
  5
3FF
100
AcDbEntity
  8
Sc.1_5
 62
     9
  6
CONTINUOUS
370
    -2
100
AcDbLine
 10
2234.94963093
 20
-1750.86926737
 30
0.0
 11
2234.90965309
 21
-1751.48914599
 31
0.0
  0
LINE
  5
400
100
AcDbEntity
  8
Sc.1_5
 62
     9
  6
CONTINUOUS
370
    -2
100
AcDbLine
 10
2230.33082878
 20
-1753.53593473
 30
0.0
 11
2230.29085093
 21
-1754.15581335
 31
0.0
  0
LINE
  5
401
100
AcDbEntity
  8
Sc.1_5
 62
     9
  6
CONTINUOUS
370
    -2
100
AcDbLine
 10
2225.71202662
 20
-1756.20260209
 30
0.0
 11
2225.67204878
 21
-1756.82248072
 31
0.0
  0
LINE
  5
402
100
AcDbEntity
  8
Sc.1_5
 62
     9
  6
CONTINUOUS
370
    -2
100
AcDbLine
 10
2221.09322447
 20
-1758.86926946
 30
0.0
 11
2221.05324663
 21
-1759.48914808
 31
0.0
  0
LINE
  5
403
100
AcDbEntity
  8
Sc.1_5
 62
     9
  6
CONTINUOUS
370
    -2
100
AcDbLine
 10
2216.47442232
 20
-1761.53593682
 30
0.0
 11
2216.43444447
 21
-1762.15581544
 31
0.0
  0
LINE
  5
404
100
AcDbEntity
  8
Sc.1_5
 62
     9
  6
CONTINUOUS
370
    -2
100
AcDbLine
 10
2211.85562016
 20
-1764.20260419
 30
0.0
 11
2211.81564232
 21
-1764.82248281
 31
0.0
  0
LINE
  5
405
100
AcDbEntity
  8
Sc.1_5
 62
     9
  6
CONTINUOUS
370
    -2
100
AcDbLine
 10
2207.23681801
 20
-1766.86927155
 30
0.0
 11
2207.19684017
 21
-1767.48915017
 31
0.0
  0
LINE
  5
406
100
AcDbEntity
  8
Sc.1_5
 62
     9
  6
CONTINUOUS
370
    -2
100
AcDbLine
 10
2202.61801586
 20
-1769.53593891
 30
0.0
 11
2202.57803801
 21
-1770.15581753
 31
0.0
  0
LINE
  5
407
100
AcDbEntity
  8
Sc.1_5
 62
     9
  6
CONTINUOUS
370
    -2
100
AcDbLine
 10
2197.9992137
 20
-1772.20260628
 30
0.0
 11
2197.95923586
 21
-1772.8224849
 31
0.0
  0
LINE
  5
408
100
AcDbEntity
  8
Sc.1_5
 62
     9
  6
CONTINUOUS
370
    -2
100
AcDbLine
 10
2193.38041155
 20
-1774.86927364
 30
0.0
 11
2193.34043371
 21
-1775.48915226
 31
0.0
  0
LINE
  5
409
100
AcDbEntity
  8
Sc.1_5
 62
     9
  6
CONTINUOUS
370
    -2
100
AcDbLine
 10
2188.76160939
 20
-1777.53594101
 30
0.0
 11
2188.72163155
 21
-1778.15581963
 31
0.0
  0
LINE
  5
40A
100
AcDbEntity
  8
Sc.1_5
 62
     9
  6
CONTINUOUS
370
    -2
100
AcDbLine
 10
2184.14280724
 20
-1780.20260837
 30
0.0
 11
2184.1028294
 21
-1780.82248699
 31
0.0
  0
LINE
  5
40B
100
AcDbEntity
  8
Sc.1_5
 62
     9
  6
CONTINUOUS
370
    -2
100
AcDbLine
 10
2185.13224079
 20
-1780.22813832
 30
0.0
 11
2184.57542123
 21
-1779.95282084
 31
0.0
  0
LINE
  5
40C
100
AcDbEntity
  8
Sc.1_5
 62
     9
  6
CONTINUOUS
370
    -2
100
AcDbLine
 10
2189.75104354
 20
-1777.561472
 30
0.0
 11
2189.19422399
 21
-1777.28615452
 31
0.0
  0
LINE
  5
40D
100
AcDbEntity
  8
Sc.1_5
 62
     9
  6
CONTINUOUS
370
    -2
100
AcDbLine
 10
2194.3698463
 20
-1774.89480568
 30
0.0
 11
2193.81302675
 21
-1774.6194882
 31
0.0
  0
LINE
  5
40E
100
AcDbEntity
  8
Sc.1_5
 62
     9
  6
CONTINUOUS
370
    -2
100
AcDbLine
 10
2198.98864906
 20
-1772.22813936
 30
0.0
 11
2198.4318295
 21
-1771.95282188
 31
0.0
  0
LINE
  5
40F
100
AcDbEntity
  8
Sc.1_5
 62
     9
  6
CONTINUOUS
370
    -2
100
AcDbLine
 10
2203.60745182
 20
-1769.56147305
 30
0.0
 11
2203.05063226
 21
-1769.28615556
 31
0.0
  0
LINE
  5
410
100
AcDbEntity
  8
Sc.1_5
 62
     9
  6
CONTINUOUS
370
    -2
100
AcDbLine
 10
2208.22625457
 20
-1766.89480673
 30
0.0
 11
2207.66943502
 21
-1766.61948925
 31
0.0
  0
LINE
  5
411
100
AcDbEntity
  8
Sc.1_5
 62
     9
  6
CONTINUOUS
370
    -2
100
AcDbLine
 10
2212.84505733
 20
-1764.22814041
 30
0.0
 11
2212.28823778
 21
-1763.95282293
 31
0.0
  0
LINE
  5
412
100
AcDbEntity
  8
Sc.1_5
 62
     9
  6
CONTINUOUS
370
    -2
100
AcDbLine
 10
2217.46386009
 20
-1761.56147409
 30
0.0
 11
2216.90704053
 21
-1761.28615661
 31
0.0
  0
LINE
  5
413
100
AcDbEntity
  8
Sc.1_5
 62
     9
  6
CONTINUOUS
370
    -2
100
AcDbLine
 10
2222.08266284
 20
-1758.89480777
 30
0.0
 11
2221.52584329
 21
-1758.61949029
 31
0.0
  0
LINE
  5
414
100
AcDbEntity
  8
Sc.1_5
 62
     9
  6
CONTINUOUS
370
    -2
100
AcDbLine
 10
2226.7014656
 20
-1756.22814146
 30
0.0
 11
2226.14464605
 21
-1755.95282397
 31
0.0
  0
LINE
  5
415
100
AcDbEntity
  8
Sc.1_5
 62
     9
  6
CONTINUOUS
370
    -2
100
AcDbLine
 10
2231.32026836
 20
-1753.56147514
 30
0.0
 11
2230.7634488
 21
-1753.28615766
 31
0.0
  0
LINE
  5
416
100
AcDbEntity
  8
Sc.1_5
 62
     9
  6
CONTINUOUS
370
    -2
100
AcDbLine
 10
2235.93907112
 20
-1750.89480882
 30
0.0
 11
2235.38225156
 21
-1750.61949134
 31
0.0
  0
LINE
  5
417
100
AcDbEntity
  8
Sc.1_5
 62
     9
  6
CONTINUOUS
370
    -2
100
AcDbLine
 10
2240.55787387
 20
-1748.2281425
 30
0.0
 11
2240.00105432
 21
-1747.95282502
 31
0.0
  0
LINE
  5
418
100
AcDbEntity
  8
Sc.1_5
 62
     9
  6
CONTINUOUS
370
    -2
100
AcDbLine
 10
2245.17667663
 20
-1745.56147618
 30
0.0
 11
2244.61985708
 21
-1745.2861587
 31
0.0
  0
LINE
  5
419
100
AcDbEntity
  8
Sc.1_5
 62
     9
  6
CONTINUOUS
370
    -2
100
AcDbLine
 10
2240.41386122
 20
-1732.66782664
 30
0.0
 11
2240.57221181
 21
-1733.44164679
 31
0.0
  0
LINE
  5
41A
100
AcDbEntity
  8
Sc.1_5
 62
     9
  6
CONTINUOUS
370
    -2
100
AcDbLine
 10
2235.79505857
 20
-1735.3344939
 30
0.0
 11
2235.95340916
 21
-1736.10831405
 31
0.0
  0
LINE
  5
41B
100
AcDbEntity
  8
Sc.1_5
 62
     9
  6
CONTINUOUS
370
    -2
100
AcDbLine
 10
2231.17625592
 20
-1738.00116116
 30
0.0
 11
2231.33460651
 21
-1738.77498131
 31
0.0
  0
LINE
  5
41C
100
AcDbEntity
  8
Sc.1_5
 62
     9
  6
CONTINUOUS
370
    -2
100
AcDbLine
 10
2226.55745327
 20
-1740.66782843
 30
0.0
 11
2226.71580386
 21
-1741.44164857
 31
0.0
  0
LINE
  5
41D
100
AcDbEntity
  8
Sc.1_5
 62
     9
  6
CONTINUOUS
370
    -2
100
AcDbLine
 10
2221.93865062
 20
-1743.33449569
 30
0.0
 11
2222.09700121
 21
-1744.10831583
 31
0.0
  0
LINE
  5
41E
100
AcDbEntity
  8
Sc.1_5
 62
     9
  6
CONTINUOUS
370
    -2
100
AcDbLine
 10
2217.31984797
 20
-1746.00116295
 30
0.0
 11
2217.47819856
 21
-1746.7749831
 31
0.0
  0
LINE
  5
41F
100
AcDbEntity
  8
Sc.1_5
 62
     9
  6
CONTINUOUS
370
    -2
100
AcDbLine
 10
2212.70104532
 20
-1748.66783021
 30
0.0
 11
2212.85939591
 21
-1749.44165036
 31
0.0
  0
LINE
  5
420
100
AcDbEntity
  8
Sc.1_5
 62
     9
  6
CONTINUOUS
370
    -2
100
AcDbLine
 10
2208.08224267
 20
-1751.33449747
 30
0.0
 11
2208.24059326
 21
-1752.10831762
 31
0.0
  0
LINE
  5
421
100
AcDbEntity
  8
Sc.1_5
 62
     9
  6
CONTINUOUS
370
    -2
100
AcDbLine
 10
2203.46344002
 20
-1754.00116473
 30
0.0
 11
2203.62179061
 21
-1754.77498488
 31
0.0
  0
LINE
  5
422
100
AcDbEntity
  8
Sc.1_5
 62
     9
  6
CONTINUOUS
370
    -2
100
AcDbLine
 10
2198.84463737
 20
-1756.667832
 30
0.0
 11
2199.00298796
 21
-1757.44165214
 31
0.0
  0
LINE
  5
423
100
AcDbEntity
  8
Sc.1_5
 62
     9
  6
CONTINUOUS
370
    -2
100
AcDbLine
 10
2194.22583472
 20
-1759.33449926
 30
0.0
 11
2194.38418531
 21
-1760.1083194
 31
0.0
  0
LINE
  5
424
100
AcDbEntity
  8
Sc.1_5
 62
     9
  6
CONTINUOUS
370
    -2
100
AcDbLine
 10
2189.60703208
 20
-1762.00116652
 30
0.0
 11
2189.76538266
 21
-1762.77498667
 31
0.0
  0
LINE
  5
425
100
AcDbEntity
  8
Sc.1_5
 62
     9
  6
CONTINUOUS
370
    -2
100
AcDbLine
 10
2184.98822943
 20
-1764.66783378
 30
0.0
 11
2185.14658001
 21
-1765.44165393
 31
0.0
  0
LINE
  5
426
100
AcDbEntity
  8
Sc.1_5
 62
     9
  6
CONTINUOUS
370
    -2
100
AcDbLine
 10
2180.36942678
 20
-1767.33450104
 30
0.0
 11
2180.52777736
 21
-1768.10832119
 31
0.0
  0
LINE
  5
427
100
AcDbEntity
  8
Sc.1_5
 62
     9
  6
CONTINUOUS
370
    -2
100
AcDbLine
 10
2239.98123952
 20
-1732.91760059
 30
0.0
 11
2240.57221213
 21
-1733.44164629
 31
0.0
  0
LINE
  5
428
100
AcDbEntity
  8
Sc.1_5
 62
     9
  6
CONTINUOUS
370
    -2
100
AcDbLine
 10
2235.3624366
 20
-1735.58426739
 30
0.0
 11
2235.95340921
 21
-1736.10831309
 31
0.0
  0
LINE
  5
429
100
AcDbEntity
  8
Sc.1_5
 62
     9
  6
CONTINUOUS
370
    -2
100
AcDbLine
 10
2230.74363368
 20
-1738.25093419
 30
0.0
 11
2231.33460629
 21
-1738.77497989
 31
0.0
  0
LINE
  5
42A
100
AcDbEntity
  8
Sc.1_5
 62
     9
  6
CONTINUOUS
370
    -2
100
AcDbLine
 10
2226.12483077
 20
-1740.91760098
 30
0.0
 11
2226.71580338
 21
-1741.44164669
 31
0.0
  0
LINE
  5
42B
100
AcDbEntity
  8
Sc.1_5
 62
     9
  6
CONTINUOUS
370
    -2
100
AcDbLine
 10
2221.50602785
 20
-1743.58426778
 30
0.0
 11
2222.09700046
 21
-1744.10831349
 31
0.0
  0
LINE
  5
42C
100
AcDbEntity
  8
Sc.1_5
 62
     9
  6
CONTINUOUS
370
    -2
100
AcDbLine
 10
2216.88722493
 20
-1746.25093458
 30
0.0
 11
2217.47819754
 21
-1746.77498029
 31
0.0
  0
LINE
  5
42D
100
AcDbEntity
  8
Sc.1_5
 62
     9
  6
CONTINUOUS
370
    -2
100
AcDbLine
 10
2212.26842202
 20
-1748.91760138
 30
0.0
 11
2212.85939463
 21
-1749.44164708
 31
0.0
  0
LINE
  5
42E
100
AcDbEntity
  8
Sc.1_5
 62
     9
  6
CONTINUOUS
370
    -2
100
AcDbLine
 10
2207.6496191
 20
-1751.58426818
 30
0.0
 11
2208.24059171
 21
-1752.10831388
 31
0.0
  0
LINE
  5
42F
100
AcDbEntity
  8
Sc.1_5
 62
     9
  6
CONTINUOUS
370
    -2
100
AcDbLine
 10
2203.03081618
 20
-1754.25093498
 30
0.0
 11
2203.62178879
 21
-1754.77498068
 31
0.0
  0
LINE
  5
430
100
AcDbEntity
  8
Sc.1_5
 62
     9
  6
CONTINUOUS
370
    -2
100
AcDbLine
 10
2198.41201326
 20
-1756.91760178
 30
0.0
 11
2199.00298588
 21
-1757.44164748
 31
0.0
  0
LINE
  5
431
100
AcDbEntity
  8
Sc.1_5
 62
     9
  6
CONTINUOUS
370
    -2
100
AcDbLine
 10
2193.79321035
 20
-1759.58426858
 30
0.0
 11
2194.38418296
 21
-1760.10831428
 31
0.0
  0
LINE
  5
432
100
AcDbEntity
  8
Sc.1_5
 62
     9
  6
CONTINUOUS
370
    -2
100
AcDbLine
 10
2189.17440743
 20
-1762.25093537
 30
0.0
 11
2189.76538004
 21
-1762.77498108
 31
0.0
  0
LINE
  5
433
100
AcDbEntity
  8
Sc.1_5
 62
     9
  6
CONTINUOUS
370
    -2
100
AcDbLine
 10
2184.55560451
 20
-1764.91760217
 30
0.0
 11
2185.14657713
 21
-1765.44164788
 31
0.0
  0
LINE
  5
434
100
AcDbEntity
  8
Sc.1_5
 62
     9
  6
CONTINUOUS
370
    -2
100
AcDbLine
 10
2179.9368016
 20
-1767.58426897
 30
0.0
 11
2180.52777421
 21
-1768.10831468
 31
0.0
  0
LINE
  5
435
100
AcDbEntity
  8
Sc.1_5
 62
     9
  6
CONTINUOUS
370
    -2
100
AcDbLine
 10
2248.64768712
 20
-1742.09544573
 30
0.0
 11
2248.8060377
 21
-1742.86926588
 31
0.0
  0
LINE
  5
436
100
AcDbEntity
  8
Sc.1_5
 62
     9
  6
CONTINUOUS
370
    -2
100
AcDbLine
 10
2244.02888447
 20
-1744.76211299
 30
0.0
 11
2244.18723505
 21
-1745.53593314
 31
0.0
  0
LINE
  5
437
100
AcDbEntity
  8
Sc.1_5
 62
     9
  6
CONTINUOUS
370
    -2
100
AcDbLine
 10
2239.41008182
 20
-1747.42878025
 30
0.0
 11
2239.5684324
 21
-1748.2026004
 31
0.0
  0
LINE
  5
438
100
AcDbEntity
  8
Sc.1_5
 62
     9
  6
CONTINUOUS
370
    -2
100
AcDbLine
 10
2234.79127917
 20
-1750.09544752
 30
0.0
 11
2234.94962975
 21
-1750.86926766
 31
0.0
  0
LINE
  5
439
100
AcDbEntity
  8
Sc.1_5
 62
     9
  6
CONTINUOUS
370
    -2
100
AcDbLine
 10
2230.17247652
 20
-1752.76211478
 30
0.0
 11
2230.3308271
 21
-1753.53593492
 31
0.0
  0
LINE
  5
43A
100
AcDbEntity
  8
Sc.1_5
 62
     9
  6
CONTINUOUS
370
    -2
100
AcDbLine
 10
2225.55367387
 20
-1755.42878204
 30
0.0
 11
2225.71202446
 21
-1756.20260219
 31
0.0
  0
LINE
  5
43B
100
AcDbEntity
  8
Sc.1_5
 62
     9
  6
CONTINUOUS
370
    -2
100
AcDbLine
 10
2220.93487122
 20
-1758.0954493
 30
0.0
 11
2221.09322181
 21
-1758.86926945
 31
0.0
  0
LINE
  5
43C
100
AcDbEntity
  8
Sc.1_5
 62
     9
  6
CONTINUOUS
370
    -2
100
AcDbLine
 10
2216.31606857
 20
-1760.76211656
 30
0.0
 11
2216.47441916
 21
-1761.53593671
 31
0.0
  0
LINE
  5
43D
100
AcDbEntity
  8
Sc.1_5
 62
     9
  6
CONTINUOUS
370
    -2
100
AcDbLine
 10
2211.69726592
 20
-1763.42878383
 30
0.0
 11
2211.85561651
 21
-1764.20260397
 31
0.0
  0
LINE
  5
43E
100
AcDbEntity
  8
Sc.1_5
 62
     9
  6
CONTINUOUS
370
    -2
100
AcDbLine
 10
2207.07846327
 20
-1766.09545109
 30
0.0
 11
2207.23681386
 21
-1766.86927123
 31
0.0
  0
LINE
  5
43F
100
AcDbEntity
  8
Sc.1_5
 62
     9
  6
CONTINUOUS
370
    -2
100
AcDbLine
 10
2202.45966062
 20
-1768.76211835
 30
0.0
 11
2202.61801121
 21
-1769.53593849
 31
0.0
  0
LINE
  5
440
100
AcDbEntity
  8
Sc.1_5
 62
     9
  6
CONTINUOUS
370
    -2
100
AcDbLine
 10
2197.84085797
 20
-1771.42878561
 30
0.0
 11
2197.99920856
 21
-1772.20260576
 31
0.0
  0
LINE
  5
441
100
AcDbEntity
  8
Sc.1_5
 62
     9
  6
CONTINUOUS
370
    -2
100
AcDbLine
 10
2193.22205532
 20
-1774.09545287
 30
0.0
 11
2193.38040591
 21
-1774.86927302
 31
0.0
  0
LINE
  5
442
100
AcDbEntity
  8
Sc.1_5
 62
     9
  6
CONTINUOUS
370
    -2
100
AcDbLine
 10
2188.60325267
 20
-1776.76212013
 30
0.0
 11
2188.76160326
 21
-1777.53594028
 31
0.0
  0
LINE
  5
443
100
AcDbEntity
  8
Sc.1_5
 62
     9
  6
CONTINUOUS
370
    -2
100
AcDbLine
 10
2183.98445002
 20
-1779.4287874
 30
0.0
 11
2184.14280061
 21
-1780.20260754
 31
0.0
  0
LINE
  5
444
100
AcDbEntity
  8
Sc.1_5
 62
     9
  6
CONTINUOUS
370
    -2
100
AcDbLine
 10
2184.57541978
 20
-1779.95282563
 30
0.0
 11
2183.98444717
 21
-1779.42877992
 31
0.0
  0
LINE
  5
445
100
AcDbEntity
  8
Sc.1_5
 62
     9
  6
CONTINUOUS
370
    -2
100
AcDbLine
 10
2189.1942227
 20
-1777.28615883
 30
0.0
 11
2188.60325009
 21
-1776.76211312
 31
0.0
  0
LINE
  5
446
100
AcDbEntity
  8
Sc.1_5
 62
     9
  6
CONTINUOUS
370
    -2
100
AcDbLine
 10
2193.81302562
 20
-1774.61949203
 30
0.0
 11
2193.22205301
 21
-1774.09544633
 31
0.0
  0
LINE
  5
447
100
AcDbEntity
  8
Sc.1_5
 62
     9
  6
CONTINUOUS
370
    -2
100
AcDbLine
 10
2198.43182854
 20
-1771.95282523
 30
0.0
 11
2197.84085592
 21
-1771.42877953
 31
0.0
  0
LINE
  5
448
100
AcDbEntity
  8
Sc.1_5
 62
     9
  6
CONTINUOUS
370
    -2
100
AcDbLine
 10
2203.05063145
 20
-1769.28615843
 30
0.0
 11
2202.45965884
 21
-1768.76211273
 31
0.0
  0
LINE
  5
449
100
AcDbEntity
  8
Sc.1_5
 62
     9
  6
CONTINUOUS
370
    -2
100
AcDbLine
 10
2207.66943437
 20
-1766.61949163
 30
0.0
 11
2207.07846176
 21
-1766.09544593
 31
0.0
  0
LINE
  5
44A
100
AcDbEntity
  8
Sc.1_5
 62
     9
  6
CONTINUOUS
370
    -2
100
AcDbLine
 10
2212.28823729
 20
-1763.95282483
 30
0.0
 11
2211.69726467
 21
-1763.42877913
 31
0.0
  0
LINE
  5
44B
100
AcDbEntity
  8
Sc.1_5
 62
     9
  6
CONTINUOUS
370
    -2
100
AcDbLine
 10
2216.9070402
 20
-1761.28615804
 30
0.0
 11
2216.31606759
 21
-1760.76211233
 31
0.0
  0
LINE
  5
44C
100
AcDbEntity
  8
Sc.1_5
 62
     9
  6
CONTINUOUS
370
    -2
100
AcDbLine
 10
2221.52584312
 20
-1758.61949124
 30
0.0
 11
2220.93487051
 21
-1758.09544553
 31
0.0
  0
LINE
  5
44D
100
AcDbEntity
  8
Sc.1_5
 62
     9
  6
CONTINUOUS
370
    -2
100
AcDbLine
 10
2226.14464604
 20
-1755.95282444
 30
0.0
 11
2225.55367343
 21
-1755.42877873
 31
0.0
  0
LINE
  5
44E
100
AcDbEntity
  8
Sc.1_5
 62
     9
  6
CONTINUOUS
370
    -2
100
AcDbLine
 10
2230.76344895
 20
-1753.28615764
 30
0.0
 11
2230.17247634
 21
-1752.76211194
 31
0.0
  0
LINE
  5
44F
100
AcDbEntity
  8
Sc.1_5
 62
     9
  6
CONTINUOUS
370
    -2
100
AcDbLine
 10
2235.38225187
 20
-1750.61949084
 30
0.0
 11
2234.79127926
 21
-1750.09544514
 31
0.0
  0
LINE
  5
450
100
AcDbEntity
  8
Sc.1_5
 62
     9
  6
CONTINUOUS
370
    -2
100
AcDbLine
 10
2240.00105479
 20
-1747.95282404
 30
0.0
 11
2239.41008218
 21
-1747.42877834
 31
0.0
  0
LINE
  5
451
100
AcDbEntity
  8
Sc.1_5
 62
     9
  6
CONTINUOUS
370
    -2
100
AcDbLine
 10
2244.6198577
 20
-1745.28615724
 30
0.0
 11
2244.02888509
 21
-1744.76211154
 31
0.0
  0
LINE
  5
452
100
AcDbEntity
  8
Sc.1_5
 62
     9
  6
CONTINUOUS
370
    -2
100
AcDbLine
 10
2240.78858458
 20
-1733.81641568
 30
0.0
 11
2241.01955602
 21
-1734.34358784
 31
0.0
  0
LINE
  5
453
100
AcDbEntity
  8
Sc.1_5
 62
     9
  6
CONTINUOUS
370
    -2
100
AcDbLine
 10
2236.16978588
 20
-1736.48308789
 30
0.0
 11
2236.40075732
 21
-1737.01026004
 31
0.0
  0
LINE
  5
454
100
AcDbEntity
  8
Sc.1_5
 62
     9
  6
CONTINUOUS
370
    -2
100
AcDbLine
 10
2231.55098717
 20
-1739.14976009
 30
0.0
 11
2231.78195861
 21
-1739.67693224
 31
0.0
  0
LINE
  5
455
100
AcDbEntity
  8
Sc.1_5
 62
     9
  6
CONTINUOUS
370
    -2
100
AcDbLine
 10
2226.93218847
 20
-1741.81643229
 30
0.0
 11
2227.16315991
 21
-1742.34360444
 31
0.0
  0
LINE
  5
456
100
AcDbEntity
  8
Sc.1_5
 62
     9
  6
CONTINUOUS
370
    -2
100
AcDbLine
 10
2222.31338976
 20
-1744.48310449
 30
0.0
 11
2222.54436121
 21
-1745.01027664
 31
0.0
  0
LINE
  5
457
100
AcDbEntity
  8
Sc.1_5
 62
     9
  6
CONTINUOUS
370
    -2
100
AcDbLine
 10
2217.69459106
 20
-1747.14977669
 30
0.0
 11
2217.9255625
 21
-1747.67694885
 31
0.0
  0
LINE
  5
458
100
AcDbEntity
  8
Sc.1_5
 62
     9
  6
CONTINUOUS
370
    -2
100
AcDbLine
 10
2213.07579235
 20
-1749.81644889
 30
0.0
 11
2213.3067638
 21
-1750.34362105
 31
0.0
  0
LINE
  5
459
100
AcDbEntity
  8
Sc.1_5
 62
     9
  6
CONTINUOUS
370
    -2
100
AcDbLine
 10
2208.45699365
 20
-1752.48312109
 30
0.0
 11
2208.68796509
 21
-1753.01029325
 31
0.0
  0
LINE
  5
45A
100
AcDbEntity
  8
Sc.1_5
 62
     9
  6
CONTINUOUS
370
    -2
100
AcDbLine
 10
2203.83819495
 20
-1755.14979329
 30
0.0
 11
2204.06916639
 21
-1755.67696545
 31
0.0
  0
LINE
  5
45B
100
AcDbEntity
  8
Sc.1_5
 62
     9
  6
CONTINUOUS
370
    -2
100
AcDbLine
 10
2199.21939624
 20
-1757.8164655
 30
0.0
 11
2199.45036768
 21
-1758.34363765
 31
0.0
  0
LINE
  5
45C
100
AcDbEntity
  8
Sc.1_5
 62
     9
  6
CONTINUOUS
370
    -2
100
AcDbLine
 10
2194.60059754
 20
-1760.4831377
 30
0.0
 11
2194.83156898
 21
-1761.01030985
 31
0.0
  0
LINE
  5
45D
100
AcDbEntity
  8
Sc.1_5
 62
     9
  6
CONTINUOUS
370
    -2
100
AcDbLine
 10
2189.98179883
 20
-1763.1498099
 30
0.0
 11
2190.21277027
 21
-1763.67698205
 31
0.0
  0
LINE
  5
45E
100
AcDbEntity
  8
Sc.1_5
 62
     9
  6
CONTINUOUS
370
    -2
100
AcDbLine
 10
2185.36300013
 20
-1765.8164821
 30
0.0
 11
2185.59397157
 21
-1766.34365425
 31
0.0
  0
LINE
  5
45F
100
AcDbEntity
  8
Sc.1_5
 62
     9
  6
CONTINUOUS
370
    -2
100
AcDbLine
 10
2180.74420142
 20
-1768.4831543
 30
0.0
 11
2180.97517287
 21
-1769.01032646
 31
0.0
  0
LINE
  5
460
100
AcDbEntity
  8
Sc.1_5
 62
     9
  6
CONTINUOUS
370
    -2
100
AcDbLine
 10
2240.78858282
 20
-1733.81640917
 30
0.0
 11
2241.12964158
 21
-1734.28002239
 31
0.0
  0
LINE
  5
461
100
AcDbEntity
  8
Sc.1_5
 62
     9
  6
CONTINUOUS
370
    -2
100
AcDbLine
 10
2236.1697776
 20
-1736.48307008
 30
0.0
 11
2236.51083636
 21
-1736.9466833
 31
0.0
  0
LINE
  5
462
100
AcDbEntity
  8
Sc.1_5
 62
     9
  6
CONTINUOUS
370
    -2
100
AcDbLine
 10
2231.55097238
 20
-1739.149731
 30
0.0
 11
2231.89203114
 21
-1739.61334421
 31
0.0
  0
LINE
  5
463
100
AcDbEntity
  8
Sc.1_5
 62
     9
  6
CONTINUOUS
370
    -2
100
AcDbLine
 10
2226.93216716
 20
-1741.81639191
 30
0.0
 11
2227.27322592
 21
-1742.28000512
 31
0.0
  0
LINE
  5
464
100
AcDbEntity
  8
Sc.1_5
 62
     9
  6
CONTINUOUS
370
    -2
100
AcDbLine
 10
2222.31336194
 20
-1744.48305282
 30
0.0
 11
2222.65442069
 21
-1744.94666604
 31
0.0
  0
LINE
  5
465
100
AcDbEntity
  8
Sc.1_5
 62
     9
  6
CONTINUOUS
370
    -2
100
AcDbLine
 10
2217.69455671
 20
-1747.14971373
 30
0.0
 11
2218.03561547
 21
-1747.61332695
 31
0.0
  0
LINE
  5
466
100
AcDbEntity
  8
Sc.1_5
 62
     9
  6
CONTINUOUS
370
    -2
100
AcDbLine
 10
2213.07575149
 20
-1749.81637465
 30
0.0
 11
2213.41681025
 21
-1750.27998786
 31
0.0
  0
LINE
  5
467
100
AcDbEntity
  8
Sc.1_5
 62
     9
  6
CONTINUOUS
370
    -2
100
AcDbLine
 10
2208.45694627
 20
-1752.48303556
 30
0.0
 11
2208.79800503
 21
-1752.94664877
 31
0.0
  0
LINE
  5
468
100
AcDbEntity
  8
Sc.1_5
 62
     9
  6
CONTINUOUS
370
    -2
100
AcDbLine
 10
2203.83814105
 20
-1755.14969647
 30
0.0
 11
2204.17919981
 21
-1755.61330968
 31
0.0
  0
LINE
  5
469
100
AcDbEntity
  8
Sc.1_5
 62
     9
  6
CONTINUOUS
370
    -2
100
AcDbLine
 10
2199.21933583
 20
-1757.81635738
 30
0.0
 11
2199.56039458
 21
-1758.2799706
 31
0.0
  0
LINE
  5
46A
100
AcDbEntity
  8
Sc.1_5
 62
     9
  6
CONTINUOUS
370
    -2
100
AcDbLine
 10
2194.6005306
 20
-1760.4830183
 30
0.0
 11
2194.94158936
 21
-1760.94663151
 31
0.0
  0
LINE
  5
46B
100
AcDbEntity
  8
Sc.1_5
 62
     9
  6
CONTINUOUS
370
    -2
100
AcDbLine
 10
2189.98172538
 20
-1763.14967921
 30
0.0
 11
2190.32278414
 21
-1763.61329242
 31
0.0
  0
LINE
  5
46C
100
AcDbEntity
  8
Sc.1_5
 62
     9
  6
CONTINUOUS
370
    -2
100
AcDbLine
 10
2185.36292016
 20
-1765.81634012
 30
0.0
 11
2185.70397892
 21
-1766.27995333
 31
0.0
  0
LINE
  5
46D
100
AcDbEntity
  8
Sc.1_5
 62
     9
  6
CONTINUOUS
370
    -2
100
AcDbLine
 10
2180.74411494
 20
-1768.48300103
 30
0.0
 11
2181.0851737
 21
-1768.94661425
 31
0.0
  0
LINE
  5
46E
100
AcDbEntity
  8
Sc.1_5
 62
     9
  6
CONTINUOUS
370
    -2
100
AcDbLine
 10
2183.7681448
 20
-1779.05410925
 30
0.0
 11
2183.53717322
 21
-1778.52693716
 31
0.0
  0
LINE
  5
46F
100
AcDbEntity
  8
Sc.1_5
 62
     9
  6
CONTINUOUS
370
    -2
100
AcDbLine
 10
2188.3869428
 20
-1776.38743582
 30
0.0
 11
2188.15597122
 21
-1775.86026373
 31
0.0
  0
LINE
  5
470
100
AcDbEntity
  8
Sc.1_5
 62
     9
  6
CONTINUOUS
370
    -2
100
AcDbLine
 10
2193.00574079
 20
-1773.72076239
 30
0.0
 11
2192.77476921
 21
-1773.1935903
 31
0.0
  0
LINE
  5
471
100
AcDbEntity
  8
Sc.1_5
 62
     9
  6
CONTINUOUS
370
    -2
100
AcDbLine
 10
2197.62453879
 20
-1771.05408896
 30
0.0
 11
2197.3935672
 21
-1770.52691686
 31
0.0
  0
LINE
  5
472
100
AcDbEntity
  8
Sc.1_5
 62
     9
  6
CONTINUOUS
370
    -2
100
AcDbLine
 10
2202.24333678
 20
-1768.38741553
 30
0.0
 11
2202.0123652
 21
-1767.86024343
 31
0.0
  0
LINE
  5
473
100
AcDbEntity
  8
Sc.1_5
 62
     9
  6
CONTINUOUS
370
    -2
100
AcDbLine
 10
2206.86213477
 20
-1765.72074209
 30
0.0
 11
2206.63116319
 21
-1765.19357
 31
0.0
  0
LINE
  5
474
100
AcDbEntity
  8
Sc.1_5
 62
     9
  6
CONTINUOUS
370
    -2
100
AcDbLine
 10
2211.48093277
 20
-1763.05406866
 30
0.0
 11
2211.24996119
 21
-1762.52689657
 31
0.0
  0
LINE
  5
475
100
AcDbEntity
  8
Sc.1_5
 62
     9
  6
CONTINUOUS
370
    -2
100
AcDbLine
 10
2216.09973076
 20
-1760.38739523
 30
0.0
 11
2215.86875918
 21
-1759.86022314
 31
0.0
  0
LINE
  5
476
100
AcDbEntity
  8
Sc.1_5
 62
     9
  6
CONTINUOUS
370
    -2
100
AcDbLine
 10
2220.71852876
 20
-1757.7207218
 30
0.0
 11
2220.48755717
 21
-1757.19354971
 31
0.0
  0
LINE
  5
477
100
AcDbEntity
  8
Sc.1_5
 62
     9
  6
CONTINUOUS
370
    -2
100
AcDbLine
 10
2225.33732675
 20
-1755.05404837
 30
0.0
 11
2225.10635517
 21
-1754.52687628
 31
0.0
  0
LINE
  5
478
100
AcDbEntity
  8
Sc.1_5
 62
     9
  6
CONTINUOUS
370
    -2
100
AcDbLine
 10
2229.95612474
 20
-1752.38737494
 30
0.0
 11
2229.72515316
 21
-1751.86020284
 31
0.0
  0
LINE
  5
479
100
AcDbEntity
  8
Sc.1_5
 62
     9
  6
CONTINUOUS
370
    -2
100
AcDbLine
 10
2234.57492274
 20
-1749.72070151
 30
0.0
 11
2234.34395116
 21
-1749.19352941
 31
0.0
  0
LINE
  5
47A
100
AcDbEntity
  8
Sc.1_5
 62
     9
  6
CONTINUOUS
370
    -2
100
AcDbLine
 10
2239.19372073
 20
-1747.05402808
 30
0.0
 11
2238.96274915
 21
-1746.52685598
 31
0.0
  0
LINE
  5
47B
100
AcDbEntity
  8
Sc.1_5
 62
     9
  6
CONTINUOUS
370
    -2
100
AcDbLine
 10
2243.81251873
 20
-1744.38735464
 30
0.0
 11
2243.58154714
 21
-1743.86018255
 31
0.0
  0
LINE
  5
47C
100
AcDbEntity
  8
Sc.1_5
 62
     9
  6
CONTINUOUS
370
    -2
100
AcDbLine
 10
2183.76804361
 20
-1779.05393398
 30
0.0
 11
2183.42698486
 21
-1778.59032077
 31
0.0
  0
LINE
  5
47D
100
AcDbEntity
  8
Sc.1_5
 62
     9
  6
CONTINUOUS
370
    -2
100
AcDbLine
 10
2188.38684884
 20
-1776.38727307
 30
0.0
 11
2188.04579008
 21
-1775.92365986
 31
0.0
  0
LINE
  5
47E
100
AcDbEntity
  8
Sc.1_5
 62
     9
  6
CONTINUOUS
370
    -2
100
AcDbLine
 10
2193.00565406
 20
-1773.72061216
 30
0.0
 11
2192.6645953
 21
-1773.25699895
 31
0.0
  0
LINE
  5
47F
100
AcDbEntity
  8
Sc.1_5
 62
     9
  6
CONTINUOUS
370
    -2
100
AcDbLine
 10
2197.62445928
 20
-1771.05395125
 30
0.0
 11
2197.28340052
 21
-1770.59033803
 31
0.0
  0
LINE
  5
480
100
AcDbEntity
  8
Sc.1_5
 62
     9
  6
CONTINUOUS
370
    -2
100
AcDbLine
 10
2202.2432645
 20
-1768.38729034
 30
0.0
 11
2201.90220574
 21
-1767.92367712
 31
0.0
  0
LINE
  5
481
100
AcDbEntity
  8
Sc.1_5
 62
     9
  6
CONTINUOUS
370
    -2
100
AcDbLine
 10
2206.86206972
 20
-1765.72062942
 30
0.0
 11
2206.52101097
 21
-1765.25701621
 31
0.0
  0
LINE
  5
482
100
AcDbEntity
  8
Sc.1_5
 62
     9
  6
CONTINUOUS
370
    -2
100
AcDbLine
 10
2211.48087495
 20
-1763.05396851
 30
0.0
 11
2211.13981619
 21
-1762.5903553
 31
0.0
  0
LINE
  5
483
100
AcDbEntity
  8
Sc.1_5
 62
     9
  6
CONTINUOUS
370
    -2
100
AcDbLine
 10
2216.09968017
 20
-1760.3873076
 30
0.0
 11
2215.75862141
 21
-1759.92369439
 31
0.0
  0
LINE
  5
484
100
AcDbEntity
  8
Sc.1_5
 62
     9
  6
CONTINUOUS
370
    -2
100
AcDbLine
 10
2220.71848539
 20
-1757.72064669
 30
0.0
 11
2220.37742663
 21
-1757.25703347
 31
0.0
  0
LINE
  5
485
100
AcDbEntity
  8
Sc.1_5
 62
     9
  6
CONTINUOUS
370
    -2
100
AcDbLine
 10
2225.33729061
 20
-1755.05398577
 30
0.0
 11
2224.99623185
 21
-1754.59037256
 31
0.0
  0
LINE
  5
486
100
AcDbEntity
  8
Sc.1_5
 62
     9
  6
CONTINUOUS
370
    -2
100
AcDbLine
 10
2229.95609583
 20
-1752.38732486
 30
0.0
 11
2229.61503708
 21
-1751.92371165
 31
0.0
  0
LINE
  5
487
100
AcDbEntity
  8
Sc.1_5
 62
     9
  6
CONTINUOUS
370
    -2
100
AcDbLine
 10
2234.57490106
 20
-1749.72066395
 30
0.0
 11
2234.2338423
 21
-1749.25705074
 31
0.0
  0
LINE
  5
488
100
AcDbEntity
  8
Sc.1_5
 62
     9
  6
CONTINUOUS
370
    -2
100
AcDbLine
 10
2239.19370628
 20
-1747.05400304
 30
0.0
 11
2238.85264752
 21
-1746.59038982
 31
0.0
  0
LINE
  5
489
100
AcDbEntity
  8
Sc.1_5
 62
     9
  6
CONTINUOUS
370
    -2
100
AcDbLine
 10
2243.8125115
 20
-1744.38734213
 30
0.0
 11
2243.47145274
 21
-1743.92372891
 31
0.0
  0
LINE
  5
48A
100
AcDbEntity
  8
Sc.1_5
 62
     9
  6
CONTINUOUS
370
    -2
100
AcDbLine
 10
2248.43131672
 20
-1741.72068121
 30
0.0
 11
2248.09025796
 21
-1741.257068
 31
0.0
  0
ENDBLK
  5
48B
100
AcDbEntity
100
AcDbBlockEnd
  0
BLOCK
  5
48C
100
AcDbEntity
  8
Sc.1_5
100
AcDbBlockBegin
  2
*X2630
 70
     1
 10
0.0
 20
0.0
 30
0.0
  3
*X2630
  1

  4
Cadwork hatch
  0
LINE
  5
48D
100
AcDbEntity
  8
Sc.1_5
 62
     9
  6
CONTINUOUS
370
    -2
100
AcDbLine
 10
2175.74868444
 20
-1815.92567507
 30
0.0
 11
2203.74866756
 21
-1806.92558641
 31
0.0
  0
LINE
  5
48E
100
AcDbEntity
  8
Sc.1_5
 62
     9
  6
CONTINUOUS
370
    -2
100
AcDbLine
 10
2203.74866756
 20
-1815.92567507
 30
0.0
 11
2191.33715938
 21
-1806.92558641
 31
0.0
  0
ENDBLK
  5
48F
100
AcDbEntity
100
AcDbBlockEnd
  0
ENDSEC
  0
SECTION
  2
ENTITIES
  0
LINE
  5
490
100
AcDbEntity
  8
Sc.1_5
 62
     7
  6
CONTINUOUS
100
AcDbLine
 10
2188.8616394
 20
-1876.43955393
 30
0.0
 11
2186.3616398
 21
-1881.43955423
 31
0.0
  0
LINE
  5
491
100
AcDbEntity
  8
Sc.1_5
 62
     7
  6
CONTINUOUS
100
AcDbLine
 10
2186.3616398
 20
-1881.43955423
 30
0.0
 11
2181.36163885
 21
-1871.43955451
 31
0.0
  0
LINE
  5
492
100
AcDbEntity
  8
Sc.1_5
 62
     7
  6
CONTINUOUS
100
AcDbLine
 10
2181.36163885
 20
-1871.43955451
 30
0.0
 11
2178.86163925
 21
-1876.43955481
 31
0.0
  0
LINE
  5
493
100
AcDbEntity
  8
Sc.1_5
 62
     7
  6
CONTINUOUS
100
AcDbLine
 10
2178.86163925
 20
-1876.43955481
 30
0.0
 11
2161.09760572
 21
-1876.43955636
 31
0.0
  0
LINE
  5
494
100
AcDbEntity
  8
Sc.1_5
 62
     7
  6
CONTINUOUS
100
AcDbLine
 10
2209.49281386
 20
-1876.43955213
 30
0.0
 11
2188.8616394
 21
-1876.43955393
 31
0.0
  0
LINE
  5
495
100
AcDbEntity
  8
Sc.1_5
 62
     7
  6
CONTINUOUS
100
AcDbLine
 10
2259.31341389
 20
-1742.7141666
 30
0.0
 11
2264.89853655
 21
-1742.47666773
 31
0.0
  0
LINE
  5
496
100
AcDbEntity
  8
Sc.1_5
 62
     7
  6
CONTINUOUS
100
AcDbLine
 10
2264.89853655
 20
-1742.47666773
 30
0.0
 11
2258.57638755
 21
-1751.69786264
 31
0.0
  0
LINE
  5
497
100
AcDbEntity
  8
Sc.1_5
 62
     7
  6
CONTINUOUS
100
AcDbLine
 10
2258.57638755
 20
-1751.69786264
 30
0.0
 11
2264.16151021
 21
-1751.46036377
 31
0.0
  0
LINE
  5
498
100
AcDbEntity
  8
Sc.1_5
 62
     7
  6
CONTINUOUS
100
AcDbLine
 10
2264.16151021
 20
-1751.46036377
 30
0.0
 11
2275.90008906
 21
-1772.63732028
 31
0.0
  0
LINE
  5
499
100
AcDbEntity
  8
Sc.1_5
 62
     7
  6
CONTINUOUS
100
AcDbLine
 10
2241.54295354
 20
-1710.65540796
 30
0.0
 11
2259.31341389
 21
-1742.7141666
 31
0.0
  0
LWPOLYLINE
  5
49A
102
{ACAD_REACTORS
330
49B
102
}
100
AcDbEntity
  8
Sc.1_5
 62
     7
  6
CONTINUOUS
100
AcDbPolyline
 90
        4
 70
     1
 43
0.0
 10
2273.43351686
 20
-1768.18750661
 10
2206.73165092
 20
-1806.69784687
 10
2206.73165092
 20
-1808.77630784
 10
2274.30630711
 20
-1769.7620619
  0
HATCH
  5
49B
100
AcDbEntity
  8
Sc.1_5
 62
     9
  6
CONTINUOUS
100
AcDbHatch
 10
0.0
 20
0.0
 30
0.0
210
0.0
220
0.0
230
1.0
  2
CDWK12A
 70
     0
 71
     1
 91
        1
 92
        7
 72
     0
 73
     1
 93
        4
 10
2273.43351686
 20
-1768.18750661
 10
2206.73165092
 20
-1806.69784687
 10
2206.73165092
 20
-1808.77630784
 10
2274.30630711
 20
-1769.7620619
 97
        1
330
49A
 75
     0
 76
     2
 52
0.0
 41
1.0
 77
     0
 78
    15
 53
0.0
 43
0.0
 44
0.0
 45
2.70000005
 46
4.9000001
 79
     2
 49
0.0
 49
-3.70000005
 53
0.0
 43
0.0
 44
0.0
 45
4.4000001
 46
4.80000019
 79
     2
 49
0.0
 49
-5.4000001
 53
0.0
 43
0.0
 44
0.0
 45
1.39999998
 46
4.5999999
 79
     2
 49
0.0
 49
-2.4000001
 53
0.0
 43
0.0
 44
0.0
 45
2.20000005
 46
4.19999981
 79
     2
 49
0.0
 49
-3.20000005
 53
0.0
 43
0.0
 44
0.0
 45
3.79999995
 46
4.0
 79
     2
 49
0.0
 49
-4.80000019
 53
0.0
 43
0.0
 44
0.0
 45
1.20000005
 46
3.79999995
 79
     2
 49
0.0
 49
-2.20000005
 53
0.0
 43
0.0
 44
0.0
 45
2.9000001
 46
3.5
 79
     2
 49
0.0
 49
-3.9000001
 53
0.0
 43
0.0
 44
0.0
 45
4.5999999
 46
3.4000001
 79
     2
 49
0.0
 49
-5.5999999
 53
0.0
 43
0.0
 44
0.0
 45
1.89999998
 46
2.9000001
 79
     2
 49
0.0
 49
-2.9000001
 53
0.0
 43
0.0
 44
0.0
 45
3.20000005
 46
2.79999995
 79
     2
 49
0.0
 49
-4.19999981
 53
0.0
 43
0.0
 44
0.0
 45
3.9000001
 46
2.4000001
 79
     2
 49
0.0
 49
-4.9000001
 53
0.0
 43
0.0
 44
0.0
 45
2.4000001
 46
2.0999999
 79
     2
 49
0.0
 49
-3.4000001
 53
0.0
 43
0.0
 44
0.0
 45
4.9000001
 46
2.0999999
 79
     2
 49
0.0
 49
-5.9000001
 53
0.0
 43
0.0
 44
0.0
 45
3.5999999
 46
1.5
 79
     2
 49
0.0
 49
-4.5999999
 53
0.0
 43
0.0
 44
0.0
 45
1.60000002
 46
1.39999998
 79
     2
 49
0.0
 49
-2.5999999
 47
0.775229
 98
        1
 10
0.0
 20
0.0
  0
LWPOLYLINE
  5
49C
102
{ACAD_REACTORS
330
49D
102
}
100
AcDbEntity
  8
Sc.1_5
 62
     7
  6
CONTINUOUS
100
AcDbPolyline
 90
        4
 70
     1
 43
0.0
 10
2206.04863822
 20
-1876.43955437
 10
2206.04863822
 20
-1807.09218481
 10
2204.24863822
 20
-1808.13141558
 10
2204.24863822
 20
-1876.43955437
  0
HATCH
  5
49D
100
AcDbEntity
  8
Sc.1_5
 62
     9
  6
CONTINUOUS
100
AcDbHatch
 10
0.0
 20
0.0
 30
0.0
210
0.0
220
0.0
230
1.0
  2
CDWK12A
 70
     0
 71
     1
 91
        1
 92
        7
 72
     0
 73
     1
 93
        4
 10
2206.04863822
 20
-1876.43955437
 10
2206.04863822
 20
-1807.09218481
 10
2204.24863822
 20
-1808.13141558
 10
2204.24863822
 20
-1876.43955437
 97
        1
330
49C
 75
     0
 76
     2
 52
0.0
 41
1.0
 77
     0
 78
    15
 53
0.0
 43
0.0
 44
0.0
 45
2.70000005
 46
4.9000001
 79
     2
 49
0.0
 49
-3.70000005
 53
0.0
 43
0.0
 44
0.0
 45
4.4000001
 46
4.80000019
 79
     2
 49
0.0
 49
-5.4000001
 53
0.0
 43
0.0
 44
0.0
 45
1.39999998
 46
4.5999999
 79
     2
 49
0.0
 49
-2.4000001
 53
0.0
 43
0.0
 44
0.0
 45
2.20000005
 46
4.19999981
 79
     2
 49
0.0
 49
-3.20000005
 53
0.0
 43
0.0
 44
0.0
 45
3.79999995
 46
4.0
 79
     2
 49
0.0
 49
-4.80000019
 53
0.0
 43
0.0
 44
0.0
 45
1.20000005
 46
3.79999995
 79
     2
 49
0.0
 49
-2.20000005
 53
0.0
 43
0.0
 44
0.0
 45
2.9000001
 46
3.5
 79
     2
 49
0.0
 49
-3.9000001
 53
0.0
 43
0.0
 44
0.0
 45
4.5999999
 46
3.4000001
 79
     2
 49
0.0
 49
-5.5999999
 53
0.0
 43
0.0
 44
0.0
 45
1.89999998
 46
2.9000001
 79
     2
 49
0.0
 49
-2.9000001
 53
0.0
 43
0.0
 44
0.0
 45
3.20000005
 46
2.79999995
 79
     2
 49
0.0
 49
-4.19999981
 53
0.0
 43
0.0
 44
0.0
 45
3.9000001
 46
2.4000001
 79
     2
 49
0.0
 49
-4.9000001
 53
0.0
 43
0.0
 44
0.0
 45
2.4000001
 46
2.0999999
 79
     2
 49
0.0
 49
-3.4000001
 53
0.0
 43
0.0
 44
0.0
 45
4.9000001
 46
2.0999999
 79
     2
 49
0.0
 49
-5.9000001
 53
0.0
 43
0.0
 44
0.0
 45
3.5999999
 46
1.5
 79
     2
 49
0.0
 49
-4.5999999
 53
0.0
 43
0.0
 44
0.0
 45
1.60000002
 46
1.39999998
 79
     2
 49
0.0
 49
-2.5999999
 47
0.775229
 98
        1
 10
0.0
 20
0.0
  0
LWPOLYLINE
  5
49E
102
{ACAD_REACTORS
330
49F
102
}
100
AcDbEntity
  8
Sc.1_5
 62
     7
  6
CONTINUOUS
100
AcDbPolyline
 90
        4
 70
     1
 43
0.0
 10
2175.24873791
 20
-1876.43955437
 10
2175.24873791
 20
-1817.97445485
 10
2173.44873791
 20
-1817.97445485
 10
2173.44873791
 20
-1876.43955437
  0
HATCH
  5
49F
100
AcDbEntity
  8
Sc.1_5
 62
     9
  6
CONTINUOUS
100
AcDbHatch
 10
0.0
 20
0.0
 30
0.0
210
0.0
220
0.0
230
1.0
  2
ANSI31
 70
     0
 71
     1
 91
        1
 92
        7
 72
     0
 73
     1
 93
        4
 10
2175.24873791
 20
-1876.43955437
 10
2175.24873791
 20
-1817.97445485
 10
2173.44873791
 20
-1817.97445485
 10
2173.44873791
 20
-1876.43955437
 97
        1
330
49E
 75
     0
 76
     2
 52
0.0
 41
0.3149626
 77
     0
 78
     1
 53
45.0
 43
0.0
 44
0.0
 45
0.70710678
 46
-0.70710678
 79
     0
 47
0.775229
 98
        1
 10
0.0
 20
0.0
  0
LWPOLYLINE
  5
4A0
102
{ACAD_REACTORS
330
4A1
102
}
100
AcDbEntity
  8
Sc.1_5
 62
     7
  6
CONTINUOUS
100
AcDbPolyline
 90
        5
 70
     1
 43
0.0
 10
2258.16725152
 20
-1740.62852913
 10
2118.85969705
 20
-1821.05778653
 10
2118.85969705
 20
-1821.05778653
 10
2118.85969705
 20
-1848.77045727
 10
2269.80439399
 20
-1761.62249586
  0
HATCH
  5
4A1
100
AcDbEntity
  8
Sc.1_5
 62
     9
  6
CONTINUOUS
100
AcDbHatch
 10
0.0
 20
0.0
 30
0.0
210
0.0
220
0.0
230
1.0
  2
Wood
 70
     0
 71
     1
 91
        1
 92
        7
 72
     0
 73
     1
 93
        4
 10
2258.16725152
 20
-1740.62852913
 10
2118.85969705
 20
-1821.05778653
 10
2118.85969705
 20
-1848.77045727
 10
2269.80439399
 20
-1761.62249586
 97
        1
330
4A0
 75
     0
 76
     2
 52
29.84139633
 41
1.0
 77
     0
 78
    66
 53
29.84139633
 43
0.0
 44
0.0
 45
-20.51662718
 46
35.76410863
 79
     4
 49
8.24619961
 49
-12.36929989
 49
4.1230998
 49
-16.49239922
 53
29.84139633
 43
24.52188959
 44
15.25572712
 45
-20.51662718
 46
35.76410863
 79
     2
 49
8.24619961
 49
-32.98479843
 53
29.84139633
 43
19.91968298
 44
14.99222691
 45
-20.51662718
 46
35.76410863
 79
     2
 49
4.1230998
 49
-37.10800171
 53
29.84139633
 43
-0.26341322
 44
4.60225596
 45
-20.51662718
 46
35.76410863
 79
     4
 49
2.06159997
 49
-28.86170006
 49
2.06159997
 49
-8.24619961
 53
29.84139633
 43
11.22809707
 44
13.57127784
 45
-20.51662718
 46
35.76410863
 79
     4
 49
8.24619961
 49
-12.36929989
 49
2.06159997
 49
-18.55400085
 53
29.84139633
 43
1.77425802
 44
9.33619425
 45
-20.51662718
 46
35.76410863
 79
     2
 49
6.18470001
 49
-35.04639816
 53
29.84139633
 43
10.20229324
 44
15.35943529
 45
-20.51662718
 46
35.76410863
 79
     2
 49
12.36929989
 49
-28.86170006
 53
29.84139633
 43
-1.0398406
 44
10.09858507
 45
-20.51662718
 46
35.76410863
 79
     2
 49
8.24619961
 49
-32.98479843
 53
29.84139633
 43
12.75284169
 44
19.19933841
 45
-20.51662718
 46
35.76410863
 79
     2
 49
20.6154995
 49
-20.6154995
 53
29.84139633
 43
0.99783091
 44
14.83252241
 45
-20.51662718
 46
35.76410863
 79
     4
 49
4.1230998
 49
-12.36929989
 49
8.24619961
 49
-16.49239922
 53
29.84139633
 43
25.51980907
 44
30.08830021
 45
-20.51662718
 46
35.76410863
 79
     2
 49
8.24619961
 49
-32.98479843
 53
29.84139633
 43
17.85398937
 44
26.87905611
 45
-20.51662718
 46
35.76410863
 79
     2
 49
4.1230998
 49
-37.10800171
 53
29.84139633
 43
10.18830671
 44
23.66977629
 45
-20.51662718
 46
35.76410863
 79
     2
 49
4.1230998
 49
-37.10800171
 53
29.84139633
 43
-8.20663094
 44
14.30560871
 45
-20.51662718
 46
35.76410863
 79
     2
 49
8.24619961
 49
-32.98479843
 53
29.84139633
 43
9.16245353
 44
25.45801978
 45
-20.51662718
 46
35.76410863
 79
     2
 49
8.24619961
 49
-32.98479843
 53
29.84139633
 43
8.13659891
 44
27.24626574
 45
-20.51662718
 46
35.76410863
 79
     4
 49
8.24619961
 49
-8.24619961
 49
8.24619961
 49
-16.49239922
 53
29.84139633
 43
-0.0420088
 44
24.9311069
 45
-20.51662718
 46
35.76410863
 79
     4
 49
4.1230998
 49
-20.6154995
 49
8.24619961
 49
-8.24619961
 53
29.84139633
 43
6.59786872
 44
29.92854452
 45
-20.51662718
 46
35.76410863
 79
     2
 49
12.36929989
 49
-28.86170006
 53
29.84139633
 43
5.57206441
 44
31.7167028
 45
-20.51662718
 46
35.76410863
 79
     2
 49
8.24619961
 49
-32.98479843
 53
29.84139633
 43
-9.24647154
 44
24.40419378
 45
-20.51662718
 46
35.76410863
 79
     4
 49
12.36929989
 49
-16.49239922
 49
4.1230998
 49
-8.24619961
 53
29.84139633
 43
-10.2723252
 44
26.19243809
 45
-20.51662718
 46
35.76410863
 79
     2
 49
20.6154995
 49
-20.6154995
 53
29.84139633
 43
10.67321162
 44
39.39642134
 45
-20.51662718
 46
35.76410863
 79
     2
 49
4.1230998
 49
-37.10800171
 53
29.84139633
 43
-0.56892298
 44
34.13556958
 45
-20.51662718
 46
35.76410863
 79
     2
 49
8.24619961
 49
-32.98479843
 53
29.84139633
 43
-8.23465417
 44
30.92637626
 45
-20.51662718
 46
35.76410863
 79
     4
 49
4.1230998
 49
-16.49239922
 49
4.1230998
 49
-16.49239922
 53
29.84139633
 43
-12.32398318
 44
29.76884068
 45
-20.51662718
 46
35.76410863
 79
     4
 49
4.1230998
 49
-12.36929989
 49
8.24619961
 49
-16.49239922
 53
29.84139633
 43
-5.68405494
 44
34.76619086
 45
-20.51662718
 46
35.76410863
 79
     4
 49
4.1230998
 49
-20.6154995
 49
4.1230998
 49
-12.36929989
 53
29.84139633
 43
0.95582258
 44
39.76362848
 45
-20.51662718
 46
35.76410863
 79
     2
 49
12.36929989
 49
-28.86170006
 53
29.84139633
 43
-14.3756421
 44
33.34524492
 45
-20.51662718
 46
35.76410863
 79
     2
 49
8.24619961
 49
-32.98479843
 53
29.84139633
 43
2.99344278
 44
44.49765623
 45
-20.51662718
 46
35.76410863
 79
     2
 49
4.1230998
 49
-37.10800171
 53
29.84139633
 43
9.63337073
 44
49.49500404
 45
-20.51662718
 46
35.76410863
 79
     2
 49
4.1230998
 49
-37.10800171
 53
43.8775959
 43
23.49608557
 44
17.04388488
 45
-35.76408799
 46
-20.51657892
 79
     2
 49
4.24679995
 49
-165.75320435
 53
43.8775959
 43
22.45624397
 44
27.14246883
 45
-35.76408799
 46
-20.51657892
 79
     2
 49
4.24679995
 49
-165.75320435
 53
43.8775959
 43
6.56984537
 44
46.5493142
 45
-35.76408799
 46
-20.51657892
 79
     2
 49
4.24679995
 49
-165.75320435
 53
43.8775959
 43
3.53439296
 44
26.98276439
 45
-35.76408799
 46
-20.51657892
 79
     2
 49
4.24679995
 49
-165.75320435
 53
43.8775959
 43
7.60968651
 44
36.45072724
 45
-35.76408799
 46
-20.51657892
 79
     2
 49
4.24679995
 49
-165.75320435
 53
43.8775959
 43
12.72486959
 44
35.82001875
 45
-35.76408799
 46
-20.51657892
 79
     2
 49
4.24679995
 49
-165.75320435
 53
43.8775959
 43
-8.747581
 44
31.82049842
 45
-35.76408799
 46
-20.51657892
 79
     2
 49
4.24679995
 49
-165.75320435
 53
43.8775959
 43
6.5838822
 44
38.23888552
 45
-35.76408799
 46
-20.51657892
 79
     2
 49
4.24679995
 49
-165.75320435
 53
43.8775959
 43
21.43039031
 44
28.93071314
 45
-35.76408799
 46
-20.51657892
 79
     2
 49
8.49359989
 49
-161.50639343
 53
43.8775959
 43
16.31525871
 44
29.56133572
 45
-35.76408799
 46
-20.51657892
 79
     2
 49
8.49359989
 49
-161.50639343
 53
43.8775959
 43
15.28940409
 44
31.34958169
 45
-35.76408799
 46
-20.51657892
 79
     2
 49
8.49359989
 49
-161.50639343
 53
195.80520248
 43
11.22809707
 44
13.57127784
 45
-35.7640545
 46
-20.51663729
 79
     4
 49
4.24679995
 49
-8.49359989
 49
4.24679995
 49
-153.01280212
 53
195.80520248
 43
0.99783091
 44
14.83252241
 45
-35.7640545
 46
-20.51663729
 79
     2
 49
4.24679995
 49
-165.75320435
 53
195.80520248
 43
-8.23465417
 44
30.92637626
 45
-35.7640545
 46
-20.51663729
 79
     2
 49
8.49359989
 49
-161.50639343
 53
223.87759018
 43
24.52188959
 44
15.25572712
 45
35.76409003
 46
20.51657535
 79
     2
 49
4.24679995
 49
-165.75320435
 53
375.80511093
 43
31.67478245
 44
19.35909337
 45
35.76408728
 46
20.51658015
 79
     2
 49
4.24679995
 49
-165.75320435
 53
375.80511093
 43
13.7647093
 44
25.72143427
 45
35.76408728
 46
20.51658015
 79
     2
 49
4.24679995
 49
-165.75320435
 53
375.80511093
 43
17.32707484
 44
36.08351749
 45
35.76408728
 46
20.51658015
 79
     2
 49
4.24679995
 49
-165.75320435
 53
375.80511093
 43
1.48273499
 44
30.55916698
 45
35.76408728
 46
20.51658015
 79
     2
 49
4.24679995
 49
-165.75320435
 53
375.80511093
 43
-4.65825158
 44
32.97803423
 45
35.76408728
 46
20.51658015
 79
     2
 49
4.24679995
 49
-165.75320435
 53
375.80511093
 43
-2.10765318
 44
36.81784836
 45
35.76408728
 46
20.51658015
 79
     2
 49
4.24679995
 49
-165.75320435
 53
375.80511093
 43
1.48273499
 44
30.55916698
 45
35.76408728
 46
20.51658015
 79
     2
 49
4.24679995
 49
-165.75320435
 53
375.80511093
 43
9.13443113
 44
42.0787878
 45
35.76408728
 46
20.51658015
 79
     2
 49
16.98719978
 49
-153.01280212
 53
375.80511093
 43
1.52474444
 44
5.62805991
 45
35.76408728
 46
20.51658015
 79
     2
 49
16.98719978
 49
-153.01280212
 53
375.80511093
 43
3.56241548
 44
10.36199808
 45
35.76408728
 46
20.51658015
 79
     2
 49
16.98719978
 49
-153.01280212
 53
375.80511093
 43
6.11296417
 44
14.20190078
 45
35.76408728
 46
20.51658015
 79
     4
 49
4.24679995
 49
-8.49359989
 49
8.49359989
 49
-148.76600647
 53
375.80511093
 43
4.5742335
 44
16.88418039
 45
35.76408728
 46
20.51658015
 79
     4
 49
8.49359989
 49
-8.49359989
 49
8.49359989
 49
-144.51919556
 53
375.80511093
 43
-1.05382659
 44
18.40892418
 45
35.76408728
 46
20.51658015
 79
     2
 49
16.98719978
 49
-153.01280212
 53
375.80511093
 43
-6.16901021
 44
19.03963456
 45
35.76408728
 46
20.51658015
 79
     2
 49
16.98719978
 49
-153.01280212
 53
375.80511093
 43
-7.19481357
 44
20.82779119
 45
35.76408728
 46
20.51658015
 79
     2
 49
16.98719978
 49
-153.01280212
 53
375.80511093
 43
11.6850287
 44
45.91860145
 45
35.76408728
 46
20.51658015
 79
     2
 49
4.24679995
 49
-165.75320435
 53
375.80520248
 43
13.20986266
 44
51.54671327
 45
35.7640545
 46
20.51663729
 79
     2
 49
8.49359989
 49
-161.50639343
 53
375.80520248
 43
-7.22283733
 44
37.44856063
 45
35.7640545
 46
20.51663729
 79
     2
 49
8.49359989
 49
-161.50639343
 53
375.80511093
 43
7.15280435
 44
4.10331547
 45
35.76408728
 46
20.51658015
 79
     2
 49
16.98719978
 49
-153.01280212
 53
375.80511093
 43
14.24961256
 44
41.44807836
 45
35.76408728
 46
20.51658015
 79
     2
 49
12.74040031
 49
-157.25959778
 53
375.80511093
 43
19.36483563
 44
40.81750715
 45
35.76408728
 46
20.51658015
 79
     2
 49
25.48080063
 49
-144.51919556
 47
0.775229
 98
        1
 10
0.0
 20
0.0
  0
LINE
  5
4A2
100
AcDbEntity
  8
Sc.1_5
 62
     7
  6
CONTINUOUS
 48
0.5
370
    -3
100
AcDbLine
 10
2234.7781571
 20
-1802.38190163
 30
500.0
 11
2209.04490168
 21
-1782.45622351
 31
500.0
  0
INSERT
  5
4A3
100
AcDbEntity
  8
Sc.1_5
 62
     7
  6
CONTINUOUS
370
    -3
100
AcDbBlockReference
  2
CDWK_EXTR_2
 10
2209.04490168
 20
-1782.45622351
 30
500.0
 41
1.0
 42
1.0
 43
1.0
 50
322.24879883
  0
LINE
  5
4A4
100
AcDbEntity
  8
Sc.1_5
 62
     7
  6
CONTINUOUS
 48
0.5
370
    -3
100
AcDbLine
 10
2234.83609495
 20
-1819.83959755
 30
500.0
 11
2216.36555912
 21
-1801.79295626
 31
500.0
  0
INSERT
  5
4A5
100
AcDbEntity
  8
Sc.1_5
 62
     7
  6
CONTINUOUS
370
    -3
100
AcDbBlockReference
  2
CDWK_EXTR_2
 10
2216.36555912
 20
-1801.79295626
 30
500.0
 41
1.0
 42
1.0
 43
1.0
 50
315.66506448
  0
LINE
  5
4A6
100
AcDbEntity
  8
Sc.1_5
 62
     7
  6
CONTINUOUS
 48
0.5
370
    -3
100
AcDbLine
 10
2234.59607044
 20
-1848.08018518
 30
500.0
 11
2198.92979417
 21
-1848.08018518
 31
500.0
  0
INSERT
  5
4A7
100
AcDbEntity
  8
Sc.1_5
 62
     7
  6
CONTINUOUS
370
    -3
100
AcDbBlockReference
  2
CDWK_EXTR_2
 10
2198.92979417
 20
-1848.08018518
 30
500.0
 41
1.0
 42
1.0
 43
1.0
  0
LINE
  5
4A8
100
AcDbEntity
  8
Sc.1_5
 62
     7
  6
CONTINUOUS
100
AcDbLine
 10
2127.85959813
 20
-1811.24294195
 30
0.0
 11
2118.85959771
 21
-1816.43903804
 31
0.0
  0
LINE
  5
4A9
100
AcDbEntity
  8
Sc.1_5
 62
     7
  6
CONTINUOUS
100
AcDbLine
 10
2127.85959813
 20
-1790.4583885
 30
0.0
 11
2118.85959771
 21
-1795.65448459
 31
0.0
  0
LWPOLYLINE
  5
4AA
100
AcDbEntity
  8
Sc.1_5
 62
     7
  6
CONTINUOUS
100
AcDbPolyline
 90
        6
 70
     1
 43
0.0
 10
2256.16727565
 20
-1737.16446994
 10
2258.16725152
 20
-1740.62852913
 10
2256.16727557
 20
-1737.16446953
 10
2248.37304702
 20
-1741.66446994
 10
2250.37302296
 20
-1745.12852954
 10
2258.16725152
 20
-1740.62852913
  0
INSERT
  5
4AB
100
AcDbEntity
  8
Sc.1_5
 62
     0
100
AcDbBlockReference
  2
*X1654
 10
0.0
 20
0.0
 30
0.0
  0
LWPOLYLINE
  5
4AC
100
AcDbEntity
  8
Sc.1_5
 62
     7
  6
CONTINUOUS
100
AcDbPolyline
 90
        6
 70
     1
 43
0.0
 10
2245.16729882
 20
-1718.1119531
 10
2247.16727468
 20
-1721.5760123
 10
2245.16729874
 20
-1718.1119527
 10
2237.37307018
 20
-1722.6119531
 10
2239.37304613
 20
-1726.0760127
 10
2247.16727468
 20
-1721.5760123
  0
INSERT
  5
4AD
100
AcDbEntity
  8
Sc.1_5
 62
     0
100
AcDbBlockReference
  2
*X1655
 10
0.0
 20
0.0
 30
0.0
  0
LWPOLYLINE
  5
4AE
100
AcDbEntity
  8
Sc.1_5
 62
     7
  6
CONTINUOUS
100
AcDbPolyline
 90
        6
 70
     1
 43
0.0
 10
2181.79273913
 20
-1780.10457227
 10
2183.79271499
 20
-1783.56863146
 10
2181.79273905
 20
-1780.10457186
 10
2173.99851049
 20
-1784.60457227
 10
2175.99848644
 20
-1788.06863187
 10
2183.79271499
 20
-1783.56863146
  0
INSERT
  5
4AF
100
AcDbEntity
  8
Sc.1_5
 62
     0
100
AcDbBlockReference
  2
*X1656
 10
0.0
 20
0.0
 30
0.0
  0
LWPOLYLINE
  5
4B0
100
AcDbEntity
  8
Sc.1_5
 62
     7
  6
CONTINUOUS
100
AcDbPolyline
 90
        6
 70
     1
 43
0.0
 10
2170.79276229
 20
-1761.05205543
 10
2172.79273816
 20
-1764.51611462
 10
2170.79276221
 20
-1761.05205502
 10
2162.99853366
 20
-1765.55205543
 10
2164.9985096
 20
-1769.01611503
 10
2172.79273816
 20
-1764.51611462
  0
INSERT
  5
4B1
100
AcDbEntity
  8
Sc.1_5
 62
     0
100
AcDbBlockReference
  2
*X1657
 10
0.0
 20
0.0
 30
0.0
  0
LINE
  5
4B2
100
AcDbEntity
  8
Sc.1_5
 62
     7
  6
CONTINUOUS
100
AcDbLine
 10
2118.85959771
 20
-1795.65448459
 30
0.0
 11
2247.16727476
 21
-1721.5760127
 31
0.0
  0
LWPOLYLINE
  5
4B3
100
AcDbEntity
  8
Sc.1_5
 62
     7
  6
CONTINUOUS
100
AcDbPolyline
 90
        6
 70
     1
 43
0.0
 10
2125.85962226
 20
-1786.99432931
 10
2127.85959813
 20
-1790.4583885
 10
2125.85962218
 20
-1786.9943289
 10
2118.06539363
 20
-1791.49432931
 10
2120.06536957
 20
-1794.95838891
 10
2127.85959813
 20
-1790.4583885
  0
INSERT
  5
4B4
100
AcDbEntity
  8
Sc.1_5
 62
     0
100
AcDbBlockReference
  2
*X1659
 10
0.0
 20
0.0
 30
0.0
  0
LINE
  5
4B5
100
AcDbEntity
  8
Sc.1_5
 62
     7
  6
CONTINUOUS
100
AcDbLine
 10
2114.37134609
 20
-1795.85429562
 30
0.0
 11
2110.77134609
 21
-1795.85429562
 31
0.0
  0
LINE
  5
4B6
100
AcDbEntity
  8
Sc.1_5
 62
     7
  6
CONTINUOUS
100
AcDbLine
 10
2110.77134609
 20
-1795.85429562
 30
0.0
 11
2110.77134609
 21
-1855.37899634
 31
0.0
  0
LINE
  5
4B7
100
AcDbEntity
  8
Sc.1_5
 62
     7
  6
CONTINUOUS
100
AcDbLine
 10
2110.77134609
 20
-1855.37899634
 30
0.0
 11
2114.37134609
 21
-1855.37899634
 31
0.0
  0
LINE
  5
4B8
100
AcDbEntity
  8
Sc.1_5
 62
     7
  6
CONTINUOUS
100
AcDbLine
 10
2114.37134609
 20
-1855.37899634
 30
0.0
 11
2114.37134609
 21
-1853.37899634
 31
0.0
  0
LINE
  5
4B9
100
AcDbEntity
  8
Sc.1_5
 62
     7
  6
CONTINUOUS
100
AcDbLine
 10
2114.37134609
 20
-1853.37899634
 30
0.0
 11
2113.37134609
 21
-1853.37899634
 31
0.0
  0
LINE
  5
4BA
100
AcDbEntity
  8
Sc.1_5
 62
     7
  6
CONTINUOUS
100
AcDbLine
 10
2113.37134609
 20
-1853.37899634
 30
0.0
 11
2113.37134609
 21
-1851.57899634
 31
0.0
  0
LINE
  5
4BB
100
AcDbEntity
  8
Sc.1_5
 62
     7
  6
CONTINUOUS
100
AcDbLine
 10
2113.37134609
 20
-1851.57899634
 30
0.0
 11
2114.37134609
 21
-1851.57899634
 31
0.0
  0
LINE
  5
4BC
100
AcDbEntity
  8
Sc.1_5
 62
     7
  6
CONTINUOUS
100
AcDbLine
 10
2114.37134609
 20
-1851.57899634
 30
0.0
 11
2114.37134609
 21
-1799.29266101
 31
0.0
  0
LINE
  5
4BD
100
AcDbEntity
  8
Sc.1_5
 62
     7
  6
CONTINUOUS
100
AcDbLine
 10
2114.37134609
 20
-1799.29266101
 30
0.0
 11
2113.37134609
 21
-1799.29266101
 31
0.0
  0
LINE
  5
4BE
100
AcDbEntity
  8
Sc.1_5
 62
     7
  6
CONTINUOUS
100
AcDbLine
 10
2113.37134609
 20
-1799.29266101
 30
0.0
 11
2113.37134609
 21
-1798.29266101
 31
0.0
  0
LINE
  5
4BF
100
AcDbEntity
  8
Sc.1_5
 62
     7
  6
CONTINUOUS
100
AcDbLine
 10
2113.37134609
 20
-1798.29266101
 30
0.0
 11
2114.37134609
 21
-1798.29266101
 31
0.0
  0
LINE
  5
4C0
100
AcDbEntity
  8
Sc.1_5
 62
     7
  6
CONTINUOUS
100
AcDbLine
 10
2114.37134609
 20
-1798.29266101
 30
0.0
 11
2114.37134609
 21
-1795.85429562
 31
0.0
  0
LINE
  5
4C1
100
AcDbEntity
  8
Sc.1_5
 62
     7
  6
CONTINUOUS
100
AcDbLine
 10
2110.27134621
 20
-1805.78976114
 30
0.0
 11
2110.27134647
 21
-1808.71862511
 31
0.0
  0
LINE
  5
4C2
100
AcDbEntity
  8
Sc.1_5
 62
     7
  6
CONTINUOUS
100
AcDbLine
 10
2109.2713471
 20
-1816.139038
 30
0.0
 11
2107.62530933
 21
-1816.13903815
 31
0.0
  0
LINE
  5
4C3
100
AcDbEntity
  8
Sc.1_5
 62
     7
  6
CONTINUOUS
100
AcDbLine
 10
2086.31738299
 20
-1798.73903998
 30
0.0
 11
2087.417383
 21
-1798.73903989
 31
0.0
  0
LINE
  5
4C4
100
AcDbEntity
  8
Sc.1_5
 62
     7
  6
CONTINUOUS
100
AcDbLine
 10
2085.7173831
 20
-1800.10261532
 30
0.0
 11
2085.71738303
 21
-1799.33904004
 31
0.0
  0
ARC
  5
4C5
100
AcDbEntity
  8
Sc.1_5
 62
     7
  6
CONTINUOUS
100
AcDbCircle
 10
2097.7173838
 20
-1806.1390391
 30
0.0
 40
10.00000015
100
AcDbArc
 50
180.00000501
 51
270.00000501
  0
LINE
  5
4C6
100
AcDbEntity
  8
Sc.1_5
 62
     7
  6
CONTINUOUS
100
AcDbLine
 10
2087.19103136
 20
-1800.86591891
 30
0.0
 11
2086.21319425
 21
-1800.69349994
 31
0.0
  0
LINE
  5
4C7
100
AcDbEntity
  8
Sc.1_5
 62
     7
  6
CONTINUOUS
100
AcDbLine
 10
2109.66053347
 20
-1805.45562503
 30
0.0
 11
2110.27134609
 21
-1804.33903774
 31
0.0
  0
LINE
  5
4C8
100
AcDbEntity
  8
Sc.1_5
 62
     7
  6
CONTINUOUS
100
AcDbLine
 10
2109.66053347
 20
-1805.45562503
 30
0.0
 11
2110.27134621
 21
-1805.78976114
 31
0.0
  0
LINE
  5
4C9
100
AcDbEntity
  8
Sc.1_5
 62
     7
  6
CONTINUOUS
100
AcDbLine
 10
2109.97134649
 20
-1809.01862514
 30
0.0
 11
2109.97134683
 21
-1812.91017397
 31
0.0
  0
LINE
  5
4CA
100
AcDbEntity
  8
Sc.1_5
 62
     7
  6
CONTINUOUS
100
AcDbLine
 10
2110.27134686
 20
-1813.21017395
 30
0.0
 11
2109.97134683
 21
-1812.91017397
 31
0.0
  0
LINE
  5
4CB
100
AcDbEntity
  8
Sc.1_5
 62
     7
  6
CONTINUOUS
100
AcDbLine
 10
2110.27134647
 20
-1808.71862511
 30
0.0
 11
2109.97134649
 21
-1809.01862514
 31
0.0
  0
LINE
  5
4CC
100
AcDbEntity
  8
Sc.1_5
 62
     7
  6
CONTINUOUS
100
AcDbLine
 10
2110.27134686
 20
-1813.21017395
 30
0.0
 11
2110.27134703
 21
-1815.1390379
 31
0.0
  0
LINE
  5
4CD
100
AcDbEntity
  8
Sc.1_5
 62
     7
  6
CONTINUOUS
100
AcDbLine
 10
2107.32530935
 20
-1816.43903818
 30
0.0
 11
2098.01738471
 21
-1816.43903899
 31
0.0
  0
LINE
  5
4CE
100
AcDbEntity
  8
Sc.1_5
 62
     7
  6
CONTINUOUS
100
AcDbLine
 10
2107.62530933
 20
-1816.13903815
 30
0.0
 11
2107.32530935
 21
-1816.43903818
 31
0.0
  0
LINE
  5
4CF
100
AcDbEntity
  8
Sc.1_5
 62
     7
  6
CONTINUOUS
100
AcDbLine
 10
2097.71738468
 20
-1816.13903901
 30
0.0
 11
2098.01738471
 21
-1816.43903899
 31
0.0
  0
LINE
  5
4D0
100
AcDbEntity
  8
Sc.1_5
 62
     7
  6
CONTINUOUS
100
AcDbLine
 10
2097.71738468
 20
-1816.13903901
 30
0.0
 11
2097.71738468
 21
-1816.13903924
 31
0.0
  0
LINE
  5
4D1
100
AcDbEntity
  8
Sc.1_5
 62
     7
  6
CONTINUOUS
100
AcDbLine
 10
2088.01738363
 20
-1805.83903994
 30
0.0
 11
2088.01738328
 21
-1801.85072661
 31
0.0
  0
LINE
  5
4D2
100
AcDbEntity
  8
Sc.1_5
 62
     7
  6
CONTINUOUS
100
AcDbLine
 10
2087.71738366
 20
-1806.13903997
 30
0.0
 11
2088.01738363
 21
-1805.83903994
 31
0.0
  0
LINE
  5
4D3
100
AcDbEntity
  8
Sc.1_5
 62
     7
  6
CONTINUOUS
100
AcDbLine
 10
2088.01738307
 20
-1799.33903984
 30
0.0
 11
2088.01738311
 21
-1799.81734733
 31
0.0
  0
ARC
  5
4D4
100
AcDbEntity
  8
Sc.1_5
 62
     7
  6
CONTINUOUS
100
AcDbCircle
 10
2087.01738327
 20
-1801.8507267
 30
0.0
 40
1.00000001
100
AcDbArc
 50
5.0088956410629E-06
 51
80.00000501
  0
ARC
  5
4D5
100
AcDbEntity
  8
Sc.1_5
 62
     7
  6
CONTINUOUS
100
AcDbCircle
 10
2086.31738311
 20
-1800.10261527
 30
0.0
 40
0.60000001
100
AcDbArc
 50
180.00000501
 51
260.00000501
  0
ARC
  5
4D6
100
AcDbEntity
  8
Sc.1_5
 62
     7
  6
CONTINUOUS
100
AcDbCircle
 10
2086.31738304
 20
-1799.33903999
 30
0.0
 40
0.60000001
100
AcDbArc
 50
90.00000501
 51
180.00000501
  0
ARC
  5
4D7
100
AcDbEntity
  8
Sc.1_5
 62
     7
  6
CONTINUOUS
100
AcDbCircle
 10
2087.41738306
 20
-1799.3390399
 30
0.0
 40
0.60000001
100
AcDbArc
 50
5.0089720693593E-06
 51
90.00000501
  0
LINE
  5
4D8
100
AcDbEntity
  8
Sc.1_5
 62
     7
  6
CONTINUOUS
100
AcDbLine
 10
2109.49766556
 20
-1805.503312
 30
0.0
 11
2110.16606865
 21
-1804.28144727
 31
0.0
  0
LINE
  5
4D9
100
AcDbEntity
  8
Sc.1_5
 62
     7
  6
CONTINUOUS
100
AcDbLine
 10
2109.49766556
 20
-1805.503312
 30
0.0
 11
2110.15134622
 21
-1805.86089837
 31
0.0
  0
LINE
  5
4DA
100
AcDbEntity
  8
Sc.1_5
 62
     7
  6
CONTINUOUS
100
AcDbLine
 10
2110.15134622
 20
-1805.86089837
 30
0.0
 11
2110.15134646
 21
-1808.66891949
 31
0.0
  0
LINE
  5
4DB
100
AcDbEntity
  8
Sc.1_5
 62
     7
  6
CONTINUOUS
100
AcDbLine
 10
2110.15134646
 20
-1808.66891949
 30
0.0
 11
2109.85134649
 21
-1808.96891952
 31
0.0
  0
LINE
  5
4DC
100
AcDbEntity
  8
Sc.1_5
 62
     7
  6
CONTINUOUS
100
AcDbLine
 10
2109.85134649
 20
-1808.96891952
 30
0.0
 11
2109.85134683
 21
-1812.95987961
 31
0.0
  0
LINE
  5
4DD
100
AcDbEntity
  8
Sc.1_5
 62
     7
  6
CONTINUOUS
100
AcDbLine
 10
2110.15134687
 20
-1813.25987959
 30
0.0
 11
2109.85134683
 21
-1812.95987961
 31
0.0
  0
ARC
  5
4DE
100
AcDbEntity
  8
Sc.1_5
 62
     7
  6
CONTINUOUS
100
AcDbCircle
 10
2109.27134702
 20
-1815.13903799
 30
0.0
 40
1.00000001
100
AcDbArc
 50
270.00000501
 51
5.0088747969800E-06
  0
LINE
  5
4DF
100
AcDbEntity
  8
Sc.1_5
 62
     7
  6
CONTINUOUS
100
AcDbLine
 10
2110.15134686
 20
-1813.21017396
 30
0.0
 11
2110.15134703
 21
-1815.13903791
 31
0.0
  0
ARC
  5
4E0
100
AcDbEntity
  8
Sc.1_5
 62
     7
  6
CONTINUOUS
100
AcDbCircle
 10
2109.27134702
 20
-1815.13903799
 30
0.0
 40
0.88000001
100
AcDbArc
 50
270.00000501
 51
5.0090462869403E-06
  0
LINE
  5
4E1
100
AcDbEntity
  8
Sc.1_5
 62
     7
  6
CONTINUOUS
100
AcDbLine
 10
2109.27134709
 20
-1816.019038
 30
0.0
 11
2107.57560369
 21
-1816.01903815
 31
0.0
  0
LINE
  5
4E2
100
AcDbEntity
  8
Sc.1_5
 62
     7
  6
CONTINUOUS
100
AcDbLine
 10
2107.57560369
 20
-1816.01903815
 30
0.0
 11
2107.27560372
 21
-1816.31903818
 31
0.0
  0
LINE
  5
4E3
100
AcDbEntity
  8
Sc.1_5
 62
     7
  6
CONTINUOUS
100
AcDbLine
 10
2107.27560372
 20
-1816.31903818
 30
0.0
 11
2098.06709033
 21
-1816.31903899
 31
0.0
  0
LINE
  5
4E4
100
AcDbEntity
  8
Sc.1_5
 62
     7
  6
CONTINUOUS
100
AcDbLine
 10
2097.7670903
 20
-1816.01903901
 30
0.0
 11
2098.06709033
 21
-1816.31903899
 31
0.0
  0
LINE
  5
4E5
100
AcDbEntity
  8
Sc.1_5
 62
     7
  6
CONTINUOUS
100
AcDbLine
 10
2097.7670903
 20
-1816.01903901
 30
0.0
 11
2097.71738467
 21
-1816.01903924
 31
0.0
  0
ARC
  5
4E6
100
AcDbEntity
  8
Sc.1_5
 62
     7
  6
CONTINUOUS
100
AcDbCircle
 10
2097.7173838
 20
-1806.1390391
 30
0.0
 40
9.88000015
100
AcDbArc
 50
180.28753603
 51
270.00000501
  0
LINE
  5
4E7
100
AcDbEntity
  8
Sc.1_5
 62
     7
  6
CONTINUOUS
100
AcDbLine
 10
2087.83750807
 20
-1806.18862118
 30
0.0
 11
2088.13738364
 21
-1805.88874556
 31
0.0
  0
LINE
  5
4E8
100
AcDbEntity
  8
Sc.1_5
 62
     7
  6
CONTINUOUS
100
AcDbLine
 10
2088.13738364
 20
-1805.88874556
 30
0.0
 11
2088.13738329
 21
-1801.8507266
 31
0.0
  0
ARC
  5
4E9
100
AcDbEntity
  8
Sc.1_5
 62
     7
  6
CONTINUOUS
100
AcDbCircle
 10
2087.01738327
 20
-1801.8507267
 30
0.0
 40
1.12000002
100
AcDbArc
 50
5.0090936598338E-06
 51
80.00000501
  0
LINE
  5
4EA
100
AcDbEntity
  8
Sc.1_5
 62
     7
  6
CONTINUOUS
100
AcDbLine
 10
2087.21186914
 20
-1800.74774198
 30
0.0
 11
2086.23403202
 21
-1800.575323
 31
0.0
  0
ARC
  5
4EB
100
AcDbEntity
  8
Sc.1_5
 62
     7
  6
CONTINUOUS
100
AcDbCircle
 10
2086.31738311
 20
-1800.10261527
 30
0.0
 40
0.48000001
100
AcDbArc
 50
180.00000501
 51
260.00000501
  0
LINE
  5
4EC
100
AcDbEntity
  8
Sc.1_5
 62
     7
  6
CONTINUOUS
100
AcDbLine
 10
2085.8373831
 20
-1800.10261531
 30
0.0
 11
2085.83738303
 21
-1799.33904003
 31
0.0
  0
ARC
  5
4ED
100
AcDbEntity
  8
Sc.1_5
 62
     7
  6
CONTINUOUS
100
AcDbCircle
 10
2086.31738304
 20
-1799.33903999
 30
0.0
 40
0.48000001
100
AcDbArc
 50
90.00000501
 51
180.00000501
  0
LINE
  5
4EE
100
AcDbEntity
  8
Sc.1_5
 62
     7
  6
CONTINUOUS
100
AcDbLine
 10
2086.317383
 20
-1798.85903998
 30
0.0
 11
2087.41738301
 21
-1798.85903989
 31
0.0
  0
ARC
  5
4EF
100
AcDbEntity
  8
Sc.1_5
 62
     7
  6
CONTINUOUS
100
AcDbCircle
 10
2087.41738306
 20
-1799.3390399
 30
0.0
 40
0.48000001
100
AcDbArc
 50
5.0089199591575E-06
 51
90.00000501
  0
LINE
  5
4F0
100
AcDbEntity
  8
Sc.1_5
 62
     7
  6
CONTINUOUS
100
AcDbLine
 10
2087.89738306
 20
-1799.33903985
 30
0.0
 11
2087.89738311
 21
-1799.81734734
 31
0.0
  0
LINE
  5
4F1
100
AcDbEntity
  8
Sc.1_5
 62
     7
  6
CONTINUOUS
100
AcDbLine
 10
2088.01738311
 20
-1799.81734733
 30
0.0
 11
2087.89738311
 21
-1799.81734734
 31
0.0
  0
LINE
  5
4F2
100
AcDbEntity
  8
Sc.1_5
 62
     7
  6
CONTINUOUS
100
AcDbLine
 10
2110.27134609
 20
-1804.33903774
 30
0.0
 11
2110.16606865
 21
-1804.28144727
 31
0.0
  0
LINE
  5
4F3
100
AcDbEntity
  8
Sc.1_5
 62
     7
  6
DASHED
370
    25
100
AcDbLine
 10
2107.92591646
 20
-1797.2651618
 30
0.0
 11
2245.50844858
 21
-1717.83184985
 31
0.0
  0
LINE
  5
4F4
100
AcDbEntity
  8
Sc.1_5
 62
     7
  6
CONTINUOUS
100
AcDbLine
 10
2104.38181661
 20
-1799.01390783
 30
0.0
 11
2245.38354675
 21
-1717.60652098
 31
0.0
  0
LINE
  5
4F5
100
AcDbEntity
  8
Sc.1_5
 62
     7
  6
CONTINUOUS
100
AcDbLine
 10
2102.38181661
 20
-1795.54980621
 30
0.0
 11
2243.44401286
 21
-1714.10750923
 31
0.0
  0
LINE
  5
4F6
100
AcDbEntity
  8
Sc.1_5
 62
     7
  6
CONTINUOUS
100
AcDbLine
 10
2104.38181661
 20
-1799.01390783
 30
0.0
 11
2102.38181661
 21
-1795.54980621
 31
0.0
  0
ARC
  5
4F7
100
AcDbEntity
  8
Sc.1_5
 62
     7
  6
DASHED
370
    25
100
AcDbCircle
 10
2114.53398426
 20
-1808.71067096
 30
0.0
 40
13.21613559
100
AcDbArc
 50
120.0
 51
145.42698115
  0
LINE
  5
4F8
100
AcDbEntity
  8
Sc.1_5
 62
     7
  6
CONTINUOUS
 48
0.5
370
    -3
100
AcDbLine
 10
2221.0470619
 20
-1709.17594049
 30
500.0
 11
2245.08208739
 21
-1725.62436369
 31
500.0
  0
INSERT
  5
4F9
100
AcDbEntity
  8
Sc.1_5
 62
     7
  6
CONTINUOUS
370
    -3
100
AcDbBlockReference
  2
CDWK_EXTR_2
 10
2245.08208739
 20
-1725.62436369
 30
500.0
 41
1.0
 42
1.0
 43
1.0
 50
145.61412566
  0
LINE
  5
4FA
100
AcDbEntity
  8
Sc.1_5
 62
     7
  6
CONTINUOUS
370
    25
100
AcDbLine
 10
2164.46967739
 20
-1822.78554959
 30
0.0
 11
2164.46967739
 21
-1876.43955437
 31
0.0
  0
LINE
  5
4FB
100
AcDbEntity
  8
Sc.1_5
 62
     7
  6
CONTINUOUS
370
    25
100
AcDbLine
 10
2168.26967739
 20
-1876.43955437
 30
0.0
 11
2168.26967739
 21
-1820.59161856
 31
0.0
  0
LINE
  5
4FC
100
AcDbEntity
  8
Sc.1_5
 62
     7
  6
CONTINUOUS
370
    25
100
AcDbLine
 10
2168.26967739
 20
-1820.59161856
 30
0.0
 11
2164.46967739
 21
-1822.7294551
 31
0.0
  0
LINE
  5
4FD
100
AcDbEntity
  8
Sc.1_5
 62
     7
  6
CONTINUOUS
100
AcDbLine
 10
2166.36163932
 20
-1821.69322485
 30
0.0
 11
2166.36163932
 21
-1876.43955437
 31
0.0
  0
LINE
  5
4FE
100
AcDbEntity
  8
Sc.1_5
 62
     7
  6
DASHED
370
    25
100
AcDbLine
 10
2258.12822838
 20
-1740.61758703
 30
0.0
 11
2175.25965561
 21
-1788.46179317
 31
0.0
  0
LINE
  5
4FF
100
AcDbEntity
  8
Sc.1_5
 62
     7
  6
CONTINUOUS
370
    35
100
AcDbLine
 10
2114.57134609
 20
-1848.77045727
 30
0.0
 11
2118.6595981
 21
-1848.77045727
 31
0.0
  0
LINE
  5
500
100
AcDbEntity
  8
Sc.1_5
 62
     7
  6
CONTINUOUS
370
    35
100
AcDbLine
 10
2118.6595981
 20
-1848.77045727
 30
0.0
 11
2118.6595981
 21
-1838.77045727
 31
0.0
  0
LINE
  5
501
100
AcDbEntity
  8
Sc.1_5
 62
     7
  6
CONTINUOUS
370
    35
100
AcDbLine
 10
2114.57134609
 20
-1848.77045727
 30
0.0
 11
2114.57134609
 21
-1844.77045727
 31
0.0
  0
LINE
  5
502
100
AcDbEntity
  8
Sc.1_5
 62
     7
  6
CONTINUOUS
100
AcDbLine
 10
2175.74863857
 20
-1815.92561157
 30
0.0
 11
2203.74863899
 21
-1815.92561035
 31
0.0
  0
LINE
  5
503
100
AcDbEntity
  8
Sc.1_5
 62
     7
  6
CONTINUOUS
 48
0.5
370
    -3
100
AcDbLine
 10
2234.90230888
 20
-1831.57600477
 30
500.0
 11
2200.05333402
 21
-1809.75390101
 31
500.0
  0
INSERT
  5
504
100
AcDbEntity
  8
Sc.1_5
 62
     7
  6
CONTINUOUS
370
    -3
100
AcDbBlockReference
  2
CDWK_EXTR_2
 10
2200.05333402
 20
-1809.75390101
 30
500.0
 41
1.0
 42
1.0
 43
1.0
 50
327.9455847
  0
LWPOLYLINE
  5
505
100
AcDbEntity
  8
Sc.1_1
 62
     7
  6
DASHDOT
370
     5
100
AcDbPolyline
 90
        4
 70
     1
 43
0.0
 10
2081.79963971
 20
-1941.58736414
 10
2113.70271182
 20
-1941.58736414
 10
2113.70271182
 20
-1925.59035714
 10
2081.79963971
 20
-1925.59035714
  0
LWPOLYLINE
  5
506
100
AcDbEntity
  8
LEGEND
 62
     5
  6
CONTINUOUS
370
    -3
100
AcDbPolyline
 90
        4
 70
     1
 43
0.0
 10
2113.38493618
 20
-1942.22101287
 10
2171.20029042
 20
-1942.22101287
 10
2171.20029042
 20
-1924.95865138
 10
2113.38493618
 20
-1924.95865138
  0
LWPOLYLINE
  5
507
100
AcDbEntity
  8
LEGEND
 62
     5
  6
CONTINUOUS
370
    -3
100
AcDbPolyline
 90
        4
 70
     1
 43
0.0
 10
2171.20029042
 20
-1942.22101287
 10
2244.59244197
 20
-1942.22101287
 10
2244.59244197
 20
-1924.95865138
 10
2171.20029042
 20
-1924.95865138
  0
LWPOLYLINE
  5
508
100
AcDbEntity
  8
LEGEND
 62
     5
  6
CONTINUOUS
370
    -3
100
AcDbPolyline
 90
        4
 70
     1
 43
0.0
 10
2244.59244197
 20
-1942.22101287
 10
2279.1164411
 20
-1942.22101287
 10
2279.1164411
 20
-1933.58983213
 10
2244.59244197
 20
-1933.58983213
  0
LWPOLYLINE
  5
509
100
AcDbEntity
  8
LEGEND
 62
     5
  6
CONTINUOUS
370
    -3
100
AcDbPolyline
 90
        4
 70
     1
 43
0.0
 10
2244.59244197
 20
-1933.58983213
 10
2259.50069065
 20
-1933.58983213
 10
2259.50069065
 20
-1924.95865138
 10
2244.59244197
 20
-1924.95865138
  0
LWPOLYLINE
  5
50A
100
AcDbEntity
  8
LEGEND
 62
     5
  6
CONTINUOUS
370
    -3
100
AcDbPolyline
 90
        4
 70
     1
 43
0.0
 10
2082.1164411
 20
-1942.22101287
 10
2279.1164411
 20
-1942.22101287
 10
2279.1164411
 20
-1671.22101287
 10
2082.1164411
 20
-1671.22101287
  0
LWPOLYLINE
  5
50B
100
AcDbEntity
  8
LEGEND
 62
     5
  6
CONTINUOUS
370
    -3
100
AcDbPolyline
 90
        4
 70
     1
 43
0.0
 10
2259.50069065
 20
-1933.58983213
 10
2279.1164411
 20
-1933.58983213
 10
2279.1164411
 20
-1924.95865138
 10
2259.50069065
 20
-1924.95865138
  0
LWPOLYLINE
  5
50C
100
AcDbEntity
  8
LEGEND
 62
     5
  6
CONTINUOUS
370
    -3
100
AcDbPolyline
 90
        4
 70
     1
 43
0.0
 10
2082.1164411
 20
-1942.22101287
 10
2113.38493618
 20
-1942.22101287
 10
2113.38493618
 20
-1924.95865138
 10
2082.1164411
 20
-1924.95865138
  0
3DFACE
  5
50D
100
AcDbEntity
  8
Sc.1_5
 62
     7
  6
CONTINUOUS
370
    20
100
AcDbFace
 70
     0
 10
2168.88416259
 20
-1824.92561188
 30
548.63999023
 11
2172.88416265
 21
-1824.92561153
 31
548.63999023
 12
2172.88416335
 22
-1832.92561165
 32
548.63999023
 13
2168.88416329
 23
-1832.925612
 33
548.63999023
  0
INSERT
  5
50E
100
AcDbEntity
  8
Sc.1_5
 62
     0
370
    20
100
AcDbBlockReference
  2
*X2010
 10
0.0
 20
0.0
 30
0.0
  0
3DFACE
  5
50F
100
AcDbEntity
  8
Sc.1_5
 62
     7
  6
CONTINUOUS
370
    20
100
AcDbFace
 70
     0
 10
2175.74863896
 20
-1815.92561157
 30
548.63999023
 11
2175.74863936
 21
-1824.92561171
 31
548.63999023
 12
2203.74863861
 22
-1824.92561048
 32
548.63999023
 13
2203.74863938
 23
-1815.92561035
 33
548.63999023
  0
INSERT
  5
510
100
AcDbEntity
  8
Sc.1_5
 62
     0
370
    20
100
AcDbBlockReference
  2
*X2238
 10
0.0
 20
0.0
 30
0.0
  0
3DFACE
  5
511
100
AcDbEntity
  8
Sc.1_5
 62
     7
  6
CONTINUOUS
370
    20
100
AcDbFace
 70
     0
 10
2175.74863896
 20
-1824.92561171
 30
548.63999023
 11
2175.74863936
 21
-1833.92561184
 31
548.63999023
 12
2203.74863861
 22
-1833.92561062
 32
548.63999023
 13
2203.74863938
 23
-1824.92561048
 33
548.63999023
  0
INSERT
  5
512
100
AcDbEntity
  8
Sc.1_5
 62
     0
370
    20
100
AcDbBlockReference
  2
*X2239
 10
0.0
 20
0.0
 30
0.0
  0
3DFACE
  5
513
100
AcDbEntity
  8
Sc.1_5
 62
     7
  6
CONTINUOUS
370
    20
100
AcDbFace
 70
     0
 10
2203.74853967
 20
-1833.92561184
 30
914.4
 11
2203.74853967
 21
-1876.43955263
 31
914.4
 12
2175.74863936
 22
-1876.43955263
 32
914.4
 13
2175.74863936
 23
-1833.92561184
 33
914.4
  0
INSERT
  5
514
100
AcDbEntity
  8
Sc.1_5
 62
     0
370
    20
100
AcDbBlockReference
  2
*X2242
 10
0.0
 20
0.0
 30
0.0
  0
LWPOLYLINE
  5
515
100
AcDbEntity
  8
Sc.1_5
 62
     9
  6
CONTINUOUS
370
    20
100
AcDbPolyline
 90
       11
 70
     1
 43
0.0
 38
548.63999023
 39
-548.63999023
 10
2172.31651411
 20
-1792.06330715
 10
2194.93842911
 20
-1829.8023755
 10
2195.0793761
 20
-1830.0375107
 10
2195.53151248
 20
-1830.63311759
 10
2195.66922339
 20
-1830.77449332
 10
2196.44621906
 20
-1831.34524464
 10
2196.23379431
 20
-1830.23281074
 10
2196.17617504
 20
-1830.08898286
 10
2195.80082485
 20
-1829.29605873
 10
2195.69548361
 20
-1829.12032291
 10
2173.1738495
 20
-1791.54854841
  0
LWPOLYLINE
  5
516
100
AcDbEntity
  8
Sc.1_5
 62
     9
  6
CONTINUOUS
370
    20
100
AcDbPolyline
 90
        8
 70
     1
 43
0.0
 38
548.63999023
 39
-548.63999023
 10
2195.54713981
 20
-1827.90034263
 10
2195.28951767
 20
-1828.44306919
 10
2194.5660117
 20
-1829.18108921
 10
2194.16954844
 20
-1829.4921937
 10
2194.42717057
 20
-1828.94946713
 10
2195.15067654
 20
-1828.21144712
 10
2195.54713981
 20
-1827.90034263
 10
2194.16954844
 20
-1829.4921937
  0
LWPOLYLINE
  5
517
100
AcDbEntity
  8
Sc.1_5
 62
     9
  6
CONTINUOUS
370
    20
100
AcDbPolyline
 90
        8
 70
     1
 43
0.0
 38
548.63999023
 39
-548.63999023
 10
2194.91103143
 20
-1826.83915318
 10
2194.6534093
 20
-1827.38187974
 10
2193.92990333
 20
-1828.11989976
 10
2193.53344006
 20
-1828.43100425
 10
2193.7910622
 20
-1827.88827769
 10
2194.51456817
 20
-1827.15025767
 10
2194.91103143
 20
-1826.83915318
 10
2193.53344006
 20
-1828.43100425
  0
3DFACE
  5
518
100
AcDbEntity
  8
Sc.1_5
 62
     9
  6
CONTINUOUS
370
    20
100
AcDbFace
 70
     0
 10
2170.53236946
 20
-1791.61541716
 30
548.63999023
 11
2172.31676362
 21
-1792.06231113
 31
548.63999023
 12
2173.17322676
 22
-1791.5489217
 32
548.63999023
 13
2173.62012073
 23
-1789.76452762
 33
548.63999023
  0
3DFACE
  5
519
100
AcDbEntity
  8
Sc.1_5
 62
     9
  6
CONTINUOUS
370
    20
100
AcDbFace
 70
     0
 10
2170.53236946
 20
-1791.61541716
 30
548.63999023
 11
2170.42954226
 21
-1791.44387542
 31
548.63999023
 12
2173.51729353
 22
-1789.59298588
 32
548.63999023
 13
2173.62012073
 23
-1789.76452762
 33
548.63999023
  0
LWPOLYLINE
  5
51A
100
AcDbEntity
  8
Sc.1_5
 62
     9
  6
CADWORK_13
370
    -3
100
AcDbPolyline
 90
        4
 70
     0
 43
0.0
 38
510.0
 10
2172.40227224
 20
-1790.26136266
 10
2172.6566382
 20
-1791.07471148
 10
2172.14201299
 20
-1791.38319307
 10
2171.54456356
 20
-1790.77549864
  0
LINE
  5
51B
100
AcDbEntity
  8
Sc.1_5
 62
     9
  6
CADWORK_13
370
    -3
100
AcDbLine
 10
2172.3993256
 20
-1791.22895227
 30
510.0
 11
2171.9734179
 21
-1790.51843065
 31
510.0
  0
LWPOLYLINE
  5
51C
100
AcDbEntity
  8
Sc.1_5
 62
     9
  6
CONTINUOUS
370
    20
100
AcDbPolyline
 90
        8
 70
     1
 43
0.0
 38
548.63999023
 39
-548.63999023
 10
2194.27492306
 20
-1825.77796373
 10
2194.01730092
 20
-1826.3206903
 10
2193.29379495
 20
-1827.05871031
 10
2192.89733169
 20
-1827.3698148
 10
2193.15495382
 20
-1826.82708824
 10
2193.87845979
 20
-1826.08906822
 10
2194.27492306
 20
-1825.77796373
 10
2192.89733169
 20
-1827.3698148
  0
LWPOLYLINE
  5
51D
100
AcDbEntity
  8
Sc.1_5
 62
     9
  6
CONTINUOUS
370
    20
100
AcDbPolyline
 90
        8
 70
     1
 43
0.0
 38
548.63999023
 39
-548.63999023
 10
2193.63881468
 20
-1824.71677429
 10
2193.38119254
 20
-1825.25950085
 10
2192.65768658
 20
-1825.99752087
 10
2192.26122331
 20
-1826.30862536
 10
2192.51884545
 20
-1825.76589879
 10
2193.24235141
 20
-1825.02787878
 10
2193.63881468
 20
-1824.71677429
 10
2192.26122331
 20
-1826.30862536
  0
LWPOLYLINE
  5
51E
100
AcDbEntity
  8
Sc.1_5
 62
     9
  6
CONTINUOUS
370
    20
100
AcDbPolyline
 90
        8
 70
     1
 43
0.0
 38
548.63999023
 39
-548.63999023
 10
2193.00270631
 20
-1823.65558484
 10
2192.74508417
 20
-1824.1983114
 10
2192.0215782
 20
-1824.93633142
 10
2191.62511493
 20
-1825.24743591
 10
2191.88273707
 20
-1824.70470935
 10
2192.60624304
 20
-1823.96668933
 10
2193.00270631
 20
-1823.65558484
 10
2191.62511493
 20
-1825.24743591
  0
LWPOLYLINE
  5
51F
100
AcDbEntity
  8
Sc.1_5
 62
     9
  6
CONTINUOUS
370
    20
100
AcDbPolyline
 90
        8
 70
     1
 43
0.0
 38
548.63999023
 39
-548.63999023
 10
2192.36659793
 20
-1822.59439539
 10
2192.10897579
 20
-1823.13712196
 10
2191.38546982
 20
-1823.87514197
 10
2190.98900656
 20
-1824.18624646
 10
2191.2466287
 20
-1823.6435199
 10
2191.97013466
 20
-1822.90549988
 10
2192.36659793
 20
-1822.59439539
 10
2190.98900656
 20
-1824.18624646
  0
LWPOLYLINE
  5
520
100
AcDbEntity
  8
Sc.1_5
 62
     9
  6
CONTINUOUS
370
    20
100
AcDbPolyline
 90
        8
 70
     1
 43
0.0
 38
548.63999023
 39
-548.63999023
 10
2191.73048955
 20
-1821.53320595
 10
2191.47286742
 20
-1822.07593251
 10
2190.74936145
 20
-1822.81395253
 10
2190.35289818
 20
-1823.12505702
 10
2190.61052032
 20
-1822.58233045
 10
2191.33402629
 20
-1821.84431044
 10
2191.73048955
 20
-1821.53320595
 10
2190.35289818
 20
-1823.12505702
  0
LWPOLYLINE
  5
521
100
AcDbEntity
  8
Sc.1_5
 62
     9
  6
CONTINUOUS
370
    20
100
AcDbPolyline
 90
        8
 70
     1
 43
0.0
 38
548.63999023
 39
-548.63999023
 10
2191.09438118
 20
-1820.4720165
 10
2190.83675904
 20
-1821.01474306
 10
2190.11325307
 20
-1821.75276308
 10
2189.71678981
 20
-1822.06386757
 10
2189.97441194
 20
-1821.521141
 10
2190.69791791
 20
-1820.78312099
 10
2191.09438118
 20
-1820.4720165
 10
2189.71678981
 20
-1822.06386757
  0
LWPOLYLINE
  5
522
100
AcDbEntity
  8
Sc.1_5
 62
     9
  6
CONTINUOUS
370
    20
100
AcDbPolyline
 90
        8
 70
     1
 43
0.0
 38
548.63999023
 39
-548.63999023
 10
2190.4582728
 20
-1819.41082705
 10
2190.20065067
 20
-1819.95355362
 10
2189.4771447
 20
-1820.69157363
 10
2189.08068143
 20
-1821.00267812
 10
2189.33830357
 20
-1820.45995156
 10
2190.06180954
 20
-1819.72193154
 10
2190.4582728
 20
-1819.41082705
 10
2189.08068143
 20
-1821.00267812
  0
LWPOLYLINE
  5
523
100
AcDbEntity
  8
Sc.1_5
 62
     9
  6
CONTINUOUS
370
    20
100
AcDbPolyline
 90
        8
 70
     1
 43
0.0
 38
548.63999023
 39
-548.63999023
 10
2189.82216443
 20
-1818.3496376
 10
2189.56454229
 20
-1818.89236417
 10
2188.84103632
 20
-1819.63038418
 10
2188.44457306
 20
-1819.94148867
 10
2188.70219519
 20
-1819.39876211
 10
2189.42570116
 20
-1818.66074209
 10
2189.82216443
 20
-1818.3496376
 10
2188.44457306
 20
-1819.94148867
  0
LWPOLYLINE
  5
524
100
AcDbEntity
  8
Sc.1_5
 62
     9
  6
CONTINUOUS
370
    20
100
AcDbPolyline
 90
        8
 70
     1
 43
0.0
 38
548.63999023
 39
-548.63999023
 10
2189.18605605
 20
-1817.28844816
 10
2188.92843392
 20
-1817.83117472
 10
2188.20492795
 20
-1818.56919474
 10
2187.80846468
 20
-1818.88029923
 10
2188.06608682
 20
-1818.33757266
 10
2188.78959279
 20
-1817.59955265
 10
2189.18605605
 20
-1817.28844816
 10
2187.80846468
 20
-1818.88029923
  0
LWPOLYLINE
  5
525
100
AcDbEntity
  8
Sc.1_5
 62
     9
  6
CONTINUOUS
370
    20
100
AcDbPolyline
 90
        8
 70
     1
 43
0.0
 38
548.63999023
 39
-548.63999023
 10
2188.54994768
 20
-1816.22725871
 10
2188.29232554
 20
-1816.76998527
 10
2187.56881957
 20
-1817.50800529
 10
2187.17235631
 20
-1817.81910978
 10
2187.42997844
 20
-1817.27638322
 10
2188.15348441
 20
-1816.5383632
 10
2188.54994768
 20
-1816.22725871
 10
2187.17235631
 20
-1817.81910978
  0
LWPOLYLINE
  5
526
100
AcDbEntity
  8
Sc.1_5
 62
     9
  6
CONTINUOUS
370
    20
100
AcDbPolyline
 90
        8
 70
     1
 43
0.0
 38
548.63999023
 39
-548.63999023
 10
2187.9138393
 20
-1815.16606926
 10
2187.65621716
 20
-1815.70879583
 10
2186.9327112
 20
-1816.44681584
 10
2186.53624793
 20
-1816.75792033
 10
2186.79387007
 20
-1816.21519377
 10
2187.51737603
 20
-1815.47717375
 10
2187.9138393
 20
-1815.16606926
 10
2186.53624793
 20
-1816.75792033
  0
LWPOLYLINE
  5
527
100
AcDbEntity
  8
Sc.1_5
 62
     9
  6
CONTINUOUS
370
    20
100
AcDbPolyline
 90
        8
 70
     1
 43
0.0
 38
548.63999023
 39
-548.63999023
 10
2187.27773093
 20
-1814.10487982
 10
2187.02010879
 20
-1814.64760638
 10
2186.29660282
 20
-1815.3856264
 10
2185.90013955
 20
-1815.69673089
 10
2186.15776169
 20
-1815.15400432
 10
2186.88126766
 20
-1814.41598431
 10
2187.27773093
 20
-1814.10487982
 10
2185.90013955
 20
-1815.69673089
  0
LWPOLYLINE
  5
528
100
AcDbEntity
  8
Sc.1_5
 62
     9
  6
CONTINUOUS
370
    20
100
AcDbPolyline
 90
        8
 70
     1
 43
0.0
 38
548.63999023
 39
-548.63999023
 10
2186.64162255
 20
-1813.04369037
 10
2186.38400041
 20
-1813.58641693
 10
2185.66049444
 20
-1814.32443695
 10
2185.26403118
 20
-1814.63554144
 10
2185.52165332
 20
-1814.09281488
 10
2186.24515928
 20
-1813.35479486
 10
2186.64162255
 20
-1813.04369037
 10
2185.26403118
 20
-1814.63554144
  0
LWPOLYLINE
  5
529
100
AcDbEntity
  8
Sc.1_5
 62
     9
  6
CONTINUOUS
370
    20
100
AcDbPolyline
 90
        8
 70
     1
 43
0.0
 38
548.63999023
 39
-548.63999023
 10
2186.00551417
 20
-1811.98250092
 10
2185.74789204
 20
-1812.52522749
 10
2185.02438607
 20
-1813.2632475
 10
2184.6279228
 20
-1813.57435199
 10
2184.88554494
 20
-1813.03162543
 10
2185.60905091
 20
-1812.29360541
 10
2186.00551417
 20
-1811.98250092
 10
2184.6279228
 20
-1813.57435199
  0
LWPOLYLINE
  5
52A
100
AcDbEntity
  8
Sc.1_5
 62
     9
  6
CONTINUOUS
370
    20
100
AcDbPolyline
 90
        8
 70
     1
 43
0.0
 38
548.63999023
 39
-548.63999023
 10
2185.3694058
 20
-1810.92131148
 10
2185.11178366
 20
-1811.46403804
 10
2184.38827769
 20
-1812.20205806
 10
2183.99181443
 20
-1812.51316255
 10
2184.24943656
 20
-1811.97043598
 10
2184.97294253
 20
-1811.23241597
 10
2185.3694058
 20
-1810.92131148
 10
2183.99181443
 20
-1812.51316255
  0
LWPOLYLINE
  5
52B
100
AcDbEntity
  8
Sc.1_5
 62
     9
  6
CONTINUOUS
370
    20
100
AcDbPolyline
 90
        8
 70
     1
 43
0.0
 38
548.63999023
 39
-548.63999023
 10
2184.73329742
 20
-1809.86012203
 10
2184.47567529
 20
-1810.40284859
 10
2183.75216932
 20
-1811.14086861
 10
2183.35570605
 20
-1811.4519731
 10
2183.61332819
 20
-1810.90924653
 10
2184.33683416
 20
-1810.17122652
 10
2184.73329742
 20
-1809.86012203
 10
2183.35570605
 20
-1811.4519731
  0
LWPOLYLINE
  5
52C
100
AcDbEntity
  8
Sc.1_5
 62
     9
  6
CONTINUOUS
370
    20
100
AcDbPolyline
 90
        8
 70
     1
 43
0.0
 38
548.63999023
 39
-548.63999023
 10
2184.09718905
 20
-1808.79893258
 10
2183.83956691
 20
-1809.34165915
 10
2183.11606094
 20
-1810.07967916
 10
2182.71959768
 20
-1810.39078365
 10
2182.97721981
 20
-1809.84805709
 10
2183.70072578
 20
-1809.11003707
 10
2184.09718905
 20
-1808.79893258
 10
2182.71959768
 20
-1810.39078365
  0
LWPOLYLINE
  5
52D
100
AcDbEntity
  8
Sc.1_5
 62
     9
  6
CONTINUOUS
370
    20
100
AcDbPolyline
 90
        8
 70
     1
 43
0.0
 38
548.63999023
 39
-548.63999023
 10
2183.46108067
 20
-1807.73774314
 10
2183.20345853
 20
-1808.2804697
 10
2182.47995257
 20
-1809.01848972
 10
2182.0834893
 20
-1809.3295942
 10
2182.34111144
 20
-1808.78686764
 10
2183.06461741
 20
-1808.04884762
 10
2183.46108067
 20
-1807.73774314
 10
2182.0834893
 20
-1809.3295942
  0
LWPOLYLINE
  5
52E
100
AcDbEntity
  8
Sc.1_5
 62
     9
  6
CONTINUOUS
370
    20
100
AcDbPolyline
 90
        8
 70
     1
 43
0.0
 38
548.63999023
 39
-548.63999023
 10
2182.8249723
 20
-1806.67655369
 10
2182.56735016
 20
-1807.21928025
 10
2181.84384419
 20
-1807.95730027
 10
2181.44738092
 20
-1808.26840476
 10
2181.70500306
 20
-1807.72567819
 10
2182.42850903
 20
-1806.98765818
 10
2182.8249723
 20
-1806.67655369
 10
2181.44738092
 20
-1808.26840476
  0
LWPOLYLINE
  5
52F
100
AcDbEntity
  8
Sc.1_5
 62
     9
  6
CONTINUOUS
370
    20
100
AcDbPolyline
 90
        8
 70
     1
 43
0.0
 38
548.63999023
 39
-548.63999023
 10
2182.18886392
 20
-1805.61536424
 10
2181.93124178
 20
-1806.15809081
 10
2181.20773582
 20
-1806.89611082
 10
2180.81127255
 20
-1807.20721531
 10
2181.06889469
 20
-1806.66448875
 10
2181.79240065
 20
-1805.92646873
 10
2182.18886392
 20
-1805.61536424
 10
2180.81127255
 20
-1807.20721531
  0
LWPOLYLINE
  5
530
100
AcDbEntity
  8
Sc.1_5
 62
     9
  6
CONTINUOUS
370
    20
100
AcDbPolyline
 90
        8
 70
     1
 43
0.0
 38
548.63999023
 39
-548.63999023
 10
2181.55275555
 20
-1804.55417479
 10
2181.29513341
 20
-1805.09690136
 10
2180.57162744
 20
-1805.83492137
 10
2180.17516417
 20
-1806.14602586
 10
2180.43278631
 20
-1805.6032993
 10
2181.15629228
 20
-1804.86527928
 10
2181.55275555
 20
-1804.55417479
 10
2180.17516417
 20
-1806.14602586
  0
LWPOLYLINE
  5
531
100
AcDbEntity
  8
Sc.1_5
 62
     9
  6
CONTINUOUS
370
    20
100
AcDbPolyline
 90
        8
 70
     1
 43
0.0
 38
548.63999023
 39
-548.63999023
 10
2180.91664717
 20
-1803.49298535
 10
2180.65902503
 20
-1804.03571191
 10
2179.93551906
 20
-1804.77373193
 10
2179.5390558
 20
-1805.08483642
 10
2179.79667794
 20
-1804.54210985
 10
2180.5201839
 20
-1803.80408984
 10
2180.91664717
 20
-1803.49298535
 10
2179.5390558
 20
-1805.08483642
  0
LWPOLYLINE
  5
532
100
AcDbEntity
  8
Sc.1_5
 62
     9
  6
CONTINUOUS
370
    20
100
AcDbPolyline
 90
        8
 70
     1
 43
0.0
 38
548.63999023
 39
-548.63999023
 10
2180.28053879
 20
-1802.4317959
 10
2180.02291666
 20
-1802.97452246
 10
2179.29941069
 20
-1803.71254248
 10
2178.90294742
 20
-1804.02364697
 10
2179.16056956
 20
-1803.48092041
 10
2179.88407553
 20
-1802.74290039
 10
2180.28053879
 20
-1802.4317959
 10
2178.90294742
 20
-1804.02364697
  0
LWPOLYLINE
  5
533
100
AcDbEntity
  8
Sc.1_5
 62
     9
  6
CONTINUOUS
370
    20
100
AcDbPolyline
 90
        8
 70
     1
 43
0.0
 38
548.63999023
 39
-548.63999023
 10
2179.64443042
 20
-1801.37060645
 10
2179.38680828
 20
-1801.91333302
 10
2178.66330231
 20
-1802.65135303
 10
2178.26683905
 20
-1802.96245752
 10
2178.52446118
 20
-1802.41973096
 10
2179.24796715
 20
-1801.68171094
 10
2179.64443042
 20
-1801.37060645
 10
2178.26683905
 20
-1802.96245752
  0
LWPOLYLINE
  5
534
100
AcDbEntity
  8
Sc.1_5
 62
     9
  6
CONTINUOUS
370
    20
100
AcDbPolyline
 90
        8
 70
     1
 43
0.0
 38
548.63999023
 39
-548.63999023
 10
2179.00832204
 20
-1800.30941701
 10
2178.75069991
 20
-1800.85214357
 10
2178.02719394
 20
-1801.59016359
 10
2177.63073067
 20
-1801.90126808
 10
2177.88835281
 20
-1801.35854151
 10
2178.61185878
 20
-1800.6205215
 10
2179.00832204
 20
-1800.30941701
 10
2177.63073067
 20
-1801.90126808
  0
LWPOLYLINE
  5
535
100
AcDbEntity
  8
Sc.1_5
 62
     9
  6
CONTINUOUS
370
    20
100
AcDbPolyline
 90
        8
 70
     1
 43
0.0
 38
548.63999023
 39
-548.63999023
 10
2178.37221367
 20
-1799.24822756
 10
2178.11459153
 20
-1799.79095412
 10
2177.39108556
 20
-1800.52897414
 10
2176.9946223
 20
-1800.84007863
 10
2177.25224443
 20
-1800.29735207
 10
2177.9757504
 20
-1799.55933205
 10
2178.37221367
 20
-1799.24822756
 10
2176.9946223
 20
-1800.84007863
  0
LWPOLYLINE
  5
536
100
AcDbEntity
  8
Sc.1_5
 62
     9
  6
CONTINUOUS
370
    20
100
AcDbPolyline
 90
        8
 70
     1
 43
0.0
 38
548.63999023
 39
-548.63999023
 10
2177.73610529
 20
-1798.18703811
 10
2177.47848315
 20
-1798.72976468
 10
2176.75497719
 20
-1799.46778469
 10
2176.35851392
 20
-1799.77888918
 10
2176.61613606
 20
-1799.23616262
 10
2177.33964203
 20
-1798.4981426
 10
2177.73610529
 20
-1798.18703811
 10
2176.35851392
 20
-1799.77888918
  0
LWPOLYLINE
  5
537
100
AcDbEntity
  8
Sc.1_5
 62
     9
  6
CONTINUOUS
370
    20
100
AcDbPolyline
 90
        8
 70
     1
 43
0.0
 38
548.63999023
 39
-548.63999023
 10
2177.09999692
 20
-1797.12584867
 10
2176.84237478
 20
-1797.66857523
 10
2176.11886881
 20
-1798.40659525
 10
2175.72240554
 20
-1798.71769973
 10
2175.98002768
 20
-1798.17497317
 10
2176.70353365
 20
-1797.43695315
 10
2177.09999692
 20
-1797.12584867
 10
2175.72240554
 20
-1798.71769973
  0
LWPOLYLINE
  5
538
100
AcDbEntity
  8
Sc.1_5
 62
     9
  6
CONTINUOUS
370
    20
100
AcDbPolyline
 90
        8
 70
     1
 43
0.0
 38
548.63999023
 39
-548.63999023
 10
2176.46388854
 20
-1796.06465922
 10
2176.2062664
 20
-1796.60738578
 10
2175.48276044
 20
-1797.3454058
 10
2175.08629717
 20
-1797.65651029
 10
2175.34391931
 20
-1797.11378372
 10
2176.06742527
 20
-1796.37576371
 10
2176.46388854
 20
-1796.06465922
 10
2175.08629717
 20
-1797.65651029
  0
LWPOLYLINE
  5
539
100
AcDbEntity
  8
Sc.1_5
 62
     9
  6
CONTINUOUS
370
    20
100
AcDbPolyline
 90
        8
 70
     1
 43
0.0
 38
548.63999023
 39
-548.63999023
 10
2175.82778016
 20
-1795.00346977
 10
2175.57015803
 20
-1795.54619634
 10
2174.84665206
 20
-1796.28421635
 10
2174.45018879
 20
-1796.59532084
 10
2174.70781093
 20
-1796.05259428
 10
2175.4313169
 20
-1795.31457426
 10
2175.82778016
 20
-1795.00346977
 10
2174.45018879
 20
-1796.59532084
  0
LWPOLYLINE
  5
53A
100
AcDbEntity
  8
Sc.1_5
 62
     9
  6
CONTINUOUS
370
    20
100
AcDbPolyline
 90
        8
 70
     1
 43
0.0
 38
548.63999023
 39
-548.63999023
 10
2175.19167179
 20
-1793.94228032
 10
2174.93404965
 20
-1794.48500689
 10
2174.21054368
 20
-1795.2230269
 10
2173.81408042
 20
-1795.53413139
 10
2174.07170255
 20
-1794.99140483
 10
2174.79520852
 20
-1794.25338481
 10
2175.19167179
 20
-1793.94228032
 10
2173.81408042
 20
-1795.53413139
  0
LWPOLYLINE
  5
53B
100
AcDbEntity
  8
Sc.1_5
 62
     9
  6
CONTINUOUS
370
    20
100
AcDbPolyline
 90
        8
 70
     1
 43
0.0
 38
548.63999023
 39
-548.63999023
 10
2174.55556341
 20
-1792.88109088
 10
2174.29794128
 20
-1793.42381744
 10
2173.57443531
 20
-1794.16183746
 10
2173.17797204
 20
-1794.47294195
 10
2173.43559418
 20
-1793.93021538
 10
2174.15910015
 20
-1793.19219537
 10
2174.55556341
 20
-1792.88109088
 10
2173.17797204
 20
-1794.47294195
  0
LWPOLYLINE
  5
53C
100
AcDbEntity
  8
Sc.1_5
 62
     9
  6
CONTINUOUS
370
    20
100
AcDbPolyline
 90
        8
 70
     1
 43
0.0
 38
548.63999023
 39
-548.63999023
 10
2173.91945504
 20
-1791.81990143
 10
2173.6618329
 20
-1792.36262799
 10
2172.93832693
 20
-1793.10064801
 10
2172.54186367
 20
-1793.4117525
 10
2172.7994858
 20
-1792.86902594
 10
2173.52299177
 20
-1792.13100592
 10
2173.91945504
 20
-1791.81990143
 10
2172.54186367
 20
-1793.4117525
  0
LWPOLYLINE
  5
53D
100
AcDbEntity
  8
Sc.1_5
 62
     9
  6
CONTINUOUS
370
    20
100
AcDbPolyline
 90
        6
 70
     1
 43
0.0
 38
548.63999023
 39
-548.63999023
 10
2194.73065309
 20
-1830.16777381
 10
2194.93842911
 20
-1829.8023755
 10
2195.69548361
 20
-1829.12032291
 10
2196.0043358
 20
-1828.93161963
 10
2195.80082485
 20
-1829.29605873
 10
2195.0793761
 20
-1830.0375107
  0
LINE
  5
53E
100
AcDbEntity
  8
Sc.1_5
 62
     9
  6
CONTINUOUS
 48
0.25
370
    20
100
AcDbLine
 10
2194.73065309
 20
-1830.16777381
 30
548.63999023
 11
2196.0043358
 21
-1828.93161963
 31
548.63999023
  0
LWPOLYLINE
  5
53F
100
AcDbEntity
  8
Sc.1_5
 62
     9
  6
CONTINUOUS
370
    20
100
AcDbPolyline
 90
        6
 70
     1
 43
0.0
 38
548.63999023
 39
-548.63999023
 10
2195.36552009
 20
-1830.89012159
 10
2195.53151248
 20
-1830.63311759
 10
2196.17617504
 20
-1830.08898286
 10
2196.41162304
 20
-1829.94784836
 10
2196.23379431
 20
-1830.23281074
 10
2195.66922339
 20
-1830.77449332
  0
LINE
  5
540
100
AcDbEntity
  8
Sc.1_5
 62
     9
  6
CONTINUOUS
 48
0.25
370
    20
100
AcDbLine
 10
2195.36552009
 20
-1830.89012159
 30
548.63999023
 11
2196.41162304
 21
-1829.94784836
 31
548.63999023
  0
3DFACE
  5
541
100
AcDbEntity
  8
Sc.1_5
 62
     7
  6
CONTINUOUS
370
    20
100
AcDbFace
 70
     0
 10
2127.85959813
 20
-1790.4583885
 30
548.63999023
 11
2118.85959771
 21
-1795.65448459
 31
548.63999023
 12
2118.85969705
 22
-1816.43903695
 32
548.63999023
 13
2127.85959813
 23
-1811.24294195
 33
548.63999023
  0
INSERT
  5
542
100
AcDbEntity
  8
Sc.1_5
 62
     0
370
    20
100
AcDbBlockReference
  2
*X2302
 10
0.0
 20
0.0
 30
0.0
  0
3DFACE
  5
543
100
AcDbEntity
  8
Sc.1_5
 62
     7
  6
CONTINUOUS
370
    20
100
AcDbFace
 70
     0
 10
2204.24863822
 20
-1799.47116117
 30
548.63999023
 11
2207.74863771
 21
-1805.53333942
 31
548.63999023
 12
2219.87299419
 22
-1798.53334044
 32
548.63999023
 13
2216.3729947
 23
-1792.47116219
 33
548.63999023
  0
INSERT
  5
544
100
AcDbEntity
  8
Sc.1_5
 62
     0
370
    20
100
AcDbBlockReference
  2
*X2303
 10
0.0
 20
0.0
 30
0.0
  0
3DFACE
  5
545
100
AcDbEntity
  8
Sc.1_5
 62
     9
  6
CONTINUOUS
370
    20
100
AcDbFace
 70
     0
 10
2241.76465021
 20
-1730.1736761
 30
914.4
 11
2175.18436675
 21
-1768.61382067
 31
914.4
 12
2183.1843676
 22
-1782.47022702
 32
914.4
 13
2249.76465098
 23
-1744.03008249
 33
914.4
  0
INSERT
  5
546
100
AcDbEntity
  8
Sc.1_5
 62
     0
370
    20
100
AcDbBlockReference
  2
*X2525
 10
0.0
 20
0.0
 30
0.0
  0
LINE
  5
547
100
AcDbEntity
  8
Sc.1_5
 62
     7
  6
CONTINUOUS
 48
0.5
370
    -3
100
AcDbLine
 10
2149.68740434
 20
-1740.4196278
 30
500.0
 11
2183.55494017
 21
-1764.35371237
 31
500.0
  0
INSERT
  5
548
100
AcDbEntity
  8
Sc.1_5
 62
     7
  6
CONTINUOUS
370
    -3
100
AcDbBlockReference
  2
CDWK_EXTR_2
 10
2183.55494017
 20
-1764.35371237
 30
500.0
 41
1.0
 42
1.0
 43
1.0
 50
144.7512674
  0
LINE
  5
549
100
AcDbEntity
  8
Sc.1_5
 62
     9
  6
CONTINUOUS
 48
0.25
370
    20
100
AcDbLine
 10
2118.06539363
 20
-1791.49432931
 30
548.63999023
 11
2127.85959813
 21
-1790.4583885
 31
548.63999023
  0
LINE
  5
54A
100
AcDbEntity
  8
Sc.1_5
 62
     9
  6
CONTINUOUS
 48
0.25
370
    20
100
AcDbLine
 10
2162.99853366
 20
-1765.55205543
 30
548.63999023
 11
2172.79273816
 21
-1764.51611462
 31
548.63999023
  0
LINE
  5
54B
100
AcDbEntity
  8
Sc.1_5
 62
     9
  6
CONTINUOUS
 48
0.25
370
    20
100
AcDbLine
 10
2173.99851049
 20
-1784.60457227
 30
548.63999023
 11
2183.79271499
 21
-1783.56863146
 31
548.63999023
  0
LINE
  5
54C
100
AcDbEntity
  8
Sc.1_5
 62
     9
  6
CONTINUOUS
 48
0.25
370
    20
100
AcDbLine
 10
2248.37304702
 20
-1741.66446994
 30
548.63999023
 11
2258.12822838
 21
-1740.61758703
 31
548.63999023
  0
LINE
  5
54D
100
AcDbEntity
  8
Sc.1_5
 62
     9
  6
CONTINUOUS
 48
0.25
370
    20
100
AcDbLine
 10
2237.37307018
 20
-1722.6119531
 30
548.63999023
 11
2247.16727476
 21
-1721.5760127
 31
548.63999023
  0
3DFACE
  5
54E
100
AcDbEntity
  8
Sc.1_5
 62
     7
  6
CONTINUOUS
370
    20
100
AcDbFace
 70
     0
 10
2175.74863857
 20
-1815.92561157
 30
548.63999023
 11
2203.74863899
 21
-1815.92561035
 31
548.63999023
 12
2203.74863899
 22
-1806.92561035
 32
548.63999023
 13
2191.33709702
 23
-1806.92561089
 33
548.63999023
  0
INSERT
  5
54F
100
AcDbEntity
  8
Sc.1_5
 62
     0
370
    20
100
AcDbBlockReference
  2
*X2630
 10
0.0
 20
0.0
 30
0.0
  0
3DFACE
  5
550
100
AcDbEntity
  8
Sc.1_5
 62
     7
  6
CONTINUOUS
370
    20
100
AcDbFace
 70
     0
 10
2164.9985096
 20
-1769.01611503
 30
548.63999023
 11
2172.79273824
 21
-1764.51611503
 31
548.63999023
 12
2181.79273905
 22
-1780.10457186
 32
548.63999023
 13
2173.99851049
 23
-1784.60457227
 33
548.63999023
  0
INSERT
  5
551
100
AcDbEntity
  8
Sc.1_5
 62
     0
370
    20
100
AcDbBlockReference
  2
*X2300
 10
0.0
 20
0.0
 30
0.0
  0
3DFACE
  5
552
100
AcDbEntity
  8
Sc.1_5
 62
     7
  6
CONTINUOUS
370
    20
100
AcDbFace
 70
     0
 10
2239.37304613
 20
-1726.0760127
 30
548.63999023
 11
2247.16727476
 21
-1721.5760127
 31
548.63999023
 12
2256.16727557
 22
-1737.16446953
 32
548.63999023
 13
2248.37304702
 23
-1741.66446994
 33
548.63999023
  0
INSERT
  5
553
100
AcDbEntity
  8
Sc.1_5
 62
     0
370
    20
100
AcDbBlockReference
  2
*X2301
 10
0.0
 20
0.0
 30
0.0
  0
LWPOLYLINE
  5
554
100
AcDbEntity
  8
Sc.1_5
 62
     7
  6
CONTINUOUS
370
    20
100
AcDbPolyline
 90
        5
 70
     1
 43
0.0
 38
548.63999023
 39
-548.63999023
 10
2118.85959771
 20
-1816.43903804
 10
2120.85967417
 20
-1819.90309915
 10
2129.85957502
 20
-1814.70700376
 10
2127.85959813
 20
-1811.24294195
 10
2118.85969705
 20
-1816.43903695
  0
LINE
  5
555
100
AcDbEntity
  8
Sc.1_5
 62
     9
  6
CONTINUOUS
 48
0.25
370
    20
100
AcDbLine
 10
2118.85969705
 20
-1816.43903695
 30
548.63999023
 11
2129.85957502
 21
-1814.70700376
 31
548.63999023
  0
TEXT
  5
556
100
AcDbEntity
  8
Sc.1_5
 62
     7
370
    35
100
AcDbText
 10
2235.26648575
 20
-1803.23913703
 30
0.0
 40
2.5
  1
Woodspan PLT roof panel
  7
TAHOMA
 50
0.0
 41
0.8
 51
0.0
100
AcDbText
  0
TEXT
  5
557
100
AcDbEntity
  8
Sc.1_5
 62
     7
370
    18
100
AcDbText
 10
2235.26648575
 20
-1807.48913703
 30
0.0
 40
2.5
  1
fixings per engineer's details
  7
TAHOMA
 50
0.0
 41
0.8
 51
0.0
100
AcDbText
  0
TEXT
  5
558
100
AcDbEntity
  8
Sc.1_5
 62
     7
370
    18
100
AcDbText
 10
2235.26648575
 20
-1821.31856504
 30
0.0
 40
2.5
  1
Ceiling (if required)
  7
TAHOMA
 50
0.0
 41
0.8
 51
0.0
100
AcDbText
  0
TEXT
  5
559
100
AcDbEntity
  8
Sc.1_5
 62
     7
370
    18
100
AcDbText
 10
2107.54660483
 20
-1740.63777092
 30
0.0
 40
2.5
  1
Insulation, roofing underlay, roofing
  7
TAHOMA
 50
0.0
 41
0.8
 51
0.0
100
AcDbText
  0
TEXT
  5
55A
100
AcDbEntity
  8
Sc.1_5
 62
     7
370
    18
100
AcDbText
 10
2235.26648575
 20
-1849.33018518
 30
0.0
 40
2.5
  1
Stud frame wall to NZS3604:2011
  7
TAHOMA
 50
0.0
 41
0.8
 51
0.0
100
AcDbText
  0
TEXT
  5
55B
100
AcDbEntity
  8
Sc.1_5
 62
     7
370
    18
100
AcDbText
 10
2107.54660483
 20
-1744.88777092
 30
0.0
 40
2.5
  1
as per architect's details
  7
TAHOMA
 50
0.0
 41
0.8
 51
0.0
100
AcDbText
  0
TEXT
  5
55C
100
AcDbEntity
  8
Sc.1_5
 62
     7
370
    18
100
AcDbText
 10
2186.83836744
 20
-1709.17594049
 30
0.0
 40
2.5
  1
Castellated spacer over purlin
  7
TAHOMA
 50
0.0
 41
0.8
 51
0.0
100
AcDbText
  0
TEXT
  5
55D
100
AcDbEntity
  8
Sc.1_5
 62
     7
370
    18
100
AcDbText
 10
2191.93284031
 20
-1712.7380906
 30
0.0
 40
2.5
  1
Purlin on spaced packers
  7
TAHOMA
 50
0.0
 41
0.8
 51
0.0
100
AcDbText
  0
TEXT
  5
55E
100
AcDbEntity
  8
Sc.1_5
 62
     7
370
    18
100
AcDbText
 10
2235.39641156
 20
-1825.21633949
 30
0.0
 40
2.5
  1
fixed over battens/strapping
  7
TAHOMA
 50
0.0
 41
0.8
 51
0.0
100
AcDbText
  0
TEXT
  5
55F
100
AcDbEntity
  8
Sc.1_5
 62
     7
370
    18
100
AcDbText
 10
2235.26648575
 20
-1832.89850935
 30
0.0
 40
2.5
  1
Shaped timber packer
  7
TAHOMA
 50
0.0
 41
0.8
 51
0.0
100
AcDbText
  0
TEXT
  5
560
100
AcDbEntity
  8
LEGEND
 62
     7
370
    -3
100
AcDbText
 10
2260.50069065
 20
-1927.55865138
 30
0.0
 40
1.60000002
  1
Date
  7
TAHOMA
 50
0.0
 41
1.0
 51
0.0
100
AcDbText
  0
TEXT
  5
561
100
AcDbEntity
  8
LEGEND
 62
     7
370
    -3
100
AcDbText
 10
2245.59244197
 20
-1936.18983213
 30
0.0
 40
1.60000002
  1
Detail
  7
TAHOMA
 50
0.0
 41
1.0
 51
0.0
100
AcDbText
  0
TEXT
  5
562
100
AcDbEntity
  8
LEGEND
 62
     7
370
    18
100
AcDbText
 10
2249.02005721
 20
-1931.99980399
 30
0.0
 40
2.79999995
  1
1.0
  7
TAHOMA
 50
0.0
 41
1.0
 51
0.0
100
AcDbText
  0
TEXT
  5
563
100
AcDbEntity
  8
LEGEND
 62
     7
370
    -3
100
AcDbText
 10
2245.59244197
 20
-1927.55865138
 30
0.0
 40
1.60000002
  1
Version
  7
TAHOMA
 50
0.0
 41
1.0
 51
0.0
100
AcDbText
  0
TEXT
  5
564
100
AcDbEntity
  8
LEGEND
 62
     7
370
    -3
100
AcDbText
 10
2114.65165066
 20
-1927.55865138
 30
0.0
 40
1.60000002
  1
Phone:
  7
TAHOMA
 50
0.0
 41
1.0
 51
0.0
100
AcDbText
  0
TEXT
  5
565
100
AcDbEntity
  8
LEGEND
 62
     7
370
    -3
100
AcDbText
 10
2114.65165066
 20
-1931.67943855
 30
0.0
 40
1.60000002
  1
Email:
  7
TAHOMA
 50
0.0
 41
1.0
 51
0.0
100
AcDbText
  0
TEXT
  5
566
100
AcDbEntity
  8
LEGEND
 62
     7
370
    -3
100
AcDbText
 10
2114.65165066
 20
-1935.80022571
 30
0.0
 40
1.60000002
  1
Web:
  7
TAHOMA
 50
0.0
 41
1.0
 51
0.0
100
AcDbText
  0
TEXT
  5
567
100
AcDbEntity
  8
LEGEND
 62
     7
370
    18
100
AcDbText
 10
2124.55363163
 20
-1928.35865138
 30
0.0
 40
2.4000001
  1
06 755 9000
  7
TAHOMA
 50
0.0
 41
1.0
 51
0.0
100
AcDbText
  0
TEXT
  5
568
100
AcDbEntity
  8
LEGEND
 62
     7
370
    18
100
AcDbText
 10
2124.55363163
 20
-1932.47943855
 30
0.0
 40
2.4000001
  1
info@woodspan.co.nz
  7
TAHOMA
 50
0.0
 41
1.0
 51
0.0
100
AcDbText
  0
TEXT
  5
569
100
AcDbEntity
  8
LEGEND
 62
     7
370
    18
100
AcDbText
 10
2124.55363163
 20
-1936.60022571
 30
0.0
 40
2.4000001
  1
www.woodspan.co.nz
  7
TAHOMA
 50
0.0
 41
1.0
 51
0.0
100
AcDbText
  0
TEXT
  5
56A
100
AcDbEntity
  8
LEGEND
 62
     7
370
    18
100
AcDbText
 10
2114.60401638
 20
-1940.72101287
 30
0.0
 40
2.4000001
  1
Connett Road, Bell Block, New Plymouth
  7
TAHOMA
 50
0.0
 41
1.0
 51
0.0
100
AcDbText
  0
TEXT
  5
56B
100
AcDbEntity
  8
LEGEND
 62
     7
370
    18
100
AcDbText
 10
2261.58634012
 20
-1931.79980399
 30
0.0
 40
2.4000001
  1
11.07.2019
  7
TAHOMA
 50
0.0
 41
1.0
 51
0.0
100
AcDbText
  0
TEXT
  5
56C
100
AcDbEntity
  8
LEGEND
 62
     7
370
    18
100
AcDbText
 10
2253.61971834
 20
-1939.73315868
 30
0.0
 40
4.0
  1

  7
TAHOMA
 50
0.0
 41
0.95
 51
0.0
100
AcDbText
  0
TEXT
  5
56D
100
AcDbEntity
  8
LEGEND
 62
     7
370
    18
100
AcDbText
 10
2254.38542157
 20
-1940.05624061
 30
0.0
 40
4.0
  1
PLT 4.3
  7
TAHOMA
 50
0.0
 41
0.95
 51
0.0
100
AcDbText
  0
TEXT
  5
56E
100
AcDbEntity
  8
LEGEND
 62
     7
370
    18
100
AcDbText
 10
2173.5955152
 20
-1932.13297832
 30
0.0
 40
4.0
  1
Eave - PLT - overhang
  7
TAHOMA
 50
0.0
 41
0.95
 51
0.0
100
AcDbText
  0
TEXT
  5
56F
100
AcDbEntity
  8
LEGEND
 62
     7
370
    18
100
AcDbText
 10
2166.22687563
 20
-1922.5982645
 30
0.0
 40
2.4000001
  1
Indicative details only
  7
TAHOMA
 50
0.0
 41
1.0
 51
0.0
100
AcDbText
  0
TEXT
  5
570
100
AcDbEntity
  8
LEGEND
 62
     7
370
    18
100
AcDbText
 10
2173.5955152
 20
-1938.8921527
 30
0.0
 40
4.0
  1
PLT roof - Eave
  7
TAHOMA
 50
0.0
 41
0.95
 51
0.0
100
AcDbText
  0
ENDSEC
  0
SECTION
  2
OBJECTS
  0
DICTIONARY
  5
1
100
AcDbDictionary
  3
ACAD_GROUP
350
2
  3
ACAD_MLINESTYLE
350
3
  0
DICTIONARY
  5
2
102
{CDWK_REACTORS
330
1
102
}
100
AcDbDictionary
  0
DICTIONARY
  5
3
102
{CDWK_REACTORS
330
1
102
}
100
AcDbDictionary
  3
STANDARD
350
4
  0
MLINESTYLE
  5
4
102
{CDWK_REACTORS
330
3
102
}
100
AcDbMlineStyle
  2
STANDARD
 70
     0
  3

 62
     0
 51
90.0
 52
90.0
 71
     2
 49
0.5
 62
   256
  6
BYLAYER
 49
-0.5
 62
   256
  6
BYLAYER
  0
ENDSEC
  0
EOF
