  0
SECTION
  2
HEADER
  9
$ACADVER
  1
AC1014
  9
$DWGCODEPAGE
  3
ANSI_1252
  9
$INSBASE
 10
0.0
 20
0.0
 30
0.0
  9
$EXTMIN
 10
2322.28090931
 20
-1942.22101287
  9
$EXTMAX
 10
2519.59771069
 20
-1669.93343548
  9
$LIMMIN
 10
2322.28090931
 20
-1942.22101287
  9
$LIMMAX
 10
2519.59771069
 20
-1669.93343548
  9
$ORTHOMODE
 70
     0
  9
$REGENMODE
 70
     1
  9
$FILLMODE
 70
     1
  9
$QTEXTMODE
 70
     0
  9
$MIRRTEXT
 70
     1
  9
$DRAGMODE
 70
     2
  9
$LTSCALE
 40
1.0
  9
$OSMODE
 70
     0
  9
$ATTMODE
 70
     1
  9
$TEXTSIZE
 40
3.5
  9
$TRACEWID
 40
1.0
  9
$TEXTSTYLE
  7
STANDARD
  9
$CLAYER
  8
0
  9
$CELTYPE
  6
BYLAYER
  9
$CECOLOR
 62
   256
  9
$DIMSCALE
 40
1.0
  9
$DIMASZ
 40
2.0
  9
$DIMEXO
 40
5.0
  9
$DIMDLI
 40
10.0
  9
$DIMRND
 40
0.0
  9
$DIMDLE
 40
2.0
  9
$DIMEXE
 40
2.0
  9
$DIMTP
 40
0.0
  9
$DIMTM
 40
0.0
  9
$DIMTXT
 40
2.1
  9
$DIMCEN
 40
1.5
  9
$DIMTSZ
 40
0.0
  9
$DIMTOL
 70
     0
  9
$DIMLIM
 70
     0
  9
$DIMTIH
 70
     1
  9
$DIMTOH
 70
     0
  9
$DIMSE1
 70
     0
  9
$DIMSE2
 70
     0
  9
$DIMTAD
 70
     1
  9
$DIMZIN
 70
     8
  9
$DIMBLK
  1

  9
$DIMASO
 70
     1
  9
$DIMSHO
 70
     1
  9
$DIMPOST
  1

  9
$DIMAPOST
  1

  9
$DIMALT
 70
     0
  9
$DIMALTD
 70
     2
  9
$DIMALTF
 40
25.4
  9
$DIMLFAC
 40
1.0
  9
$DIMTOFL
 70
     0
  9
$DIMTVP
 40
0.0
  9
$DIMTIX
 70
     0
  9
$DIMSOXD
 70
     0
  9
$DIMSAH
 70
     0
  9
$DIMBLK1
  1

  9
$DIMBLK2
  1

  9
$DIMSTYLE
  2
*UNNAMED
  9
$DIMCLRD
 70
     5
  9
$DIMCLRE
 70
     5
  9
$DIMCLRT
 70
     5
  9
$DIMTFAC
 40
1.0
  9
$DIMGAP
 40
0.09
  9
$DIMUNIT
 70
     2
  9
$LUNITS
 70
     2
  9
$LUPREC
 70
     6
  9
$AXISMODE
 70
     0
  9
$AXISUNIT
 10
0.0
 20
0.0
  9
$SKETCHINC
 40
0.1
  9
$FILLETRAD
 40
0.0
  9
$AUNITS
 70
     0
  9
$AUPREC
 70
     0
  9
$MENU
  1
ACAD
  9
$ELEVATION
 40
0.0
  9
$PELEVATION
 40
0.0
  9
$THICKNESS
 40
0.0
  9
$LIMCHECK
 70
     0
  9
$BLIPMODE
 70
     1
  9
$CHAMFERA
 40
0.0
  9
$CHAMFERB
 40
0.0
  9
$SKPOLY
 70
     1
  9
$TDCREATE
 40
2458675.0000000000
  9
$TDUPDATE
 40
2458675.0000000000
  9
$TDINDWG
 40
0.0
  9
$TDUSRTIMER
 40
0.0
  9
$USRTIMER
 70
     1
  9
$ANGBASE
 50
0.0
  9
$ANGDIR
 70
     0
  9
$PDMODE
 70
     0
  9
$PDSIZE
 40
0.0
  9
$PLINEWID
 40
0.0
  9
$COORDS
 70
     2
  9
$SPLFRAME
 70
     0
  9
$SPLINETYPE
 70
     6
  9
$SPLINESEGS
 70
     8
  9
$ATTDIA
 70
     1
  9
$ATTREQ
 70
     1
  9
$HANDLING
 70
     1
  9
$HANDSEED
  5
     76A
  9
$SURFTAB1
 70
     6
  9
$SURFTAB2
 70
     6
  9
$SURFTYPE
 70
     6
  9
$SURFU
 70
     6
  9
$SURFV
 70
     6
  9
$UCSNAME
  2

  9
$UCSORG
 10
0.0
 20
0.0
 30
0.0
  9
$UCSXDIR
 10
1.0
 20
0.0
 30
0.0
  9
$UCSYDIR
 10
0.0
 20
1.0
 30
0.0
  9
$PUCSNAME
  2

  9
$PUCSORG
 10
0.0
 20
0.0
 30
0.0
  9
$PUCSXDIR
 10
1.0
 20
0.0
 30
0.0
  9
$PUCSYDIR
 10
0.0
 20
1.0
 30
0.0
  9
$USERI1
 70
     0
  9
$USERI2
 70
     0
  9
$USERI3
 70
     0
  9
$USERI4
 70
     0
  9
$USERI5
 70
     0
  9
$USERR1
 40
0.0
  9
$USERR2
 40
0.0
  9
$USERR3
 40
0.0
  9
$USERR4
 40
0.0
  9
$USERR5
 40
0.0
  9
$WORLDVIEW
 70
     1
  9
$SHADEDGE
 70
     3
  9
$SHADEDIF
 70
    70
  9
$TILEMODE
 70
     1
  9
$MAXACTVP
 70
    16
  9
$PINSBASE
 10
0.0
 20
0.0
 30
0.0
  9
$PLIMCHECK
 70
     0
  9
$PEXTMIN
 10
1.0000000000000E+20
 20
1.0000000000000E+20
 30
1.0000000000000E+20
  9
$PEXTMAX
 10
-1.0000000000000E+20
 20
-1.0000000000000E+20
 30
-1.0000000000000E+20
  9
$PLIMMIN
 10
0.0
 20
0.0
  9
$UNITMODE
 70
     0
  9
$VISRETAIN
 70
     0
  9
$MEASUREMENT
 70
     1
  0
ENDSEC
  0
SECTION
  2
TABLES
  0
TABLE
  2
VPORT
  5
1B2
100
AcDbSymbolTable
 70
     1
  0
ENDTAB
  0
TABLE
  2
STYLE
  5
1B3
100
AcDbSymbolTable
 70
     3
  0
STYLE
  5
1B4
100
AcDbSymbolTableRecord
100
AcDbTextStyleTableRecord
  2
STANDARD
 70
     0
 40
0.0
 41
1.0
 50
0.0
 71
     0
 42
3.5
  3
MONOTXT
  4

  0
STYLE
  5
1B5
100
AcDbSymbolTableRecord
100
AcDbTextStyleTableRecord
  2
SYMAP
 70
     0
 40
0.0
 41
1.0
 50
0.0
 71
     0
 42
3.5
  3
SYMAP
  4

  0
STYLE
  5
1B6
100
AcDbSymbolTableRecord
100
AcDbTextStyleTableRecord
  2
CADWORK1
 70
     0
 40
0.0
 41
1.0
 50
0.0
 71
     0
 42
3.5
  3
MONOTXT
  4

  0
STYLE
  5
1B7
100
AcDbSymbolTableRecord
100
AcDbTextStyleTableRecord
  2
MONOTXT
 70
     0
 40
0.0
 41
1.0
 50
0.0
 71
     0
 42
3.5
  3
MONOTXT
  4

  0
STYLE
  5
1B8
100
AcDbSymbolTableRecord
100
AcDbTextStyleTableRecord
  2
TAHOMA
 70
     0
 40
0.0
 41
1.0
 50
0.0
 71
     0
 42
3.5
  3

  4

1001
ACAD
1000
Tahoma
1071
        0
  0
ENDTAB
  0
TABLE
  2
LTYPE
  5
1B9
100
AcDbSymbolTable
 70
    15
  0
LTYPE
  5
1BA
100
AcDbSymbolTableRecord
100
AcDbLinetypeTableRecord
  2
BYBLOCK
 70
    64
  3

 72
    65
 73
     0
 40
0.0
  0
LTYPE
  5
1BB
100
AcDbSymbolTableRecord
100
AcDbLinetypeTableRecord
  2
BYLAYER
 70
    64
  3

 72
    65
 73
     0
 40
0.0
  0
LTYPE
  5
1BC
100
AcDbSymbolTableRecord
100
AcDbLinetypeTableRecord
  2
CONTINUOUS
 70
    64
  3
Solid line
 72
    65
 73
     0
 40
0.0
  0
LTYPE
  5
1BD
100
AcDbSymbolTableRecord
100
AcDbLinetypeTableRecord
  2
DOT2
 70
    64
  3
...............................................
 72
    65
 73
     2
 40
1.25
 49
0.0
 74
     0
 49
-1.25
 74
     0
  0
LTYPE
  5
1BE
100
AcDbSymbolTableRecord
100
AcDbLinetypeTableRecord
  2
CADWORK_13
 70
    64
  3
13 =======================================
 72
    65
 73
     2
 40
4.0
 49
2.0
 74
     0
 49
-2.0
 74
     0
  0
LTYPE
  5
1BF
100
AcDbSymbolTableRecord
100
AcDbLinetypeTableRecord
  2
DASHED
 70
    64
  3
__ __ __ __ __ __ __ __ __ __ __ __ __ __ __ __
 72
    65
 73
     2
 40
7.5
 49
5.0
 74
     0
 49
-2.5
 74
     0
  0
LTYPE
  5
1C0
100
AcDbSymbolTableRecord
100
AcDbLinetypeTableRecord
  2
DASHDOT
 70
    64
  3
 __ . __ . __ . __ . __ . __ . __ . __ . __ . __
 72
    65
 73
     4
 40
10.0
 49
5.0
 74
     0
 49
-2.5
 74
     0
 49
0.0
 74
     0
 49
-2.5
 74
     0
  0
LTYPE
  5
1C1
100
AcDbSymbolTableRecord
100
AcDbLinetypeTableRecord
  2
CADWORK_16
 70
    64
  3
--´\,----´\,----´\,----´\,----´\,----´\,----´\,--
 72
    65
 73
     5
 40
17.0
 49
2.0
 74
     0
 49
0.0
 74
     2
 75
     0
340
1B4
 46
6.0
 50
170.0
 44
3.01999998
 45
5.57999992
  9
|
 49
-2.0999999
 74
     2
 75
     0
340
1B4
 46
12.0
 50
10.0
 44
-2.9000001
 45
-6.5999999
  9
|
 49
-2.0999999
 74
     2
 75
     0
340
1B4
 46
6.0
 50
170.0
 44
1.96000004
 45
-0.36000001
  9
|
 49
10.80000019
 74
     0
  0
LTYPE
  5
1C2
100
AcDbSymbolTableRecord
100
AcDbLinetypeTableRecord
  2
CADWORK_15
 70
    64
  3
15 =======================================
 72
    65
 73
     0
 40
0.0
  0
LTYPE
  5
1C3
100
AcDbSymbolTableRecord
100
AcDbLinetypeTableRecord
  2
DAL
 70
    64
  3
Solid line (for MAPS)
 72
    65
 73
     0
 40
0.0
  0
LTYPE
  5
1C4
100
AcDbSymbolTableRecord
100
AcDbLinetypeTableRecord
  2
MUR
 70
    64
  3
Solid line (for MAPS)
 72
    65
 73
     0
 40
0.0
  0
LTYPE
  5
1C5
100
AcDbSymbolTableRecord
100
AcDbLinetypeTableRecord
  2
SOM
 70
    64
  3
Solid line (for MAPS)
 72
    65
 73
     0
 40
0.0
  0
LTYPE
  5
1C6
100
AcDbSymbolTableRecord
100
AcDbLinetypeTableRecord
  2
COL
 70
    64
  3
Solid line (for MAPS)
 72
    65
 73
     0
 40
0.0
  0
LTYPE
  5
1C7
100
AcDbSymbolTableRecord
100
AcDbLinetypeTableRecord
  2
LGN
 70
    64
  3
Solid line (for MAPS)
 72
    65
 73
     0
 40
0.0
  0
LTYPE
  5
1C8
100
AcDbSymbolTableRecord
100
AcDbLinetypeTableRecord
  2
PNT
 70
    64
  3
Solid line (for MAPS)
 72
    65
 73
     0
 40
0.0
  0
ENDTAB
  0
TABLE
  2
LAYER
  5
1C9
100
AcDbSymbolTable
 70
    16
  0
LAYER
  5
1CA
100
AcDbSymbolTableRecord
100
AcDbLayerTableRecord
  2
0
 70
     0
 62
     1
  6
CONTINUOUS
370
    -3
  0
LAYER
  5
1CB
100
AcDbSymbolTableRecord
100
AcDbLayerTableRecord
  2
Standard
 70
     0
 62
     7
  6
CONTINUOUS
370
    -3
  0
LAYER
  5
1CC
100
AcDbSymbolTableRecord
100
AcDbLayerTableRecord
  2
Sc.1_1
 70
     0
 62
     7
  6
CONTINUOUS
370
    -3
  0
LAYER
  5
1CD
100
AcDbSymbolTableRecord
100
AcDbLayerTableRecord
  2
Sc.1_2
 70
     0
 62
     7
  6
CONTINUOUS
370
    -3
  0
LAYER
  5
1CE
100
AcDbSymbolTableRecord
100
AcDbLayerTableRecord
  2
Sc.1_5
 70
     0
 62
     7
  6
CONTINUOUS
370
    -3
  0
LAYER
  5
1CF
100
AcDbSymbolTableRecord
100
AcDbLayerTableRecord
  2
Sc.1_10
 70
     0
 62
     7
  6
CONTINUOUS
370
    -3
  0
LAYER
  5
1D0
100
AcDbSymbolTableRecord
100
AcDbLayerTableRecord
  2
Sc.1_20
 70
     0
 62
     7
  6
CONTINUOUS
370
    -3
  0
LAYER
  5
1D1
100
AcDbSymbolTableRecord
100
AcDbLayerTableRecord
  2
Sc.1_25
 70
     0
 62
     7
  6
CONTINUOUS
370
    -3
  0
LAYER
  5
1D2
100
AcDbSymbolTableRecord
100
AcDbLayerTableRecord
  2
Sc.1_33
 70
     0
 62
     7
  6
CONTINUOUS
370
    -3
  0
LAYER
  5
1D3
100
AcDbSymbolTableRecord
100
AcDbLayerTableRecord
  2
Sc.1_50
 70
     0
 62
     7
  6
CONTINUOUS
370
    -3
  0
LAYER
  5
1D4
100
AcDbSymbolTableRecord
100
AcDbLayerTableRecord
  2
Sc.1_75
 70
     0
 62
     7
  6
CONTINUOUS
370
    -3
  0
LAYER
  5
1D5
100
AcDbSymbolTableRecord
100
AcDbLayerTableRecord
  2
Sc.1_100
 70
     0
 62
     7
  6
CONTINUOUS
370
    -3
  0
LAYER
  5
1D6
100
AcDbSymbolTableRecord
100
AcDbLayerTableRecord
  2
Sc.1_200
 70
     0
 62
     7
  6
CONTINUOUS
370
    -3
  0
LAYER
  5
1D7
100
AcDbSymbolTableRecord
100
AcDbLayerTableRecord
  2
Sc.1_500
 70
     0
 62
     7
  6
CONTINUOUS
370
    -3
  0
LAYER
  5
1D8
100
AcDbSymbolTableRecord
100
AcDbLayerTableRecord
  2
Sc.1_1000
 70
     0
 62
     7
  6
CONTINUOUS
370
    -3
  0
LAYER
  5
1D9
100
AcDbSymbolTableRecord
100
AcDbLayerTableRecord
  2
Laser frames
 70
     0
 62
     7
  6
CONTINUOUS
370
    18
  0
LAYER
  5
1DA
100
AcDbSymbolTableRecord
100
AcDbLayerTableRecord
  2
LEGEND
 70
     0
 62
     7
  6
CONTINUOUS
370
    -3
  0
ENDTAB
  0
TABLE
  2
VIEW
  5
1DB
100
AcDbSymbolTable
 70
     0
  0
ENDTAB
  0
TABLE
  2
UCS
  5
1DC
100
AcDbSymbolTable
 70
     0
  0
ENDTAB
  0
TABLE
  2
APPID
  5
1DD
100
AcDbSymbolTable
 70
     1
  0
APPID
  5
1DE
100
AcDbSymbolTableRecord
100
AcDbRegAppTableRecord
  2
ACAD
 70
     0
  0
ENDTAB
  0
TABLE
  2
DIMSTYLE
  5
1DF
100
AcDbSymbolTable
 70
     0
  0
ENDTAB
  0
TABLE
  2
BLOCK_RECORD
  5
1E0
100
AcDbSymbolTable
 70
     0
  0
BLOCK_RECORD
  5
1E1
100
AcDbSymbolTableRecord
100
AcDbBlockTableRecord
  2
*MODEL_SPACE
  0
BLOCK_RECORD
  5
1E2
100
AcDbSymbolTableRecord
100
AcDbBlockTableRecord
  2
*PAPER_SPACE
  0
BLOCK_RECORD
  5
1E3
100
AcDbSymbolTableRecord
100
AcDbBlockTableRecord
  2
CDWK_EXTR_0
  0
BLOCK_RECORD
  5
1E4
100
AcDbSymbolTableRecord
100
AcDbBlockTableRecord
  2
CDWK_EXTR_1D
  0
BLOCK_RECORD
  5
1E5
100
AcDbSymbolTableRecord
100
AcDbBlockTableRecord
  2
CDWK_EXTR_1G
  0
BLOCK_RECORD
  5
1E6
100
AcDbSymbolTableRecord
100
AcDbBlockTableRecord
  2
CDWK_EXTR_2
  0
BLOCK_RECORD
  5
1E7
100
AcDbSymbolTableRecord
100
AcDbBlockTableRecord
  2
CDWK_EXTR_3
  0
BLOCK_RECORD
  5
1E8
100
AcDbSymbolTableRecord
100
AcDbBlockTableRecord
  2
CDWK_EXTR_4
  0
BLOCK_RECORD
  5
1E9
100
AcDbSymbolTableRecord
100
AcDbBlockTableRecord
  2
CDWK_PTTYP0
  0
BLOCK_RECORD
  5
1EA
100
AcDbSymbolTableRecord
100
AcDbBlockTableRecord
  2
*X2304
  0
BLOCK_RECORD
  5
1EB
100
AcDbSymbolTableRecord
100
AcDbBlockTableRecord
  2
*X2305
  0
BLOCK_RECORD
  5
1EC
100
AcDbSymbolTableRecord
100
AcDbBlockTableRecord
  2
*X2306
  0
BLOCK_RECORD
  5
1ED
100
AcDbSymbolTableRecord
100
AcDbBlockTableRecord
  2
*X2526
  0
BLOCK_RECORD
  5
1EE
100
AcDbSymbolTableRecord
100
AcDbBlockTableRecord
  2
*X2527
  0
BLOCK_RECORD
  5
1EF
100
AcDbSymbolTableRecord
100
AcDbBlockTableRecord
  2
*X2528
  0
BLOCK_RECORD
  5
1F0
100
AcDbSymbolTableRecord
100
AcDbBlockTableRecord
  2
*X2529
  0
ENDTAB
  0
ENDSEC
  0
SECTION
  2
BLOCKS
  0
BLOCK
  5
1F1
100
AcDbEntity
  8
0
100
AcDbBlockBegin
  2
*MODEL_SPACE
 70
     0
 10
0.0
 20
0.0
 30
0.0
  3
*MODEL_SPACE
  1

  0
ENDBLK
  5
1F2
100
AcDbEntity
100
AcDbBlockEnd
  0
BLOCK
  5
1F3
100
AcDbEntity
  8
0
100
AcDbBlockBegin
  2
*PAPER_SPACE
 70
     0
 10
0.0
 20
0.0
 30
0.0
  3
*PAPER_SPACE
  1

  0
ENDBLK
  5
1F4
100
AcDbEntity
100
AcDbBlockEnd
  0
BLOCK
  5
1F5
100
AcDbEntity
  8
0
100
AcDbBlockBegin
  2
CDWK_EXTR_0
 70
     0
 10
0.0
 20
0.0
 30
0.0
  3
CDWK_EXTR_0
  1

  4
Cadwork line-extremity
  0
LINE
  5
1F6
100
AcDbEntity
  8
0
 62
     0
370
    -2
100
AcDbLine
 10
0.0
 20
0.0
 30
0.0
 11
2.0
 21
0.5
 31
0.0
  0
LINE
  5
1F7
100
AcDbEntity
  8
0
 62
     0
370
    -2
100
AcDbLine
 10
0.0
 20
0.0
 30
0.0
 11
2.0
 21
-0.5
 31
0.0
  0
LINE
  5
1F8
100
AcDbEntity
  8
0
 62
     0
370
    -2
100
AcDbLine
 10
2.0
 20
0.5
 30
0.0
 11
2.0
 21
-0.5
 31
0.0
  0
ENDBLK
  5
1F9
100
AcDbEntity
100
AcDbBlockEnd
  0
BLOCK
  5
1FA
100
AcDbEntity
  8
0
100
AcDbBlockBegin
  2
CDWK_EXTR_1D
 70
     0
 10
0.0
 20
0.0
 30
0.0
  3
CDWK_EXTR_1D
  1

  4
Cadwork line-extremity
  0
LINE
  5
1FB
100
AcDbEntity
  8
0
 62
     0
370
    -2
100
AcDbLine
 10
0.0
 20
0.0
 30
0.0
 11
0.0
 21
1.0
 31
0.0
  0
LINE
  5
1FC
100
AcDbEntity
  8
0
 62
     0
370
    -2
100
AcDbLine
 10
0.0
 20
1.0
 30
0.0
 11
0.5
 21
1.5
 31
0.0
  0
LINE
  5
1FD
100
AcDbEntity
  8
0
 62
     0
370
    -2
100
AcDbLine
 10
0.5
 20
1.5
 30
0.0
 11
1.5
 21
1.5
 31
0.0
  0
ENDBLK
  5
1FE
100
AcDbEntity
100
AcDbBlockEnd
  0
BLOCK
  5
1FF
100
AcDbEntity
  8
0
100
AcDbBlockBegin
  2
CDWK_EXTR_1G
 70
     0
 10
0.0
 20
0.0
 30
0.0
  3
CDWK_EXTR_1G
  1

  4
Cadwork line-extremity
  0
LINE
  5
200
100
AcDbEntity
  8
0
 62
     0
370
    -2
100
AcDbLine
 10
0.0
 20
0.0
 30
0.0
 11
0.0
 21
-1.0
 31
0.0
  0
LINE
  5
201
100
AcDbEntity
  8
0
 62
     0
370
    -2
100
AcDbLine
 10
0.0
 20
-1.0
 30
0.0
 11
0.5
 21
-1.5
 31
0.0
  0
LINE
  5
202
100
AcDbEntity
  8
0
 62
     0
370
    -2
100
AcDbLine
 10
0.5
 20
-1.5
 30
0.0
 11
1.5
 21
-1.5
 31
0.0
  0
ENDBLK
  5
203
100
AcDbEntity
100
AcDbBlockEnd
  0
BLOCK
  5
204
100
AcDbEntity
  8
0
100
AcDbBlockBegin
  2
CDWK_EXTR_2
 70
     0
 10
0.0
 20
0.0
 30
0.0
  3
CDWK_EXTR_2
  1

  4
Cadwork line-extremity
  0
SOLID
  5
205
100
AcDbEntity
  8
0
 62
     0
100
AcDbTrace
 10
0.0
 20
0.0
 11
2.0
 21
0.5
 12
2.0
 22
-0.5
 13
2.0
 23
-0.5
  0
ENDBLK
  5
206
100
AcDbEntity
100
AcDbBlockEnd
  0
BLOCK
  5
207
100
AcDbEntity
  8
0
100
AcDbBlockBegin
  2
CDWK_EXTR_3
 70
     0
 10
0.0
 20
0.0
 30
0.0
  3
CDWK_EXTR_3
  1

  4
Cadwork line-extremity
  0
SOLID
  5
208
100
AcDbEntity
  8
0
 62
     0
100
AcDbTrace
 10
0.0
 20
0.0
 11
2.0
 21
0.5
 12
2.0
 22
-0.5
 13
2.0
 23
-0.5
  0
LINE
  5
209
100
AcDbEntity
  8
0
 62
     0
370
    -2
100
AcDbLine
 10
0.0
 20
1.0
 30
0.0
 11
0.0
 21
-1.0
 31
0.0
  0
ENDBLK
  5
20A
100
AcDbEntity
100
AcDbBlockEnd
  0
BLOCK
  5
20B
100
AcDbEntity
  8
0
100
AcDbBlockBegin
  2
CDWK_EXTR_4
 70
     0
 10
0.0
 20
0.0
 30
0.0
  3
CDWK_EXTR_4
  1

  4
Cadwork line-extremity
  0
HATCH
  5
20C
100
AcDbEntity
  8
0
 62
     0
370
    -2
100
AcDbHatch
 10
0.0
 20
0.0
 30
0.0
210
0.0
220
0.0
230
1.0
  2
SOLID
 70
     1
 71
     0
 91
        1
 92
        1
 93
        1
 72
     2
 10
0.0
 20
0.0
 40
0.5
 50
0.0
 51
360.0
 73
     1
 97
        0
 75
     0
 76
     1
 98
        1
 10
0.0
 20
0.0
  0
ENDBLK
  5
20D
100
AcDbEntity
100
AcDbBlockEnd
  0
BLOCK
  5
20E
100
AcDbEntity
  8
0
100
AcDbBlockBegin
  2
CDWK_PTTYP0
 70
     0
 10
0.0
 20
0.0
 30
0.0
  3
CDWK_PTTYP0
  1

  4
Cadwork point
  0
POINT
  5
20F
100
AcDbEntity
  8
0
 62
     0
100
AcDbPoint
 10
0.0
 20
0.0
 30
0.0
  0
ENDBLK
  5
210
100
AcDbEntity
100
AcDbBlockEnd
  0
BLOCK
  5
211
100
AcDbEntity
  8
Sc.1_5
100
AcDbBlockBegin
  2
*X2304
 70
     1
 10
0.0
 20
0.0
 30
0.0
  3
*X2304
  1

  4
Cadwork hatch
  0
LINE
  5
212
100
AcDbEntity
  8
Sc.1_5
 62
     9
  6
CONTINUOUS
370
    -2
100
AcDbLine
 10
2428.51759176
 20
-1816.95984431
 30
0.0
 11
2428.98422558
 21
-1835.76812522
 31
0.0
  0
LINE
  5
213
100
AcDbEntity
  8
Sc.1_5
 62
     9
  6
CONTINUOUS
370
    -2
100
AcDbLine
 10
2420.72337768
 20
-1821.45983006
 30
0.0
 11
2436.77843965
 21
-1831.26813946
 31
0.0
  0
ENDBLK
  5
214
100
AcDbEntity
100
AcDbBlockEnd
  0
BLOCK
  5
215
100
AcDbEntity
  8
Sc.1_5
100
AcDbBlockBegin
  2
*X2305
 70
     1
 10
0.0
 20
0.0
 30
0.0
  3
*X2305
  1

  4
Cadwork hatch
  0
LINE
  5
216
100
AcDbEntity
  8
Sc.1_5
 62
     9
  6
CONTINUOUS
370
    -2
100
AcDbLine
 10
2416.54656827
 20
-1696.30059321
 30
0.0
 11
2432.34158048
 21
-1705.65841437
 31
0.0
  0
LINE
  5
217
100
AcDbEntity
  8
Sc.1_5
 62
     9
  6
CONTINUOUS
370
    -2
100
AcDbLine
 10
2424.5473664
 20
-1710.15840013
 30
0.0
 11
2424.34078234
 21
-1691.80060745
 31
0.0
  0
ENDBLK
  5
218
100
AcDbEntity
100
AcDbBlockEnd
  0
BLOCK
  5
219
100
AcDbEntity
  8
Sc.1_5
100
AcDbBlockBegin
  2
*X2306
 70
     1
 10
0.0
 20
0.0
 30
0.0
  3
*X2306
  1

  4
Cadwork hatch
  0
LINE
  5
21A
100
AcDbEntity
  8
Sc.1_5
 62
     9
  6
CONTINUOUS
370
    -2
100
AcDbLine
 10
2405.38242691
 20
-1751.07488093
 30
0.0
 11
2423.38236994
 21
-1803.68261668
 31
0.0
  0
LINE
  5
21B
100
AcDbEntity
  8
Sc.1_5
 62
     9
  6
CONTINUOUS
370
    -2
100
AcDbLine
 10
2405.38242691
 20
-1803.68261668
 30
0.0
 11
2423.38236994
 21
-1740.68268372
 31
0.0
  0
ENDBLK
  5
21C
100
AcDbEntity
100
AcDbBlockEnd
  0
BLOCK
  5
21D
100
AcDbEntity
  8
Sc.1_5
100
AcDbBlockBegin
  2
*X2526
 70
     1
 10
0.0
 20
0.0
 30
0.0
  3
*X2526
  1

  4
Cadwork hatch
  0
LINE
  5
21E
100
AcDbEntity
  8
Sc.1_5
 62
     9
  6
CONTINUOUS
370
    -2
100
AcDbLine
 10
2425.45525421
 20
-1711.73089639
 30
0.0
 11
2425.14598276
 21
-1711.90945434
 31
0.0
  0
LINE
  5
21F
100
AcDbEntity
  8
Sc.1_5
 62
     9
  6
CONTINUOUS
370
    -2
100
AcDbLine
 10
2423.45512284
 20
-1712.88567277
 30
0.0
 11
2422.83658117
 21
-1713.24278797
 31
0.0
  0
LINE
  5
220
100
AcDbEntity
  8
Sc.1_5
 62
     9
  6
CONTINUOUS
370
    -2
100
AcDbLine
 10
2421.14572125
 20
-1714.2190064
 30
0.0
 11
2420.52717958
 21
-1714.5761216
 31
0.0
  0
LINE
  5
221
100
AcDbEntity
  8
Sc.1_5
 62
     9
  6
CONTINUOUS
370
    -2
100
AcDbLine
 10
2418.83631966
 20
-1715.55234003
 30
0.0
 11
2418.21777798
 21
-1715.90945523
 31
0.0
  0
LINE
  5
222
100
AcDbEntity
  8
Sc.1_5
 62
     9
  6
CONTINUOUS
370
    -2
100
AcDbLine
 10
2416.52691807
 20
-1716.88567366
 30
0.0
 11
2415.90837639
 21
-1717.24278886
 31
0.0
  0
LINE
  5
223
100
AcDbEntity
  8
Sc.1_5
 62
     9
  6
CONTINUOUS
370
    -2
100
AcDbLine
 10
2414.21751647
 20
-1718.21900729
 30
0.0
 11
2413.5989748
 21
-1718.57612249
 31
0.0
  0
LINE
  5
224
100
AcDbEntity
  8
Sc.1_5
 62
     9
  6
CONTINUOUS
370
    -2
100
AcDbLine
 10
2411.90811488
 20
-1719.55234092
 30
0.0
 11
2411.2895732
 21
-1719.90945613
 31
0.0
  0
LINE
  5
225
100
AcDbEntity
  8
Sc.1_5
 62
     9
  6
CONTINUOUS
370
    -2
100
AcDbLine
 10
2409.59871329
 20
-1720.88567455
 30
0.0
 11
2408.98017161
 21
-1721.24278976
 31
0.0
  0
LINE
  5
226
100
AcDbEntity
  8
Sc.1_5
 62
     9
  6
CONTINUOUS
370
    -2
100
AcDbLine
 10
2407.28931169
 20
-1722.21900819
 30
0.0
 11
2406.67077002
 21
-1722.57612339
 31
0.0
  0
LINE
  5
227
100
AcDbEntity
  8
Sc.1_5
 62
     9
  6
CONTINUOUS
370
    -2
100
AcDbLine
 10
2404.9799101
 20
-1723.55234182
 30
0.0
 11
2404.36136843
 21
-1723.90945702
 31
0.0
  0
LINE
  5
228
100
AcDbEntity
  8
Sc.1_5
 62
     9
  6
CONTINUOUS
370
    -2
100
AcDbLine
 10
2402.67050851
 20
-1724.88567545
 30
0.0
 11
2402.05196683
 21
-1725.24279065
 31
0.0
  0
LINE
  5
229
100
AcDbEntity
  8
Sc.1_5
 62
     9
  6
CONTINUOUS
370
    -2
100
AcDbLine
 10
2400.36110691
 20
-1726.21900908
 30
0.0
 11
2399.74256524
 21
-1726.57612428
 31
0.0
  0
LINE
  5
22A
100
AcDbEntity
  8
Sc.1_5
 62
     9
  6
CONTINUOUS
370
    -2
100
AcDbLine
 10
2398.05170532
 20
-1727.55234271
 30
0.0
 11
2397.43316365
 21
-1727.90945791
 31
0.0
  0
LINE
  5
22B
100
AcDbEntity
  8
Sc.1_5
 62
     9
  6
CONTINUOUS
370
    -2
100
AcDbLine
 10
2395.74230373
 20
-1728.88567634
 30
0.0
 11
2395.12376205
 21
-1729.24279155
 31
0.0
  0
LINE
  5
22C
100
AcDbEntity
  8
Sc.1_5
 62
     9
  6
CONTINUOUS
370
    -2
100
AcDbLine
 10
2393.43290214
 20
-1730.21900997
 30
0.0
 11
2392.81436046
 21
-1730.57612518
 31
0.0
  0
LINE
  5
22D
100
AcDbEntity
  8
Sc.1_5
 62
     9
  6
CONTINUOUS
370
    -2
100
AcDbLine
 10
2391.12350054
 20
-1731.55234361
 30
0.0
 11
2390.50495887
 21
-1731.90945881
 31
0.0
  0
LINE
  5
22E
100
AcDbEntity
  8
Sc.1_5
 62
     9
  6
CONTINUOUS
370
    -2
100
AcDbLine
 10
2388.81409895
 20
-1732.88567724
 30
0.0
 11
2388.19555728
 21
-1733.24279244
 31
0.0
  0
LINE
  5
22F
100
AcDbEntity
  8
Sc.1_5
 62
     9
  6
CONTINUOUS
370
    -2
100
AcDbLine
 10
2386.50469736
 20
-1734.21901087
 30
0.0
 11
2385.88615568
 21
-1734.57612607
 31
0.0
  0
LINE
  5
230
100
AcDbEntity
  8
Sc.1_5
 62
     9
  6
CONTINUOUS
370
    -2
100
AcDbLine
 10
2384.19529576
 20
-1735.5523445
 30
0.0
 11
2383.57675409
 21
-1735.9094597
 31
0.0
  0
LINE
  5
231
100
AcDbEntity
  8
Sc.1_5
 62
     9
  6
CONTINUOUS
370
    -2
100
AcDbLine
 10
2381.88589417
 20
-1736.88567813
 30
0.0
 11
2381.2673525
 21
-1737.24279333
 31
0.0
  0
LINE
  5
232
100
AcDbEntity
  8
Sc.1_5
 62
     9
  6
CONTINUOUS
370
    -2
100
AcDbLine
 10
2379.57649258
 20
-1738.21901176
 30
0.0
 11
2378.9579509
 21
-1738.57612697
 31
0.0
  0
LINE
  5
233
100
AcDbEntity
  8
Sc.1_5
 62
     9
  6
CONTINUOUS
370
    -2
100
AcDbLine
 10
2377.26709099
 20
-1739.55234539
 30
0.0
 11
2376.64854931
 21
-1739.9094606
 31
0.0
  0
LINE
  5
234
100
AcDbEntity
  8
Sc.1_5
 62
     9
  6
CONTINUOUS
370
    -2
100
AcDbLine
 10
2374.95768939
 20
-1740.88567903
 30
0.0
 11
2374.33914772
 21
-1741.24279423
 31
0.0
  0
LINE
  5
235
100
AcDbEntity
  8
Sc.1_5
 62
     9
  6
CONTINUOUS
370
    -2
100
AcDbLine
 10
2372.6482878
 20
-1742.21901266
 30
0.0
 11
2372.02974612
 21
-1742.57612786
 31
0.0
  0
LINE
  5
236
100
AcDbEntity
  8
Sc.1_5
 62
     9
  6
CONTINUOUS
370
    -2
100
AcDbLine
 10
2370.33888621
 20
-1743.55234629
 30
0.0
 11
2369.72034453
 21
-1743.90946149
 31
0.0
  0
LINE
  5
237
100
AcDbEntity
  8
Sc.1_5
 62
     9
  6
CONTINUOUS
370
    -2
100
AcDbLine
 10
2368.02948461
 20
-1744.88567992
 30
0.0
 11
2367.41094294
 21
-1745.24279512
 31
0.0
  0
LINE
  5
238
100
AcDbEntity
  8
Sc.1_5
 62
     9
  6
CONTINUOUS
370
    -2
100
AcDbLine
 10
2365.72008302
 20
-1746.21901355
 30
0.0
 11
2365.10154135
 21
-1746.57612875
 31
0.0
  0
LINE
  5
239
100
AcDbEntity
  8
Sc.1_5
 62
     9
  6
CONTINUOUS
370
    -2
100
AcDbLine
 10
2416.26281564
 20
-1701.14246158
 30
0.0
 11
2416.47918604
 21
-1701.51722609
 31
0.0
  0
LINE
  5
23A
100
AcDbEntity
  8
Sc.1_5
 62
     9
  6
CONTINUOUS
370
    -2
100
AcDbLine
 10
2411.64401386
 20
-1703.80912803
 30
0.0
 11
2411.86038425
 21
-1704.18389255
 31
0.0
  0
LINE
  5
23B
100
AcDbEntity
  8
Sc.1_5
 62
     9
  6
CONTINUOUS
370
    -2
100
AcDbLine
 10
2407.02521208
 20
-1706.47579448
 30
0.0
 11
2407.24158247
 21
-1706.850559
 31
0.0
  0
LINE
  5
23C
100
AcDbEntity
  8
Sc.1_5
 62
     9
  6
CONTINUOUS
370
    -2
100
AcDbLine
 10
2402.4064103
 20
-1709.14246093
 30
0.0
 11
2402.62278069
 21
-1709.51722545
 31
0.0
  0
LINE
  5
23D
100
AcDbEntity
  8
Sc.1_5
 62
     9
  6
CONTINUOUS
370
    -2
100
AcDbLine
 10
2397.78760851
 20
-1711.80912739
 30
0.0
 11
2398.00397891
 21
-1712.1838919
 31
0.0
  0
LINE
  5
23E
100
AcDbEntity
  8
Sc.1_5
 62
     9
  6
CONTINUOUS
370
    -2
100
AcDbLine
 10
2393.16880673
 20
-1714.47579384
 30
0.0
 11
2393.38517713
 21
-1714.85055836
 31
0.0
  0
LINE
  5
23F
100
AcDbEntity
  8
Sc.1_5
 62
     9
  6
CONTINUOUS
370
    -2
100
AcDbLine
 10
2388.55000495
 20
-1717.14246029
 30
0.0
 11
2388.76637535
 21
-1717.51722481
 31
0.0
  0
LINE
  5
240
100
AcDbEntity
  8
Sc.1_5
 62
     9
  6
CONTINUOUS
370
    -2
100
AcDbLine
 10
2383.93120317
 20
-1719.80912674
 30
0.0
 11
2384.14757356
 21
-1720.18389126
 31
0.0
  0
LINE
  5
241
100
AcDbEntity
  8
Sc.1_5
 62
     9
  6
CONTINUOUS
370
    -2
100
AcDbLine
 10
2379.31240139
 20
-1722.47579319
 30
0.0
 11
2379.52877178
 21
-1722.85055771
 31
0.0
  0
LINE
  5
242
100
AcDbEntity
  8
Sc.1_5
 62
     9
  6
CONTINUOUS
370
    -2
100
AcDbLine
 10
2374.6935996
 20
-1725.14245965
 30
0.0
 11
2374.90997
 21
-1725.51722416
 31
0.0
  0
LINE
  5
243
100
AcDbEntity
  8
Sc.1_5
 62
     9
  6
CONTINUOUS
370
    -2
100
AcDbLine
 10
2370.07479782
 20
-1727.8091261
 30
0.0
 11
2370.29116822
 21
-1728.18389062
 31
0.0
  0
LINE
  5
244
100
AcDbEntity
  8
Sc.1_5
 62
     9
  6
CONTINUOUS
370
    -2
100
AcDbLine
 10
2365.45599604
 20
-1730.47579255
 30
0.0
 11
2365.67236644
 21
-1730.85055707
 31
0.0
  0
LINE
  5
245
100
AcDbEntity
  8
Sc.1_5
 62
     9
  6
CONTINUOUS
370
    -2
100
AcDbLine
 10
2360.83719426
 20
-1733.142459
 30
0.0
 11
2361.05356465
 21
-1733.51722352
 31
0.0
  0
LINE
  5
246
100
AcDbEntity
  8
Sc.1_5
 62
     9
  6
CONTINUOUS
370
    -2
100
AcDbLine
 10
2424.12191963
 20
-1709.42149655
 30
0.0
 11
2424.33829002
 21
-1709.79626107
 31
0.0
  0
LINE
  5
247
100
AcDbEntity
  8
Sc.1_5
 62
     9
  6
CONTINUOUS
370
    -2
100
AcDbLine
 10
2419.50311784
 20
-1712.088163
 30
0.0
 11
2419.71948824
 21
-1712.46292752
 31
0.0
  0
LINE
  5
248
100
AcDbEntity
  8
Sc.1_5
 62
     9
  6
CONTINUOUS
370
    -2
100
AcDbLine
 10
2414.88431606
 20
-1714.75482946
 30
0.0
 11
2415.10068646
 21
-1715.12959397
 31
0.0
  0
LINE
  5
249
100
AcDbEntity
  8
Sc.1_5
 62
     9
  6
CONTINUOUS
370
    -2
100
AcDbLine
 10
2410.26551428
 20
-1717.42149591
 30
0.0
 11
2410.48188468
 21
-1717.79626042
 31
0.0
  0
LINE
  5
24A
100
AcDbEntity
  8
Sc.1_5
 62
     9
  6
CONTINUOUS
370
    -2
100
AcDbLine
 10
2405.6467125
 20
-1720.08816236
 30
0.0
 11
2405.86308289
 21
-1720.46292688
 31
0.0
  0
LINE
  5
24B
100
AcDbEntity
  8
Sc.1_5
 62
     9
  6
CONTINUOUS
370
    -2
100
AcDbLine
 10
2401.02791072
 20
-1722.75482881
 30
0.0
 11
2401.24428111
 21
-1723.12959333
 31
0.0
  0
LINE
  5
24C
100
AcDbEntity
  8
Sc.1_5
 62
     9
  6
CONTINUOUS
370
    -2
100
AcDbLine
 10
2396.40910894
 20
-1725.42149526
 30
0.0
 11
2396.62547933
 21
-1725.79625978
 31
0.0
  0
LINE
  5
24D
100
AcDbEntity
  8
Sc.1_5
 62
     9
  6
CONTINUOUS
370
    -2
100
AcDbLine
 10
2391.79030715
 20
-1728.08816172
 30
0.0
 11
2392.00667755
 21
-1728.46292623
 31
0.0
  0
LINE
  5
24E
100
AcDbEntity
  8
Sc.1_5
 62
     9
  6
CONTINUOUS
370
    -2
100
AcDbLine
 10
2387.17150537
 20
-1730.75482817
 30
0.0
 11
2387.38787577
 21
-1731.12959269
 31
0.0
  0
LINE
  5
24F
100
AcDbEntity
  8
Sc.1_5
 62
     9
  6
CONTINUOUS
370
    -2
100
AcDbLine
 10
2382.55270359
 20
-1733.42149462
 30
0.0
 11
2382.76907398
 21
-1733.79625914
 31
0.0
  0
LINE
  5
250
100
AcDbEntity
  8
Sc.1_5
 62
     9
  6
CONTINUOUS
370
    -2
100
AcDbLine
 10
2377.93390181
 20
-1736.08816107
 30
0.0
 11
2378.1502722
 21
-1736.46292559
 31
0.0
  0
LINE
  5
251
100
AcDbEntity
  8
Sc.1_5
 62
     9
  6
CONTINUOUS
370
    -2
100
AcDbLine
 10
2373.31510003
 20
-1738.75482752
 30
0.0
 11
2373.53147042
 21
-1739.12959204
 31
0.0
  0
LINE
  5
252
100
AcDbEntity
  8
Sc.1_5
 62
     9
  6
CONTINUOUS
370
    -2
100
AcDbLine
 10
2368.69629824
 20
-1741.42149398
 30
0.0
 11
2368.91266864
 21
-1741.79625849
 31
0.0
  0
LINE
  5
253
100
AcDbEntity
  8
Sc.1_5
 62
     9
  6
CONTINUOUS
370
    -2
100
AcDbLine
 10
2364.07749646
 20
-1744.08816043
 30
0.0
 11
2364.29386686
 21
-1744.46292495
 31
0.0
  0
LINE
  5
254
100
AcDbEntity
  8
Sc.1_5
 62
     9
  6
CONTINUOUS
370
    -2
100
AcDbLine
 10
2416.82024491
 20
-1701.98083756
 30
0.0
 11
2423.78086178
 21
-1708.95788297
 31
0.0
  0
LINE
  5
255
100
AcDbEntity
  8
Sc.1_5
 62
     9
  6
CONTINUOUS
370
    -2
100
AcDbLine
 10
2412.20143949
 20
-1704.64749555
 30
0.0
 11
2419.16205636
 21
-1711.62454096
 31
0.0
  0
LINE
  5
256
100
AcDbEntity
  8
Sc.1_5
 62
     9
  6
CONTINUOUS
370
    -2
100
AcDbLine
 10
2407.58263408
 20
-1707.31415353
 30
0.0
 11
2414.54325095
 21
-1714.29119894
 31
0.0
  0
LINE
  5
257
100
AcDbEntity
  8
Sc.1_5
 62
     9
  6
CONTINUOUS
370
    -2
100
AcDbLine
 10
2402.96382866
 20
-1709.98081152
 30
0.0
 11
2409.92444553
 21
-1716.95785693
 31
0.0
  0
LINE
  5
258
100
AcDbEntity
  8
Sc.1_5
 62
     9
  6
CONTINUOUS
370
    -2
100
AcDbLine
 10
2398.34502325
 20
-1712.64746951
 30
0.0
 11
2405.30564012
 21
-1719.62451492
 31
0.0
  0
LINE
  5
259
100
AcDbEntity
  8
Sc.1_5
 62
     9
  6
CONTINUOUS
370
    -2
100
AcDbLine
 10
2393.72621783
 20
-1715.3141275
 30
0.0
 11
2400.6868347
 21
-1722.29117291
 31
0.0
  0
LINE
  5
25A
100
AcDbEntity
  8
Sc.1_5
 62
     9
  6
CONTINUOUS
370
    -2
100
AcDbLine
 10
2389.10741242
 20
-1717.98078549
 30
0.0
 11
2396.06802929
 21
-1724.9578309
 31
0.0
  0
LINE
  5
25B
100
AcDbEntity
  8
Sc.1_5
 62
     9
  6
CONTINUOUS
370
    -2
100
AcDbLine
 10
2384.488607
 20
-1720.64744347
 30
0.0
 11
2391.44922387
 21
-1727.62448888
 31
0.0
  0
LINE
  5
25C
100
AcDbEntity
  8
Sc.1_5
 62
     9
  6
CONTINUOUS
370
    -2
100
AcDbLine
 10
2379.86980159
 20
-1723.31410146
 30
0.0
 11
2386.83041846
 21
-1730.29114687
 31
0.0
  0
LINE
  5
25D
100
AcDbEntity
  8
Sc.1_5
 62
     9
  6
CONTINUOUS
370
    -2
100
AcDbLine
 10
2375.25099617
 20
-1725.98075945
 30
0.0
 11
2382.21161304
 21
-1732.95780486
 31
0.0
  0
LINE
  5
25E
100
AcDbEntity
  8
Sc.1_5
 62
     9
  6
CONTINUOUS
370
    -2
100
AcDbLine
 10
2370.63219076
 20
-1728.64741744
 30
0.0
 11
2377.59280762
 21
-1735.62446285
 31
0.0
  0
LINE
  5
25F
100
AcDbEntity
  8
Sc.1_5
 62
     9
  6
CONTINUOUS
370
    -2
100
AcDbLine
 10
2366.01338534
 20
-1731.31407543
 30
0.0
 11
2372.97400221
 21
-1738.29112084
 31
0.0
  0
LINE
  5
260
100
AcDbEntity
  8
Sc.1_5
 62
     9
  6
CONTINUOUS
370
    -2
100
AcDbLine
 10
2361.39457993
 20
-1733.98073341
 30
0.0
 11
2368.35519679
 21
-1740.95777882
 31
0.0
  0
LINE
  5
261
100
AcDbEntity
  8
Sc.1_5
 62
     9
  6
CONTINUOUS
370
    -2
100
AcDbLine
 10
2358.54257964
 20
-1738.41836657
 30
0.0
 11
2363.73639138
 21
-1743.62443681
 31
0.0
  0
LINE
  5
262
100
AcDbEntity
  8
Sc.1_5
 62
     9
  6
CONTINUOUS
370
    -2
100
AcDbLine
 10
2416.71015723
 20
-1702.04439671
 30
0.0
 11
2419.27214736
 21
-1711.56099045
 31
0.0
  0
LINE
  5
263
100
AcDbEntity
  8
Sc.1_5
 62
     9
  6
CONTINUOUS
370
    -2
100
AcDbLine
 10
2412.09136096
 20
-1704.71107054
 30
0.0
 11
2414.65335109
 21
-1714.22766428
 31
0.0
  0
LINE
  5
264
100
AcDbEntity
  8
Sc.1_5
 62
     9
  6
CONTINUOUS
370
    -2
100
AcDbLine
 10
2407.47256469
 20
-1707.37774437
 30
0.0
 11
2410.03455482
 21
-1716.89433811
 31
0.0
  0
LINE
  5
265
100
AcDbEntity
  8
Sc.1_5
 62
     9
  6
CONTINUOUS
370
    -2
100
AcDbLine
 10
2402.85376842
 20
-1710.0444182
 30
0.0
 11
2405.41575856
 21
-1719.56101194
 31
0.0
  0
LINE
  5
266
100
AcDbEntity
  8
Sc.1_5
 62
     9
  6
CONTINUOUS
370
    -2
100
AcDbLine
 10
2398.23497215
 20
-1712.71109203
 30
0.0
 11
2400.79696229
 21
-1722.22768577
 31
0.0
  0
LINE
  5
267
100
AcDbEntity
  8
Sc.1_5
 62
     9
  6
CONTINUOUS
370
    -2
100
AcDbLine
 10
2393.61617589
 20
-1715.37776586
 30
0.0
 11
2396.17816602
 21
-1724.8943596
 31
0.0
  0
LINE
  5
268
100
AcDbEntity
  8
Sc.1_5
 62
     9
  6
CONTINUOUS
370
    -2
100
AcDbLine
 10
2388.99737962
 20
-1718.04443969
 30
0.0
 11
2391.55936975
 21
-1727.56103343
 31
0.0
  0
LINE
  5
269
100
AcDbEntity
  8
Sc.1_5
 62
     9
  6
CONTINUOUS
370
    -2
100
AcDbLine
 10
2384.37858335
 20
-1720.71111353
 30
0.0
 11
2386.94057348
 21
-1730.22770726
 31
0.0
  0
LINE
  5
26A
100
AcDbEntity
  8
Sc.1_5
 62
     9
  6
CONTINUOUS
370
    -2
100
AcDbLine
 10
2379.75978708
 20
-1723.37778736
 30
0.0
 11
2382.32177721
 21
-1732.8943811
 31
0.0
  0
LINE
  5
26B
100
AcDbEntity
  8
Sc.1_5
 62
     9
  6
CONTINUOUS
370
    -2
100
AcDbLine
 10
2375.14099081
 20
-1726.04446119
 30
0.0
 11
2377.70298095
 21
-1735.56105493
 31
0.0
  0
LINE
  5
26C
100
AcDbEntity
  8
Sc.1_5
 62
     9
  6
CONTINUOUS
370
    -2
100
AcDbLine
 10
2370.52219454
 20
-1728.71113502
 30
0.0
 11
2373.08418468
 21
-1738.22772876
 31
0.0
  0
LINE
  5
26D
100
AcDbEntity
  8
Sc.1_5
 62
     9
  6
CONTINUOUS
370
    -2
100
AcDbLine
 10
2365.90339828
 20
-1731.37780885
 30
0.0
 11
2368.46538841
 21
-1740.89440259
 31
0.0
  0
LINE
  5
26E
100
AcDbEntity
  8
Sc.1_5
 62
     9
  6
CONTINUOUS
370
    -2
100
AcDbLine
 10
2361.28460201
 20
-1734.04448268
 30
0.0
 11
2363.84659214
 21
-1743.56107642
 31
0.0
  0
LINE
  5
26F
100
AcDbEntity
  8
Sc.1_5
 62
     9
  6
CONTINUOUS
370
    -2
100
AcDbLine
 10
2417.14598314
 20
-1698.05304854
 30
0.0
 11
2416.63571309
 21
-1698.56788307
 31
0.0
  0
LINE
  5
270
100
AcDbEntity
  8
Sc.1_5
 62
     9
  6
CONTINUOUS
370
    -2
100
AcDbLine
 10
2412.52718105
 20
-1700.71971517
 30
0.0
 11
2412.01691138
 21
-1701.23454932
 31
0.0
  0
LINE
  5
271
100
AcDbEntity
  8
Sc.1_5
 62
     9
  6
CONTINUOUS
370
    -2
100
AcDbLine
 10
2407.90837896
 20
-1703.3863818
 30
0.0
 11
2407.39810968
 21
-1703.90121556
 31
0.0
  0
LINE
  5
272
100
AcDbEntity
  8
Sc.1_5
 62
     9
  6
CONTINUOUS
370
    -2
100
AcDbLine
 10
2403.28957687
 20
-1706.05304843
 30
0.0
 11
2402.77930797
 21
-1706.56788181
 31
0.0
  0
LINE
  5
273
100
AcDbEntity
  8
Sc.1_5
 62
     9
  6
CONTINUOUS
370
    -2
100
AcDbLine
 10
2398.67077478
 20
-1708.71971506
 30
0.0
 11
2398.16050626
 21
-1709.23454805
 31
0.0
  0
LINE
  5
274
100
AcDbEntity
  8
Sc.1_5
 62
     9
  6
CONTINUOUS
370
    -2
100
AcDbLine
 10
2394.05197269
 20
-1711.38638169
 30
0.0
 11
2393.54170455
 21
-1711.9012143
 31
0.0
  0
LINE
  5
275
100
AcDbEntity
  8
Sc.1_5
 62
     9
  6
CONTINUOUS
370
    -2
100
AcDbLine
 10
2389.4331706
 20
-1714.05304832
 30
0.0
 11
2388.92290284
 21
-1714.56788054
 31
0.0
  0
LINE
  5
276
100
AcDbEntity
  8
Sc.1_5
 62
     9
  6
CONTINUOUS
370
    -2
100
AcDbLine
 10
2384.81436851
 20
-1716.71971495
 30
0.0
 11
2384.30410113
 21
-1717.23454678
 31
0.0
  0
LINE
  5
277
100
AcDbEntity
  8
Sc.1_5
 62
     9
  6
CONTINUOUS
370
    -2
100
AcDbLine
 10
2380.19556642
 20
-1719.38638158
 30
0.0
 11
2379.68529943
 21
-1719.90121303
 31
0.0
  0
LINE
  5
278
100
AcDbEntity
  8
Sc.1_5
 62
     9
  6
CONTINUOUS
370
    -2
100
AcDbLine
 10
2375.57676433
 20
-1722.05304821
 30
0.0
 11
2375.06649772
 21
-1722.56787927
 31
0.0
  0
LINE
  5
279
100
AcDbEntity
  8
Sc.1_5
 62
     9
  6
CONTINUOUS
370
    -2
100
AcDbLine
 10
2370.95796223
 20
-1724.71971484
 30
0.0
 11
2370.44769601
 21
-1725.23454552
 31
0.0
  0
LINE
  5
27A
100
AcDbEntity
  8
Sc.1_5
 62
     9
  6
CONTINUOUS
370
    -2
100
AcDbLine
 10
2366.33916014
 20
-1727.38638147
 30
0.0
 11
2365.8288943
 21
-1727.90121176
 31
0.0
  0
LINE
  5
27B
100
AcDbEntity
  8
Sc.1_5
 62
     9
  6
CONTINUOUS
370
    -2
100
AcDbLine
 10
2361.72035805
 20
-1730.0530481
 30
0.0
 11
2361.21009259
 21
-1730.56787801
 31
0.0
  0
LINE
  5
27C
100
AcDbEntity
  8
Sc.1_5
 62
     9
  6
CONTINUOUS
370
    -2
100
AcDbLine
 10
2357.10155596
 20
-1732.71971473
 30
0.0
 11
2356.59129088
 21
-1733.23454425
 31
0.0
  0
LINE
  5
27D
100
AcDbEntity
  8
Sc.1_5
 62
     9
  6
CONTINUOUS
370
    -2
100
AcDbLine
 10
2413.14572361
 20
-1700.36260044
 30
0.0
 11
2413.8467184
 21
-1700.17811079
 31
0.0
  0
LINE
  5
27E
100
AcDbEntity
  8
Sc.1_5
 62
     9
  6
CONTINUOUS
370
    -2
100
AcDbLine
 10
2408.5269224
 20
-1703.02926755
 30
0.0
 11
2409.22791719
 21
-1702.8447779
 31
0.0
  0
LINE
  5
27F
100
AcDbEntity
  8
Sc.1_5
 62
     9
  6
CONTINUOUS
370
    -2
100
AcDbLine
 10
2403.90812119
 20
-1705.69593466
 30
0.0
 11
2404.60911597
 21
-1705.511445
 31
0.0
  0
LINE
  5
280
100
AcDbEntity
  8
Sc.1_5
 62
     9
  6
CONTINUOUS
370
    -2
100
AcDbLine
 10
2399.28931998
 20
-1708.36260176
 30
0.0
 11
2399.99031476
 21
-1708.17811211
 31
0.0
  0
LINE
  5
281
100
AcDbEntity
  8
Sc.1_5
 62
     9
  6
CONTINUOUS
370
    -2
100
AcDbLine
 10
2394.67051877
 20
-1711.02926887
 30
0.0
 11
2395.37151355
 21
-1710.84477922
 31
0.0
  0
LINE
  5
282
100
AcDbEntity
  8
Sc.1_5
 62
     9
  6
CONTINUOUS
370
    -2
100
AcDbLine
 10
2390.05171756
 20
-1713.69593598
 30
0.0
 11
2390.75271234
 21
-1713.51144633
 31
0.0
  0
LINE
  5
283
100
AcDbEntity
  8
Sc.1_5
 62
     9
  6
CONTINUOUS
370
    -2
100
AcDbLine
 10
2385.43291635
 20
-1716.36260308
 30
0.0
 11
2386.13391113
 21
-1716.17811343
 31
0.0
  0
LINE
  5
284
100
AcDbEntity
  8
Sc.1_5
 62
     9
  6
CONTINUOUS
370
    -2
100
AcDbLine
 10
2380.81411514
 20
-1719.02927019
 30
0.0
 11
2381.51510992
 21
-1718.84478054
 31
0.0
  0
LINE
  5
285
100
AcDbEntity
  8
Sc.1_5
 62
     9
  6
CONTINUOUS
370
    -2
100
AcDbLine
 10
2376.19531393
 20
-1721.6959373
 30
0.0
 11
2376.89630871
 21
-1721.51144765
 31
0.0
  0
LINE
  5
286
100
AcDbEntity
  8
Sc.1_5
 62
     9
  6
CONTINUOUS
370
    -2
100
AcDbLine
 10
2371.57651272
 20
-1724.36260441
 30
0.0
 11
2372.2775075
 21
-1724.17811475
 31
0.0
  0
LINE
  5
287
100
AcDbEntity
  8
Sc.1_5
 62
     9
  6
CONTINUOUS
370
    -2
100
AcDbLine
 10
2366.9577115
 20
-1727.02927151
 30
0.0
 11
2367.65870629
 21
-1726.84478186
 31
0.0
  0
LINE
  5
288
100
AcDbEntity
  8
Sc.1_5
 62
     9
  6
CONTINUOUS
370
    -2
100
AcDbLine
 10
2362.33891029
 20
-1729.69593862
 30
0.0
 11
2363.03990508
 21
-1729.51144897
 31
0.0
  0
LINE
  5
289
100
AcDbEntity
  8
Sc.1_5
 62
     9
  6
CONTINUOUS
370
    -2
100
AcDbLine
 10
2357.72010908
 20
-1732.36260573
 30
0.0
 11
2358.42110387
 21
-1732.17811608
 31
0.0
  0
LINE
  5
28A
100
AcDbEntity
  8
Sc.1_5
 62
     9
  6
CONTINUOUS
370
    -2
100
AcDbLine
 10
2423.96539432
 20
-1712.37083923
 30
0.0
 11
2423.45512559
 21
-1712.88567243
 31
0.0
  0
LINE
  5
28B
100
AcDbEntity
  8
Sc.1_5
 62
     9
  6
CONTINUOUS
370
    -2
100
AcDbLine
 10
2419.34659261
 20
-1715.03750547
 30
0.0
 11
2418.8363235
 21
-1715.55233906
 31
0.0
  0
LINE
  5
28C
100
AcDbEntity
  8
Sc.1_5
 62
     9
  6
CONTINUOUS
370
    -2
100
AcDbLine
 10
2414.72779091
 20
-1717.70417172
 30
0.0
 11
2414.21752141
 21
-1718.21900569
 31
0.0
  0
LINE
  5
28D
100
AcDbEntity
  8
Sc.1_5
 62
     9
  6
CONTINUOUS
370
    -2
100
AcDbLine
 10
2410.1089892
 20
-1720.37083796
 30
0.0
 11
2409.59871932
 21
-1720.88567232
 31
0.0
  0
LINE
  5
28E
100
AcDbEntity
  8
Sc.1_5
 62
     9
  6
CONTINUOUS
370
    -2
100
AcDbLine
 10
2405.49018749
 20
-1723.03750421
 30
0.0
 11
2404.97991744
 21
-1723.55233874
 31
0.0
  0
LINE
  5
28F
100
AcDbEntity
  8
Sc.1_5
 62
     9
  6
CONTINUOUS
370
    -2
100
AcDbLine
 10
2400.87138578
 20
-1725.70417045
 30
0.0
 11
2400.36111573
 21
-1726.21900499
 31
0.0
  0
LINE
  5
290
100
AcDbEntity
  8
Sc.1_5
 62
     9
  6
CONTINUOUS
370
    -2
100
AcDbLine
 10
2396.25258407
 20
-1728.37083669
 30
0.0
 11
2395.74231402
 21
-1728.88567123
 31
0.0
  0
LINE
  5
291
100
AcDbEntity
  8
Sc.1_5
 62
     9
  6
CONTINUOUS
370
    -2
100
AcDbLine
 10
2391.63378236
 20
-1731.03750294
 30
0.0
 11
2391.12351231
 21
-1731.55233747
 31
0.0
  0
LINE
  5
292
100
AcDbEntity
  8
Sc.1_5
 62
     9
  6
CONTINUOUS
370
    -2
100
AcDbLine
 10
2387.01498066
 20
-1733.70416918
 30
0.0
 11
2386.5047106
 21
-1734.21900372
 31
0.0
  0
LINE
  5
293
100
AcDbEntity
  8
Sc.1_5
 62
     9
  6
CONTINUOUS
370
    -2
100
AcDbLine
 10
2382.39617895
 20
-1736.37083543
 30
0.0
 11
2381.8859089
 21
-1736.88566996
 31
0.0
  0
LINE
  5
294
100
AcDbEntity
  8
Sc.1_5
 62
     9
  6
CONTINUOUS
370
    -2
100
AcDbLine
 10
2377.77737724
 20
-1739.03750167
 30
0.0
 11
2377.26710719
 21
-1739.55233621
 31
0.0
  0
LINE
  5
295
100
AcDbEntity
  8
Sc.1_5
 62
     9
  6
CONTINUOUS
370
    -2
100
AcDbLine
 10
2373.15857553
 20
-1741.70416792
 30
0.0
 11
2372.64830548
 21
-1742.21900245
 31
0.0
  0
LINE
  5
296
100
AcDbEntity
  8
Sc.1_5
 62
     9
  6
CONTINUOUS
370
    -2
100
AcDbLine
 10
2368.53977382
 20
-1744.37083416
 30
0.0
 11
2368.02950377
 21
-1744.8856687
 31
0.0
  0
LINE
  5
297
100
AcDbEntity
  8
Sc.1_5
 62
     9
  6
CONTINUOUS
370
    -2
100
AcDbLine
 10
2363.92097211
 20
-1747.03750041
 30
0.0
 11
2363.66686223
 21
-1747.29388336
 31
0.0
  0
LINE
  5
298
100
AcDbEntity
  8
Sc.1_5
 62
     9
  6
CONTINUOUS
370
    -2
100
AcDbLine
 10
2367.41095827
 20
-1745.24278752
 30
0.0
 11
2366.70996946
 21
-1745.4272755
 31
0.0
  0
LINE
  5
299
100
AcDbEntity
  8
Sc.1_5
 62
     9
  6
CONTINUOUS
370
    -2
100
AcDbLine
 10
2372.02976036
 20
-1742.57612089
 30
0.0
 11
2371.32877102
 21
-1742.76060901
 31
0.0
  0
LINE
  5
29A
100
AcDbEntity
  8
Sc.1_5
 62
     9
  6
CONTINUOUS
370
    -2
100
AcDbLine
 10
2376.64856245
 20
-1739.90945426
 30
0.0
 11
2375.94757259
 21
-1740.09394252
 31
0.0
  0
LINE
  5
29B
100
AcDbEntity
  8
Sc.1_5
 62
     9
  6
CONTINUOUS
370
    -2
100
AcDbLine
 10
2381.26736454
 20
-1737.24278763
 30
0.0
 11
2380.56637415
 21
-1737.42727603
 31
0.0
  0
LINE
  5
29C
100
AcDbEntity
  8
Sc.1_5
 62
     9
  6
CONTINUOUS
370
    -2
100
AcDbLine
 10
2385.88616663
 20
-1734.576121
 30
0.0
 11
2385.18517572
 21
-1734.76060953
 31
0.0
  0
LINE
  5
29D
100
AcDbEntity
  8
Sc.1_5
 62
     9
  6
CONTINUOUS
370
    -2
100
AcDbLine
 10
2390.50496872
 20
-1731.90945437
 30
0.0
 11
2389.80397728
 21
-1732.09394304
 31
0.0
  0
LINE
  5
29E
100
AcDbEntity
  8
Sc.1_5
 62
     9
  6
CONTINUOUS
370
    -2
100
AcDbLine
 10
2395.12377082
 20
-1729.24278774
 30
0.0
 11
2394.42277885
 21
-1729.42727655
 31
0.0
  0
LINE
  5
29F
100
AcDbEntity
  8
Sc.1_5
 62
     9
  6
CONTINUOUS
370
    -2
100
AcDbLine
 10
2399.74257291
 20
-1726.57612111
 30
0.0
 11
2399.04158041
 21
-1726.76061006
 31
0.0
  0
LINE
  5
2A0
100
AcDbEntity
  8
Sc.1_5
 62
     9
  6
CONTINUOUS
370
    -2
100
AcDbLine
 10
2404.361375
 20
-1723.90945448
 30
0.0
 11
2403.66038198
 21
-1724.09394356
 31
0.0
  0
LINE
  5
2A1
100
AcDbEntity
  8
Sc.1_5
 62
     9
  6
CONTINUOUS
370
    -2
100
AcDbLine
 10
2408.98017709
 20
-1721.24278785
 30
0.0
 11
2408.27918354
 21
-1721.42727707
 31
0.0
  0
LINE
  5
2A2
100
AcDbEntity
  8
Sc.1_5
 62
     9
  6
CONTINUOUS
370
    -2
100
AcDbLine
 10
2413.59897918
 20
-1718.57612122
 30
0.0
 11
2412.89798511
 21
-1718.76061058
 31
0.0
  0
LINE
  5
2A3
100
AcDbEntity
  8
Sc.1_5
 62
     9
  6
CONTINUOUS
370
    -2
100
AcDbLine
 10
2418.21778127
 20
-1715.90945459
 30
0.0
 11
2417.51678668
 21
-1716.09394409
 31
0.0
  0
LINE
  5
2A4
100
AcDbEntity
  8
Sc.1_5
 62
     9
  6
CONTINUOUS
370
    -2
100
AcDbLine
 10
2422.83658305
 20
-1713.24278804
 30
0.0
 11
2422.13558824
 21
-1713.4272776
 31
0.0
  0
LINE
  5
2A5
100
AcDbEntity
  8
Sc.1_5
 62
     9
  6
CONTINUOUS
370
    -2
100
AcDbLine
 10
2416.63571384
 20
-1698.56788269
 30
0.0
 11
2416.2977173
 21
-1699.17673598
 31
0.0
  0
LINE
  5
2A6
100
AcDbEntity
  8
Sc.1_5
 62
     9
  6
CONTINUOUS
370
    -2
100
AcDbLine
 10
2412.01691128
 20
-1701.23454964
 30
0.0
 11
2411.67891473
 21
-1701.84340292
 31
0.0
  0
LINE
  5
2A7
100
AcDbEntity
  8
Sc.1_5
 62
     9
  6
CONTINUOUS
370
    -2
100
AcDbLine
 10
2407.39810871
 20
-1703.90121658
 30
0.0
 11
2407.06011217
 21
-1704.51006986
 31
0.0
  0
LINE
  5
2A8
100
AcDbEntity
  8
Sc.1_5
 62
     9
  6
CONTINUOUS
370
    -2
100
AcDbLine
 10
2402.77930615
 20
-1706.56788352
 30
0.0
 11
2402.44130961
 21
-1707.17673681
 31
0.0
  0
LINE
  5
2A9
100
AcDbEntity
  8
Sc.1_5
 62
     9
  6
CONTINUOUS
370
    -2
100
AcDbLine
 10
2398.16050359
 20
-1709.23455047
 30
0.0
 11
2397.82250705
 21
-1709.84340375
 31
0.0
  0
LINE
  5
2AA
100
AcDbEntity
  8
Sc.1_5
 62
     9
  6
CONTINUOUS
370
    -2
100
AcDbLine
 10
2393.54170103
 20
-1711.90121741
 30
0.0
 11
2393.20370449
 21
-1712.51007069
 31
0.0
  0
LINE
  5
2AB
100
AcDbEntity
  8
Sc.1_5
 62
     9
  6
CONTINUOUS
370
    -2
100
AcDbLine
 10
2388.92289846
 20
-1714.56788435
 30
0.0
 11
2388.58490192
 21
-1715.17673764
 31
0.0
  0
LINE
  5
2AC
100
AcDbEntity
  8
Sc.1_5
 62
     9
  6
CONTINUOUS
370
    -2
100
AcDbLine
 10
2384.3040959
 20
-1717.2345513
 30
0.0
 11
2383.96609936
 21
-1717.84340458
 31
0.0
  0
LINE
  5
2AD
100
AcDbEntity
  8
Sc.1_5
 62
     9
  6
CONTINUOUS
370
    -2
100
AcDbLine
 10
2379.68529334
 20
-1719.90121824
 30
0.0
 11
2379.3472968
 21
-1720.51007153
 31
0.0
  0
LINE
  5
2AE
100
AcDbEntity
  8
Sc.1_5
 62
     9
  6
CONTINUOUS
370
    -2
100
AcDbLine
 10
2375.06649078
 20
-1722.56788518
 30
0.0
 11
2374.72849424
 21
-1723.17673847
 31
0.0
  0
LINE
  5
2AF
100
AcDbEntity
  8
Sc.1_5
 62
     9
  6
CONTINUOUS
370
    -2
100
AcDbLine
 10
2370.44768822
 20
-1725.23455213
 30
0.0
 11
2370.10969167
 21
-1725.84340541
 31
0.0
  0
LINE
  5
2B0
100
AcDbEntity
  8
Sc.1_5
 62
     9
  6
CONTINUOUS
370
    -2
100
AcDbLine
 10
2365.82888565
 20
-1727.90121907
 30
0.0
 11
2365.49088911
 21
-1728.51007236
 31
0.0
  0
LINE
  5
2B1
100
AcDbEntity
  8
Sc.1_5
 62
     9
  6
CONTINUOUS
370
    -2
100
AcDbLine
 10
2361.21008309
 20
-1730.56788602
 30
0.0
 11
2360.87208655
 21
-1731.1767393
 31
0.0
  0
LINE
  5
2B2
100
AcDbEntity
  8
Sc.1_5
 62
     9
  6
CONTINUOUS
370
    -2
100
AcDbLine
 10
2356.59128053
 20
-1733.23455296
 30
0.0
 11
2356.25328399
 21
-1733.84340624
 31
0.0
  0
LINE
  5
2B3
100
AcDbEntity
  8
Sc.1_5
 62
     9
  6
CONTINUOUS
370
    -2
100
AcDbLine
 10
2413.85013309
 20
-1700.17613803
 30
0.0
 11
2414.54641377
 21
-1700.18785113
 31
0.0
  0
LINE
  5
2B4
100
AcDbEntity
  8
Sc.1_5
 62
     9
  6
CONTINUOUS
370
    -2
100
AcDbLine
 10
2409.23133032
 20
-1702.84280461
 30
0.0
 11
2409.927611
 21
-1702.85451771
 31
0.0
  0
LINE
  5
2B5
100
AcDbEntity
  8
Sc.1_5
 62
     9
  6
CONTINUOUS
370
    -2
100
AcDbLine
 10
2404.61252754
 20
-1705.50947118
 30
0.0
 11
2405.30880822
 21
-1705.52118428
 31
0.0
  0
LINE
  5
2B6
100
AcDbEntity
  8
Sc.1_5
 62
     9
  6
CONTINUOUS
370
    -2
100
AcDbLine
 10
2399.99372477
 20
-1708.17613776
 30
0.0
 11
2400.69000545
 21
-1708.18785086
 31
0.0
  0
LINE
  5
2B7
100
AcDbEntity
  8
Sc.1_5
 62
     9
  6
CONTINUOUS
370
    -2
100
AcDbLine
 10
2395.37492199
 20
-1710.84280433
 30
0.0
 11
2396.07120267
 21
-1710.85451743
 31
0.0
  0
LINE
  5
2B8
100
AcDbEntity
  8
Sc.1_5
 62
     9
  6
CONTINUOUS
370
    -2
100
AcDbLine
 10
2390.75611922
 20
-1713.50947091
 30
0.0
 11
2391.4523999
 21
-1713.52118401
 31
0.0
  0
LINE
  5
2B9
100
AcDbEntity
  8
Sc.1_5
 62
     9
  6
CONTINUOUS
370
    -2
100
AcDbLine
 10
2386.13731644
 20
-1716.17613748
 30
0.0
 11
2386.83359712
 21
-1716.18785058
 31
0.0
  0
LINE
  5
2BA
100
AcDbEntity
  8
Sc.1_5
 62
     9
  6
CONTINUOUS
370
    -2
100
AcDbLine
 10
2381.51851367
 20
-1718.84280406
 30
0.0
 11
2382.21479435
 21
-1718.85451715
 31
0.0
  0
LINE
  5
2BB
100
AcDbEntity
  8
Sc.1_5
 62
     9
  6
CONTINUOUS
370
    -2
100
AcDbLine
 10
2376.89971089
 20
-1721.50947063
 30
0.0
 11
2377.59599157
 21
-1721.52118373
 31
0.0
  0
LINE
  5
2BC
100
AcDbEntity
  8
Sc.1_5
 62
     9
  6
CONTINUOUS
370
    -2
100
AcDbLine
 10
2372.28090812
 20
-1724.17613721
 30
0.0
 11
2372.9771888
 21
-1724.1878503
 31
0.0
  0
LINE
  5
2BD
100
AcDbEntity
  8
Sc.1_5
 62
     9
  6
CONTINUOUS
370
    -2
100
AcDbLine
 10
2367.66210534
 20
-1726.84280378
 30
0.0
 11
2368.35838602
 21
-1726.85451688
 31
0.0
  0
LINE
  5
2BE
100
AcDbEntity
  8
Sc.1_5
 62
     9
  6
CONTINUOUS
370
    -2
100
AcDbLine
 10
2363.04330256
 20
-1729.50947036
 30
0.0
 11
2363.73958325
 21
-1729.52118345
 31
0.0
  0
LINE
  5
2BF
100
AcDbEntity
  8
Sc.1_5
 62
     9
  6
CONTINUOUS
370
    -2
100
AcDbLine
 10
2358.42449979
 20
-1732.17613693
 30
0.0
 11
2359.12078047
 21
-1732.18785003
 31
0.0
  0
LINE
  5
2C0
100
AcDbEntity
  8
Sc.1_5
 62
     9
  6
CONTINUOUS
370
    -2
100
AcDbLine
 10
2424.30338926
 20
-1711.76198527
 30
0.0
 11
2423.96539271
 21
-1712.37083855
 31
0.0
  0
LINE
  5
2C1
100
AcDbEntity
  8
Sc.1_5
 62
     9
  6
CONTINUOUS
370
    -2
100
AcDbLine
 10
2419.68458669
 20
-1714.42865221
 30
0.0
 11
2419.34659015
 21
-1715.0375055
 31
0.0
  0
LINE
  5
2C2
100
AcDbEntity
  8
Sc.1_5
 62
     9
  6
CONTINUOUS
370
    -2
100
AcDbLine
 10
2415.06578413
 20
-1717.09531916
 30
0.0
 11
2414.72778759
 21
-1717.70417244
 31
0.0
  0
LINE
  5
2C3
100
AcDbEntity
  8
Sc.1_5
 62
     9
  6
CONTINUOUS
370
    -2
100
AcDbLine
 10
2410.44698157
 20
-1719.7619861
 30
0.0
 11
2410.10898503
 21
-1720.37083938
 31
0.0
  0
LINE
  5
2C4
100
AcDbEntity
  8
Sc.1_5
 62
     9
  6
CONTINUOUS
370
    -2
100
AcDbLine
 10
2405.82817901
 20
-1722.42865304
 30
0.0
 11
2405.49018246
 21
-1723.03750633
 31
0.0
  0
LINE
  5
2C5
100
AcDbEntity
  8
Sc.1_5
 62
     9
  6
CONTINUOUS
370
    -2
100
AcDbLine
 10
2401.20937644
 20
-1725.09531999
 30
0.0
 11
2400.8713799
 21
-1725.70417327
 31
0.0
  0
LINE
  5
2C6
100
AcDbEntity
  8
Sc.1_5
 62
     9
  6
CONTINUOUS
370
    -2
100
AcDbLine
 10
2396.59057388
 20
-1727.76198693
 30
0.0
 11
2396.25257734
 21
-1728.37084022
 31
0.0
  0
LINE
  5
2C7
100
AcDbEntity
  8
Sc.1_5
 62
     9
  6
CONTINUOUS
370
    -2
100
AcDbLine
 10
2391.97177132
 20
-1730.42865387
 30
0.0
 11
2391.63377478
 21
-1731.03750716
 31
0.0
  0
LINE
  5
2C8
100
AcDbEntity
  8
Sc.1_5
 62
     9
  6
CONTINUOUS
370
    -2
100
AcDbLine
 10
2387.35296876
 20
-1733.09532082
 30
0.0
 11
2387.01497222
 21
-1733.7041741
 31
0.0
  0
LINE
  5
2C9
100
AcDbEntity
  8
Sc.1_5
 62
     9
  6
CONTINUOUS
370
    -2
100
AcDbLine
 10
2382.7341662
 20
-1735.76198776
 30
0.0
 11
2382.39616965
 21
-1736.37084105
 31
0.0
  0
LINE
  5
2CA
100
AcDbEntity
  8
Sc.1_5
 62
     9
  6
CONTINUOUS
370
    -2
100
AcDbLine
 10
2378.11536363
 20
-1738.42865471
 30
0.0
 11
2377.77736709
 21
-1739.03750799
 31
0.0
  0
LINE
  5
2CB
100
AcDbEntity
  8
Sc.1_5
 62
     9
  6
CONTINUOUS
370
    -2
100
AcDbLine
 10
2373.49656107
 20
-1741.09532165
 30
0.0
 11
2373.15856453
 21
-1741.70417493
 31
0.0
  0
LINE
  5
2CC
100
AcDbEntity
  8
Sc.1_5
 62
     9
  6
CONTINUOUS
370
    -2
100
AcDbLine
 10
2368.87775851
 20
-1743.76198859
 30
0.0
 11
2368.53976197
 21
-1744.37084188
 31
0.0
  0
LINE
  5
2CD
100
AcDbEntity
  8
Sc.1_5
 62
     9
  6
CONTINUOUS
370
    -2
100
AcDbLine
 10
2364.25895595
 20
-1746.42865554
 30
0.0
 11
2363.9209594
 21
-1747.03750882
 31
0.0
  0
LINE
  5
2CE
100
AcDbEntity
  8
Sc.1_5
 62
     9
  6
CONTINUOUS
370
    -2
100
AcDbLine
 10
2366.70995674
 20
-1745.42728104
 30
0.0
 11
2366.01367606
 21
-1745.41556799
 31
0.0
  0
LINE
  5
2CF
100
AcDbEntity
  8
Sc.1_5
 62
     9
  6
CONTINUOUS
370
    -2
100
AcDbLine
 10
2371.32875934
 20
-1742.76061416
 30
0.0
 11
2370.63247865
 21
-1742.74890111
 31
0.0
  0
LINE
  5
2D0
100
AcDbEntity
  8
Sc.1_5
 62
     9
  6
CONTINUOUS
370
    -2
100
AcDbLine
 10
2375.94756193
 20
-1740.09394727
 30
0.0
 11
2375.25128125
 21
-1740.08223422
 31
0.0
  0
LINE
  5
2D1
100
AcDbEntity
  8
Sc.1_5
 62
     9
  6
CONTINUOUS
370
    -2
100
AcDbLine
 10
2380.56636453
 20
-1737.42728039
 30
0.0
 11
2379.87008385
 21
-1737.41556734
 31
0.0
  0
LINE
  5
2D2
100
AcDbEntity
  8
Sc.1_5
 62
     9
  6
CONTINUOUS
370
    -2
100
AcDbLine
 10
2385.18516713
 20
-1734.76061351
 30
0.0
 11
2384.48888645
 21
-1734.74890046
 31
0.0
  0
LINE
  5
2D3
100
AcDbEntity
  8
Sc.1_5
 62
     9
  6
CONTINUOUS
370
    -2
100
AcDbLine
 10
2389.80396973
 20
-1732.09394663
 30
0.0
 11
2389.10768904
 21
-1732.08223358
 31
0.0
  0
LINE
  5
2D4
100
AcDbEntity
  8
Sc.1_5
 62
     9
  6
CONTINUOUS
370
    -2
100
AcDbLine
 10
2394.42277232
 20
-1729.42727974
 30
0.0
 11
2393.72649164
 21
-1729.41556669
 31
0.0
  0
LINE
  5
2D5
100
AcDbEntity
  8
Sc.1_5
 62
     9
  6
CONTINUOUS
370
    -2
100
AcDbLine
 10
2399.04157492
 20
-1726.76061286
 30
0.0
 11
2398.34529424
 21
-1726.74889981
 31
0.0
  0
LINE
  5
2D6
100
AcDbEntity
  8
Sc.1_5
 62
     9
  6
CONTINUOUS
370
    -2
100
AcDbLine
 10
2403.66037752
 20
-1724.09394598
 30
0.0
 11
2402.96409684
 21
-1724.08223293
 31
0.0
  0
LINE
  5
2D7
100
AcDbEntity
  8
Sc.1_5
 62
     9
  6
CONTINUOUS
370
    -2
100
AcDbLine
 10
2408.27918012
 20
-1721.4272791
 30
0.0
 11
2407.58289944
 21
-1721.41556605
 31
0.0
  0
LINE
  5
2D8
100
AcDbEntity
  8
Sc.1_5
 62
     9
  6
CONTINUOUS
370
    -2
100
AcDbLine
 10
2412.89798271
 20
-1718.76061222
 30
0.0
 11
2412.20170203
 21
-1718.74889917
 31
0.0
  0
LINE
  5
2D9
100
AcDbEntity
  8
Sc.1_5
 62
     9
  6
CONTINUOUS
370
    -2
100
AcDbLine
 10
2417.51678531
 20
-1716.09394533
 30
0.0
 11
2416.82050463
 21
-1716.08223228
 31
0.0
  0
LINE
  5
2DA
100
AcDbEntity
  8
Sc.1_5
 62
     9
  6
CONTINUOUS
370
    -2
100
AcDbLine
 10
2422.13558791
 20
-1713.42727845
 30
0.0
 11
2421.43930723
 21
-1713.4155654
 31
0.0
  0
LINE
  5
2DB
100
AcDbEntity
  8
Sc.1_5
 62
     9
  6
CONTINUOUS
370
    -2
100
AcDbLine
 10
2416.29771855
 20
-1699.17673603
 30
0.0
 11
2416.14444425
 21
-1699.74876348
 31
0.0
  0
LINE
  5
2DC
100
AcDbEntity
  8
Sc.1_5
 62
     9
  6
CONTINUOUS
370
    -2
100
AcDbLine
 10
2411.67891555
 20
-1701.84340319
 30
0.0
 11
2411.52564125
 21
-1702.41543063
 31
0.0
  0
LINE
  5
2DD
100
AcDbEntity
  8
Sc.1_5
 62
     9
  6
CONTINUOUS
370
    -2
100
AcDbLine
 10
2407.06011255
 20
-1704.51007034
 30
0.0
 11
2406.90683825
 21
-1705.08209779
 31
0.0
  0
LINE
  5
2DE
100
AcDbEntity
  8
Sc.1_5
 62
     9
  6
CONTINUOUS
370
    -2
100
AcDbLine
 10
2402.44130955
 20
-1707.1767375
 30
0.0
 11
2402.28803526
 21
-1707.74876494
 31
0.0
  0
LINE
  5
2DF
100
AcDbEntity
  8
Sc.1_5
 62
     9
  6
CONTINUOUS
370
    -2
100
AcDbLine
 10
2397.82250655
 20
-1709.84340465
 30
0.0
 11
2397.66923226
 21
-1710.4154321
 31
0.0
  0
LINE
  5
2E0
100
AcDbEntity
  8
Sc.1_5
 62
     9
  6
CONTINUOUS
370
    -2
100
AcDbLine
 10
2393.20370355
 20
-1712.51007181
 30
0.0
 11
2393.05042926
 21
-1713.08209926
 31
0.0
  0
LINE
  5
2E1
100
AcDbEntity
  8
Sc.1_5
 62
     9
  6
CONTINUOUS
370
    -2
100
AcDbLine
 10
2388.58490055
 20
-1715.17673896
 30
0.0
 11
2388.43162626
 21
-1715.74876641
 31
0.0
  0
LINE
  5
2E2
100
AcDbEntity
  8
Sc.1_5
 62
     9
  6
CONTINUOUS
370
    -2
100
AcDbLine
 10
2383.96609755
 20
-1717.84340612
 30
0.0
 11
2383.81282326
 21
-1718.41543357
 31
0.0
  0
LINE
  5
2E3
100
AcDbEntity
  8
Sc.1_5
 62
     9
  6
CONTINUOUS
370
    -2
100
AcDbLine
 10
2379.34729455
 20
-1720.51007327
 30
0.0
 11
2379.19402026
 21
-1721.08210072
 31
0.0
  0
LINE
  5
2E4
100
AcDbEntity
  8
Sc.1_5
 62
     9
  6
CONTINUOUS
370
    -2
100
AcDbLine
 10
2374.72849155
 20
-1723.17674043
 30
0.0
 11
2374.57521726
 21
-1723.74876788
 31
0.0
  0
LINE
  5
2E5
100
AcDbEntity
  8
Sc.1_5
 62
     9
  6
CONTINUOUS
370
    -2
100
AcDbLine
 10
2370.10968855
 20
-1725.84340758
 30
0.0
 11
2369.95641426
 21
-1726.41543503
 31
0.0
  0
LINE
  5
2E6
100
AcDbEntity
  8
Sc.1_5
 62
     9
  6
CONTINUOUS
370
    -2
100
AcDbLine
 10
2365.49088555
 20
-1728.51007474
 30
0.0
 11
2365.33761126
 21
-1729.08210219
 31
0.0
  0
LINE
  5
2E7
100
AcDbEntity
  8
Sc.1_5
 62
     9
  6
CONTINUOUS
370
    -2
100
AcDbLine
 10
2360.87208255
 20
-1731.17674189
 30
0.0
 11
2360.71880826
 21
-1731.74876934
 31
0.0
  0
LINE
  5
2E8
100
AcDbEntity
  8
Sc.1_5
 62
     9
  6
CONTINUOUS
370
    -2
100
AcDbLine
 10
2356.25327955
 20
-1733.84340905
 30
0.0
 11
2356.14168318
 21
-1734.25989239
 31
0.0
  0
LINE
  5
2E9
100
AcDbEntity
  8
Sc.1_5
 62
     9
  6
CONTINUOUS
370
    -2
100
AcDbLine
 10
2414.54299603
 20
-1700.18982555
 30
0.0
 11
2415.11502348
 21
-1700.34309984
 31
0.0
  0
LINE
  5
2EA
100
AcDbEntity
  8
Sc.1_5
 62
     9
  6
CONTINUOUS
370
    -2
100
AcDbLine
 10
2409.92419303
 20
-1702.8564927
 30
0.0
 11
2410.49622048
 21
-1703.009767
 31
0.0
  0
LINE
  5
2EB
100
AcDbEntity
  8
Sc.1_5
 62
     9
  6
CONTINUOUS
370
    -2
100
AcDbLine
 10
2405.30539003
 20
-1705.52315986
 30
0.0
 11
2405.87741748
 21
-1705.67643415
 31
0.0
  0
LINE
  5
2EC
100
AcDbEntity
  8
Sc.1_5
 62
     9
  6
CONTINUOUS
370
    -2
100
AcDbLine
 10
2400.68658703
 20
-1708.18982701
 30
0.0
 11
2401.25861448
 21
-1708.34310131
 31
0.0
  0
LINE
  5
2ED
100
AcDbEntity
  8
Sc.1_5
 62
     9
  6
CONTINUOUS
370
    -2
100
AcDbLine
 10
2396.06778403
 20
-1710.85649417
 30
0.0
 11
2396.63981148
 21
-1711.00976846
 31
0.0
  0
LINE
  5
2EE
100
AcDbEntity
  8
Sc.1_5
 62
     9
  6
CONTINUOUS
370
    -2
100
AcDbLine
 10
2391.44898103
 20
-1713.52316132
 30
0.0
 11
2392.02100848
 21
-1713.67643562
 31
0.0
  0
LINE
  5
2EF
100
AcDbEntity
  8
Sc.1_5
 62
     9
  6
CONTINUOUS
370
    -2
100
AcDbLine
 10
2386.83017803
 20
-1716.18982848
 30
0.0
 11
2387.40220548
 21
-1716.34310277
 31
0.0
  0
LINE
  5
2F0
100
AcDbEntity
  8
Sc.1_5
 62
     9
  6
CONTINUOUS
370
    -2
100
AcDbLine
 10
2382.21137503
 20
-1718.85649563
 30
0.0
 11
2382.78340248
 21
-1719.00976993
 31
0.0
  0
LINE
  5
2F1
100
AcDbEntity
  8
Sc.1_5
 62
     9
  6
CONTINUOUS
370
    -2
100
AcDbLine
 10
2377.59257203
 20
-1721.52316279
 30
0.0
 11
2378.16459948
 21
-1721.67643708
 31
0.0
  0
LINE
  5
2F2
100
AcDbEntity
  8
Sc.1_5
 62
     9
  6
CONTINUOUS
370
    -2
100
AcDbLine
 10
2372.97376903
 20
-1724.18982994
 30
0.0
 11
2373.54579648
 21
-1724.34310424
 31
0.0
  0
LINE
  5
2F3
100
AcDbEntity
  8
Sc.1_5
 62
     9
  6
CONTINUOUS
370
    -2
100
AcDbLine
 10
2368.35496603
 20
-1726.8564971
 30
0.0
 11
2368.92699348
 21
-1727.00977139
 31
0.0
  0
LINE
  5
2F4
100
AcDbEntity
  8
Sc.1_5
 62
     9
  6
CONTINUOUS
370
    -2
100
AcDbLine
 10
2363.73616303
 20
-1729.52316426
 30
0.0
 11
2364.30819048
 21
-1729.67643855
 31
0.0
  0
LINE
  5
2F5
100
AcDbEntity
  8
Sc.1_5
 62
     9
  6
CONTINUOUS
370
    -2
100
AcDbLine
 10
2359.11736003
 20
-1732.18983141
 30
0.0
 11
2359.68938748
 21
-1732.3431057
 31
0.0
  0
LINE
  5
2F6
100
AcDbEntity
  8
Sc.1_5
 62
     9
  6
CONTINUOUS
370
    -2
100
AcDbLine
 10
2424.45666341
 20
-1711.18995978
 30
0.0
 11
2424.30338912
 21
-1711.76198722
 31
0.0
  0
LINE
  5
2F7
100
AcDbEntity
  8
Sc.1_5
 62
     9
  6
CONTINUOUS
370
    -2
100
AcDbLine
 10
2419.83786041
 20
-1713.85662693
 30
0.0
 11
2419.68458612
 21
-1714.42865438
 31
0.0
  0
LINE
  5
2F8
100
AcDbEntity
  8
Sc.1_5
 62
     9
  6
CONTINUOUS
370
    -2
100
AcDbLine
 10
2415.21905741
 20
-1716.52329409
 30
0.0
 11
2415.06578312
 21
-1717.09532154
 31
0.0
  0
LINE
  5
2F9
100
AcDbEntity
  8
Sc.1_5
 62
     9
  6
CONTINUOUS
370
    -2
100
AcDbLine
 10
2410.60025441
 20
-1719.18996124
 30
0.0
 11
2410.44698012
 21
-1719.76198869
 31
0.0
  0
LINE
  5
2FA
100
AcDbEntity
  8
Sc.1_5
 62
     9
  6
CONTINUOUS
370
    -2
100
AcDbLine
 10
2405.98145141
 20
-1721.8566284
 30
0.0
 11
2405.82817712
 21
-1722.42865585
 31
0.0
  0
LINE
  5
2FB
100
AcDbEntity
  8
Sc.1_5
 62
     9
  6
CONTINUOUS
370
    -2
100
AcDbLine
 10
2401.36264841
 20
-1724.52329555
 30
0.0
 11
2401.20937412
 21
-1725.095323
 31
0.0
  0
LINE
  5
2FC
100
AcDbEntity
  8
Sc.1_5
 62
     9
  6
CONTINUOUS
370
    -2
100
AcDbLine
 10
2396.74384541
 20
-1727.18996271
 30
0.0
 11
2396.59057112
 21
-1727.76199016
 31
0.0
  0
LINE
  5
2FD
100
AcDbEntity
  8
Sc.1_5
 62
     9
  6
CONTINUOUS
370
    -2
100
AcDbLine
 10
2392.12504241
 20
-1729.85662986
 30
0.0
 11
2391.97176812
 21
-1730.42865731
 31
0.0
  0
LINE
  5
2FE
100
AcDbEntity
  8
Sc.1_5
 62
     9
  6
CONTINUOUS
370
    -2
100
AcDbLine
 10
2387.50623941
 20
-1732.52329702
 30
0.0
 11
2387.35296512
 21
-1733.09532447
 31
0.0
  0
LINE
  5
2FF
100
AcDbEntity
  8
Sc.1_5
 62
     9
  6
CONTINUOUS
370
    -2
100
AcDbLine
 10
2382.88743641
 20
-1735.18996417
 30
0.0
 11
2382.73416212
 21
-1735.76199162
 31
0.0
  0
LINE
  5
300
100
AcDbEntity
  8
Sc.1_5
 62
     9
  6
CONTINUOUS
370
    -2
100
AcDbLine
 10
2378.26863341
 20
-1737.85663133
 30
0.0
 11
2378.11535912
 21
-1738.42865878
 31
0.0
  0
LINE
  5
301
100
AcDbEntity
  8
Sc.1_5
 62
     9
  6
CONTINUOUS
370
    -2
100
AcDbLine
 10
2373.64983041
 20
-1740.52329848
 30
0.0
 11
2373.49655612
 21
-1741.09532593
 31
0.0
  0
LINE
  5
302
100
AcDbEntity
  8
Sc.1_5
 62
     9
  6
CONTINUOUS
370
    -2
100
AcDbLine
 10
2369.03102741
 20
-1743.18996564
 30
0.0
 11
2368.87775312
 21
-1743.76199309
 31
0.0
  0
LINE
  5
303
100
AcDbEntity
  8
Sc.1_5
 62
     9
  6
CONTINUOUS
370
    -2
100
AcDbLine
 10
2364.41222441
 20
-1745.8566328
 30
0.0
 11
2364.25895012
 21
-1746.42866024
 31
0.0
  0
LINE
  5
304
100
AcDbEntity
  8
Sc.1_5
 62
     9
  6
CONTINUOUS
370
    -2
100
AcDbLine
 10
2366.01367129
 20
-1745.41556963
 30
0.0
 11
2365.44164384
 21
-1745.26229534
 31
0.0
  0
LINE
  5
305
100
AcDbEntity
  8
Sc.1_5
 62
     9
  6
CONTINUOUS
370
    -2
100
AcDbLine
 10
2370.63247429
 20
-1742.74890247
 30
0.0
 11
2370.06044684
 21
-1742.59562818
 31
0.0
  0
LINE
  5
306
100
AcDbEntity
  8
Sc.1_5
 62
     9
  6
CONTINUOUS
370
    -2
100
AcDbLine
 10
2375.25127729
 20
-1740.08223532
 30
0.0
 11
2374.67924984
 21
-1739.92896103
 31
0.0
  0
LINE
  5
307
100
AcDbEntity
  8
Sc.1_5
 62
     9
  6
CONTINUOUS
370
    -2
100
AcDbLine
 10
2379.87008029
 20
-1737.41556816
 30
0.0
 11
2379.29805284
 21
-1737.26229387
 31
0.0
  0
LINE
  5
308
100
AcDbEntity
  8
Sc.1_5
 62
     9
  6
CONTINUOUS
370
    -2
100
AcDbLine
 10
2384.48888329
 20
-1734.74890101
 30
0.0
 11
2383.91685584
 21
-1734.59562672
 31
0.0
  0
LINE
  5
309
100
AcDbEntity
  8
Sc.1_5
 62
     9
  6
CONTINUOUS
370
    -2
100
AcDbLine
 10
2389.10768629
 20
-1732.08223385
 30
0.0
 11
2388.53565884
 21
-1731.92895956
 31
0.0
  0
LINE
  5
30A
100
AcDbEntity
  8
Sc.1_5
 62
     9
  6
CONTINUOUS
370
    -2
100
AcDbLine
 10
2393.72648929
 20
-1729.4155667
 30
0.0
 11
2393.15446184
 21
-1729.26229241
 31
0.0
  0
LINE
  5
30B
100
AcDbEntity
  8
Sc.1_5
 62
     9
  6
CONTINUOUS
370
    -2
100
AcDbLine
 10
2398.34529229
 20
-1726.74889954
 30
0.0
 11
2397.77326484
 21
-1726.59562525
 31
0.0
  0
LINE
  5
30C
100
AcDbEntity
  8
Sc.1_5
 62
     9
  6
CONTINUOUS
370
    -2
100
AcDbLine
 10
2402.96409529
 20
-1724.08223239
 30
0.0
 11
2402.39206784
 21
-1723.92895809
 31
0.0
  0
LINE
  5
30D
100
AcDbEntity
  8
Sc.1_5
 62
     9
  6
CONTINUOUS
370
    -2
100
AcDbLine
 10
2407.58289829
 20
-1721.41556523
 30
0.0
 11
2407.01087084
 21
-1721.26229094
 31
0.0
  0
LINE
  5
30E
100
AcDbEntity
  8
Sc.1_5
 62
     9
  6
CONTINUOUS
370
    -2
100
AcDbLine
 10
2412.20170128
 20
-1718.74889808
 30
0.0
 11
2411.62967384
 21
-1718.59562378
 31
0.0
  0
LINE
  5
30F
100
AcDbEntity
  8
Sc.1_5
 62
     9
  6
CONTINUOUS
370
    -2
100
AcDbLine
 10
2416.82050428
 20
-1716.08223092
 30
0.0
 11
2416.24847684
 21
-1715.92895663
 31
0.0
  0
LINE
  5
310
100
AcDbEntity
  8
Sc.1_5
 62
     9
  6
CONTINUOUS
370
    -2
100
AcDbLine
 10
2421.43930728
 20
-1713.41556377
 30
0.0
 11
2420.86727984
 21
-1713.26228947
 31
0.0
  0
LINE
  5
311
100
AcDbEntity
  8
Sc.1_5
 62
     9
  6
CONTINUOUS
370
    -2
100
AcDbLine
 10
2416.14444327
 20
-1699.74876272
 30
0.0
 11
2416.10446543
 21
-1700.36864134
 31
0.0
  0
LINE
  5
312
100
AcDbEntity
  8
Sc.1_5
 62
     9
  6
CONTINUOUS
370
    -2
100
AcDbLine
 10
2411.52564112
 20
-1702.41543009
 30
0.0
 11
2411.48566327
 21
-1703.03530871
 31
0.0
  0
LINE
  5
313
100
AcDbEntity
  8
Sc.1_5
 62
     9
  6
CONTINUOUS
370
    -2
100
AcDbLine
 10
2406.90683896
 20
-1705.08209745
 30
0.0
 11
2406.86686112
 21
-1705.70197607
 31
0.0
  0
LINE
  5
314
100
AcDbEntity
  8
Sc.1_5
 62
     9
  6
CONTINUOUS
370
    -2
100
AcDbLine
 10
2402.28803681
 20
-1707.74876481
 30
0.0
 11
2402.24805897
 21
-1708.36864344
 31
0.0
  0
LINE
  5
315
100
AcDbEntity
  8
Sc.1_5
 62
     9
  6
CONTINUOUS
370
    -2
100
AcDbLine
 10
2397.66923466
 20
-1710.41543218
 30
0.0
 11
2397.62925681
 21
-1711.0353108
 31
0.0
  0
LINE
  5
316
100
AcDbEntity
  8
Sc.1_5
 62
     9
  6
CONTINUOUS
370
    -2
100
AcDbLine
 10
2393.0504325
 20
-1713.08209954
 30
0.0
 11
2393.01045466
 21
-1713.70197816
 31
0.0
  0
LINE
  5
317
100
AcDbEntity
  8
Sc.1_5
 62
     9
  6
CONTINUOUS
370
    -2
100
AcDbLine
 10
2388.43163035
 20
-1715.74876691
 30
0.0
 11
2388.39165251
 21
-1716.36864553
 31
0.0
  0
LINE
  5
318
100
AcDbEntity
  8
Sc.1_5
 62
     9
  6
CONTINUOUS
370
    -2
100
AcDbLine
 10
2383.8128282
 20
-1718.41543427
 30
0.0
 11
2383.77285035
 21
-1719.03531289
 31
0.0
  0
LINE
  5
319
100
AcDbEntity
  8
Sc.1_5
 62
     9
  6
CONTINUOUS
370
    -2
100
AcDbLine
 10
2379.19402604
 20
-1721.08210163
 30
0.0
 11
2379.1540482
 21
-1721.70198025
 31
0.0
  0
LINE
  5
31A
100
AcDbEntity
  8
Sc.1_5
 62
     9
  6
CONTINUOUS
370
    -2
100
AcDbLine
 10
2374.57522389
 20
-1723.748769
 30
0.0
 11
2374.53524605
 21
-1724.36864762
 31
0.0
  0
LINE
  5
31B
100
AcDbEntity
  8
Sc.1_5
 62
     9
  6
CONTINUOUS
370
    -2
100
AcDbLine
 10
2369.95642173
 20
-1726.41543636
 30
0.0
 11
2369.91644389
 21
-1727.03531498
 31
0.0
  0
LINE
  5
31C
100
AcDbEntity
  8
Sc.1_5
 62
     9
  6
CONTINUOUS
370
    -2
100
AcDbLine
 10
2365.33761958
 20
-1729.08210373
 30
0.0
 11
2365.29764174
 21
-1729.70198235
 31
0.0
  0
LINE
  5
31D
100
AcDbEntity
  8
Sc.1_5
 62
     9
  6
CONTINUOUS
370
    -2
100
AcDbLine
 10
2360.71881743
 20
-1731.74877109
 30
0.0
 11
2360.67883958
 21
-1732.36864971
 31
0.0
  0
LINE
  5
31E
100
AcDbEntity
  8
Sc.1_5
 62
     9
  6
CONTINUOUS
370
    -2
100
AcDbLine
 10
2415.11502338
 20
-1700.34309747
 30
0.0
 11
2415.67184292
 21
-1700.61841499
 31
0.0
  0
LINE
  5
31F
100
AcDbEntity
  8
Sc.1_5
 62
     9
  6
CONTINUOUS
370
    -2
100
AcDbLine
 10
2410.49622045
 20
-1703.00976348
 30
0.0
 11
2411.05303998
 21
-1703.285081
 31
0.0
  0
LINE
  5
320
100
AcDbEntity
  8
Sc.1_5
 62
     9
  6
CONTINUOUS
370
    -2
100
AcDbLine
 10
2405.87741751
 20
-1705.67642949
 30
0.0
 11
2406.43423705
 21
-1705.95174701
 31
0.0
  0
LINE
  5
321
100
AcDbEntity
  8
Sc.1_5
 62
     9
  6
CONTINUOUS
370
    -2
100
AcDbLine
 10
2401.25861458
 20
-1708.3430955
 30
0.0
 11
2401.81543411
 21
-1708.61841302
 31
0.0
  0
LINE
  5
322
100
AcDbEntity
  8
Sc.1_5
 62
     9
  6
CONTINUOUS
370
    -2
100
AcDbLine
 10
2396.63981164
 20
-1711.00976151
 30
0.0
 11
2397.19663118
 21
-1711.28507903
 31
0.0
  0
LINE
  5
323
100
AcDbEntity
  8
Sc.1_5
 62
     9
  6
CONTINUOUS
370
    -2
100
AcDbLine
 10
2392.02100871
 20
-1713.67642752
 30
0.0
 11
2392.57782824
 21
-1713.95174504
 31
0.0
  0
LINE
  5
324
100
AcDbEntity
  8
Sc.1_5
 62
     9
  6
CONTINUOUS
370
    -2
100
AcDbLine
 10
2387.40220577
 20
-1716.34309353
 30
0.0
 11
2387.95902531
 21
-1716.61841105
 31
0.0
  0
LINE
  5
325
100
AcDbEntity
  8
Sc.1_5
 62
     9
  6
CONTINUOUS
370
    -2
100
AcDbLine
 10
2382.78340284
 20
-1719.00975954
 30
0.0
 11
2383.34022238
 21
-1719.28507706
 31
0.0
  0
LINE
  5
326
100
AcDbEntity
  8
Sc.1_5
 62
     9
  6
CONTINUOUS
370
    -2
100
AcDbLine
 10
2378.1645999
 20
-1721.67642555
 30
0.0
 11
2378.72141944
 21
-1721.95174307
 31
0.0
  0
LINE
  5
327
100
AcDbEntity
  8
Sc.1_5
 62
     9
  6
CONTINUOUS
370
    -2
100
AcDbLine
 10
2373.54579697
 20
-1724.34309156
 30
0.0
 11
2374.10261651
 21
-1724.61840908
 31
0.0
  0
LINE
  5
328
100
AcDbEntity
  8
Sc.1_5
 62
     9
  6
CONTINUOUS
370
    -2
100
AcDbLine
 10
2368.92699403
 20
-1727.00975757
 30
0.0
 11
2369.48381357
 21
-1727.28507509
 31
0.0
  0
LINE
  5
329
100
AcDbEntity
  8
Sc.1_5
 62
     9
  6
CONTINUOUS
370
    -2
100
AcDbLine
 10
2364.3081911
 20
-1729.67642358
 30
0.0
 11
2364.86501064
 21
-1729.9517411
 31
0.0
  0
LINE
  5
32A
100
AcDbEntity
  8
Sc.1_5
 62
     9
  6
CONTINUOUS
370
    -2
100
AcDbLine
 10
2359.68938816
 20
-1732.34308959
 30
0.0
 11
2360.2462077
 21
-1732.61840711
 31
0.0
  0
LINE
  5
32B
100
AcDbEntity
  8
Sc.1_5
 62
     9
  6
CONTINUOUS
370
    -2
100
AcDbLine
 10
2424.49664116
 20
-1710.57008011
 30
0.0
 11
2424.45666332
 21
-1711.18995873
 31
0.0
  0
LINE
  5
32C
100
AcDbEntity
  8
Sc.1_5
 62
     9
  6
CONTINUOUS
370
    -2
100
AcDbLine
 10
2419.87783901
 20
-1713.23674748
 30
0.0
 11
2419.83786117
 21
-1713.8566261
 31
0.0
  0
LINE
  5
32D
100
AcDbEntity
  8
Sc.1_5
 62
     9
  6
CONTINUOUS
370
    -2
100
AcDbLine
 10
2415.25903685
 20
-1715.90341484
 30
0.0
 11
2415.21905901
 21
-1716.52329346
 31
0.0
  0
LINE
  5
32E
100
AcDbEntity
  8
Sc.1_5
 62
     9
  6
CONTINUOUS
370
    -2
100
AcDbLine
 10
2410.6402347
 20
-1718.5700822
 30
0.0
 11
2410.60025686
 21
-1719.18996083
 31
0.0
  0
LINE
  5
32F
100
AcDbEntity
  8
Sc.1_5
 62
     9
  6
CONTINUOUS
370
    -2
100
AcDbLine
 10
2406.02143255
 20
-1721.23674957
 30
0.0
 11
2405.9814547
 21
-1721.85662819
 31
0.0
  0
LINE
  5
330
100
AcDbEntity
  8
Sc.1_5
 62
     9
  6
CONTINUOUS
370
    -2
100
AcDbLine
 10
2401.40263039
 20
-1723.90341693
 30
0.0
 11
2401.36265255
 21
-1724.52329555
 31
0.0
  0
LINE
  5
331
100
AcDbEntity
  8
Sc.1_5
 62
     9
  6
CONTINUOUS
370
    -2
100
AcDbLine
 10
2396.78382824
 20
-1726.5700843
 30
0.0
 11
2396.7438504
 21
-1727.18996292
 31
0.0
  0
LINE
  5
332
100
AcDbEntity
  8
Sc.1_5
 62
     9
  6
CONTINUOUS
370
    -2
100
AcDbLine
 10
2392.16502609
 20
-1729.23675166
 30
0.0
 11
2392.12504824
 21
-1729.85663028
 31
0.0
  0
LINE
  5
333
100
AcDbEntity
  8
Sc.1_5
 62
     9
  6
CONTINUOUS
370
    -2
100
AcDbLine
 10
2387.54622393
 20
-1731.90341902
 30
0.0
 11
2387.50624609
 21
-1732.52329765
 31
0.0
  0
LINE
  5
334
100
AcDbEntity
  8
Sc.1_5
 62
     9
  6
CONTINUOUS
370
    -2
100
AcDbLine
 10
2382.92742178
 20
-1734.57008639
 30
0.0
 11
2382.88744394
 21
-1735.18996501
 31
0.0
  0
LINE
  5
335
100
AcDbEntity
  8
Sc.1_5
 62
     9
  6
CONTINUOUS
370
    -2
100
AcDbLine
 10
2378.30861963
 20
-1737.23675375
 30
0.0
 11
2378.26864178
 21
-1737.85663237
 31
0.0
  0
LINE
  5
336
100
AcDbEntity
  8
Sc.1_5
 62
     9
  6
CONTINUOUS
370
    -2
100
AcDbLine
 10
2373.68981747
 20
-1739.90342112
 30
0.0
 11
2373.64983963
 21
-1740.52329974
 31
0.0
  0
LINE
  5
337
100
AcDbEntity
  8
Sc.1_5
 62
     9
  6
CONTINUOUS
370
    -2
100
AcDbLine
 10
2369.07101532
 20
-1742.57008848
 30
0.0
 11
2369.03103748
 21
-1743.1899671
 31
0.0
  0
LINE
  5
338
100
AcDbEntity
  8
Sc.1_5
 62
     9
  6
CONTINUOUS
370
    -2
100
AcDbLine
 10
2364.45221317
 20
-1745.23675584
 30
0.0
 11
2364.41223532
 21
-1745.85663446
 31
0.0
  0
LINE
  5
339
100
AcDbEntity
  8
Sc.1_5
 62
     9
  6
CONTINUOUS
370
    -2
100
AcDbLine
 10
2365.44164731
 20
-1745.26228684
 30
0.0
 11
2364.88482776
 21
-1744.98696936
 31
0.0
  0
LINE
  5
33A
100
AcDbEntity
  8
Sc.1_5
 62
     9
  6
CONTINUOUS
370
    -2
100
AcDbLine
 10
2370.06045007
 20
-1742.59562052
 30
0.0
 11
2369.50363052
 21
-1742.32030304
 31
0.0
  0
LINE
  5
33B
100
AcDbEntity
  8
Sc.1_5
 62
     9
  6
CONTINUOUS
370
    -2
100
AcDbLine
 10
2374.67925283
 20
-1739.9289542
 30
0.0
 11
2374.12243327
 21
-1739.65363672
 31
0.0
  0
LINE
  5
33C
100
AcDbEntity
  8
Sc.1_5
 62
     9
  6
CONTINUOUS
370
    -2
100
AcDbLine
 10
2379.29805559
 20
-1737.26228788
 30
0.0
 11
2378.74123603
 21
-1736.9869704
 31
0.0
  0
LINE
  5
33D
100
AcDbEntity
  8
Sc.1_5
 62
     9
  6
CONTINUOUS
370
    -2
100
AcDbLine
 10
2383.91685834
 20
-1734.59562157
 30
0.0
 11
2383.36003879
 21
-1734.32030408
 31
0.0
  0
LINE
  5
33E
100
AcDbEntity
  8
Sc.1_5
 62
     9
  6
CONTINUOUS
370
    -2
100
AcDbLine
 10
2388.5356611
 20
-1731.92895525
 30
0.0
 11
2387.97884155
 21
-1731.65363777
 31
0.0
  0
LINE
  5
33F
100
AcDbEntity
  8
Sc.1_5
 62
     9
  6
CONTINUOUS
370
    -2
100
AcDbLine
 10
2393.15446386
 20
-1729.26228893
 30
0.0
 11
2392.5976443
 21
-1728.98697145
 31
0.0
  0
LINE
  5
340
100
AcDbEntity
  8
Sc.1_5
 62
     9
  6
CONTINUOUS
370
    -2
100
AcDbLine
 10
2397.77326662
 20
-1726.59562261
 30
0.0
 11
2397.21644706
 21
-1726.32030513
 31
0.0
  0
LINE
  5
341
100
AcDbEntity
  8
Sc.1_5
 62
     9
  6
CONTINUOUS
370
    -2
100
AcDbLine
 10
2402.39206937
 20
-1723.92895629
 30
0.0
 11
2401.83524982
 21
-1723.65363881
 31
0.0
  0
LINE
  5
342
100
AcDbEntity
  8
Sc.1_5
 62
     9
  6
CONTINUOUS
370
    -2
100
AcDbLine
 10
2407.01087213
 20
-1721.26228998
 30
0.0
 11
2406.45405258
 21
-1720.98697249
 31
0.0
  0
LINE
  5
343
100
AcDbEntity
  8
Sc.1_5
 62
     9
  6
CONTINUOUS
370
    -2
100
AcDbLine
 10
2411.62967489
 20
-1718.59562366
 30
0.0
 11
2411.07285533
 21
-1718.32030617
 31
0.0
  0
LINE
  5
344
100
AcDbEntity
  8
Sc.1_5
 62
     9
  6
CONTINUOUS
370
    -2
100
AcDbLine
 10
2416.24847764
 20
-1715.92895734
 30
0.0
 11
2415.69165809
 21
-1715.65363986
 31
0.0
  0
LINE
  5
345
100
AcDbEntity
  8
Sc.1_5
 62
     9
  6
CONTINUOUS
370
    -2
100
AcDbLine
 10
2420.8672804
 20
-1713.26229102
 30
0.0
 11
2420.31046085
 21
-1712.98697354
 31
0.0
  0
LINE
  5
346
100
AcDbEntity
  8
Sc.1_5
 62
     9
  6
CONTINUOUS
370
    -2
100
AcDbLine
 10
2416.10446499
 20
-1700.36864148
 30
0.0
 11
2416.26281558
 21
-1701.14246162
 31
0.0
  0
LINE
  5
347
100
AcDbEntity
  8
Sc.1_5
 62
     9
  6
CONTINUOUS
370
    -2
100
AcDbLine
 10
2411.48566234
 20
-1703.03530874
 30
0.0
 11
2411.64401293
 21
-1703.80912889
 31
0.0
  0
LINE
  5
348
100
AcDbEntity
  8
Sc.1_5
 62
     9
  6
CONTINUOUS
370
    -2
100
AcDbLine
 10
2406.86685969
 20
-1705.701976
 30
0.0
 11
2407.02521028
 21
-1706.47579615
 31
0.0
  0
LINE
  5
349
100
AcDbEntity
  8
Sc.1_5
 62
     9
  6
CONTINUOUS
370
    -2
100
AcDbLine
 10
2402.24805704
 20
-1708.36864326
 30
0.0
 11
2402.40640763
 21
-1709.14246341
 31
0.0
  0
LINE
  5
34A
100
AcDbEntity
  8
Sc.1_5
 62
     9
  6
CONTINUOUS
370
    -2
100
AcDbLine
 10
2397.62925439
 20
-1711.03531053
 30
0.0
 11
2397.78760498
 21
-1711.80913067
 31
0.0
  0
LINE
  5
34B
100
AcDbEntity
  8
Sc.1_5
 62
     9
  6
CONTINUOUS
370
    -2
100
AcDbLine
 10
2393.01045174
 20
-1713.70197779
 30
0.0
 11
2393.16880233
 21
-1714.47579793
 31
0.0
  0
LINE
  5
34C
100
AcDbEntity
  8
Sc.1_5
 62
     9
  6
CONTINUOUS
370
    -2
100
AcDbLine
 10
2388.39164909
 20
-1716.36864505
 30
0.0
 11
2388.54999968
 21
-1717.1424652
 31
0.0
  0
LINE
  5
34D
100
AcDbEntity
  8
Sc.1_5
 62
     9
  6
CONTINUOUS
370
    -2
100
AcDbLine
 10
2383.77284644
 20
-1719.03531231
 30
0.0
 11
2383.93119703
 21
-1719.80913246
 31
0.0
  0
LINE
  5
34E
100
AcDbEntity
  8
Sc.1_5
 62
     9
  6
CONTINUOUS
370
    -2
100
AcDbLine
 10
2379.1540438
 20
-1721.70197957
 30
0.0
 11
2379.31239438
 21
-1722.47579972
 31
0.0
  0
LINE
  5
34F
100
AcDbEntity
  8
Sc.1_5
 62
     9
  6
CONTINUOUS
370
    -2
100
AcDbLine
 10
2374.53524115
 20
-1724.36864683
 30
0.0
 11
2374.69359173
 21
-1725.14246698
 31
0.0
  0
LINE
  5
350
100
AcDbEntity
  8
Sc.1_5
 62
     9
  6
CONTINUOUS
370
    -2
100
AcDbLine
 10
2369.9164385
 20
-1727.0353141
 30
0.0
 11
2370.07478908
 21
-1727.80913424
 31
0.0
  0
LINE
  5
351
100
AcDbEntity
  8
Sc.1_5
 62
     9
  6
CONTINUOUS
370
    -2
100
AcDbLine
 10
2365.29763585
 20
-1729.70198136
 30
0.0
 11
2365.45598643
 21
-1730.4758015
 31
0.0
  0
LINE
  5
352
100
AcDbEntity
  8
Sc.1_5
 62
     9
  6
CONTINUOUS
370
    -2
100
AcDbLine
 10
2360.6788332
 20
-1732.36864862
 30
0.0
 11
2360.83718378
 21
-1733.14246877
 31
0.0
  0
LINE
  5
353
100
AcDbEntity
  8
Sc.1_5
 62
     9
  6
CONTINUOUS
370
    -2
100
AcDbLine
 10
2415.67184329
 20
-1700.61841543
 30
0.0
 11
2416.2628159
 21
-1701.14246113
 31
0.0
  0
LINE
  5
354
100
AcDbEntity
  8
Sc.1_5
 62
     9
  6
CONTINUOUS
370
    -2
100
AcDbLine
 10
2411.05304037
 20
-1703.28508222
 30
0.0
 11
2411.64401298
 21
-1703.80912793
 31
0.0
  0
LINE
  5
355
100
AcDbEntity
  8
Sc.1_5
 62
     9
  6
CONTINUOUS
370
    -2
100
AcDbLine
 10
2406.43423745
 20
-1705.95174902
 30
0.0
 11
2407.02521007
 21
-1706.47579473
 31
0.0
  0
LINE
  5
356
100
AcDbEntity
  8
Sc.1_5
 62
     9
  6
CONTINUOUS
370
    -2
100
AcDbLine
 10
2401.81543454
 20
-1708.61841582
 30
0.0
 11
2402.40640715
 21
-1709.14246153
 31
0.0
  0
LINE
  5
357
100
AcDbEntity
  8
Sc.1_5
 62
     9
  6
CONTINUOUS
370
    -2
100
AcDbLine
 10
2397.19663162
 20
-1711.28508262
 30
0.0
 11
2397.78760423
 21
-1711.80912832
 31
0.0
  0
LINE
  5
358
100
AcDbEntity
  8
Sc.1_5
 62
     9
  6
CONTINUOUS
370
    -2
100
AcDbLine
 10
2392.5778287
 20
-1713.95174942
 30
0.0
 11
2393.16880132
 21
-1714.47579512
 31
0.0
  0
LINE
  5
359
100
AcDbEntity
  8
Sc.1_5
 62
     9
  6
CONTINUOUS
370
    -2
100
AcDbLine
 10
2387.95902579
 20
-1716.61841622
 30
0.0
 11
2388.5499984
 21
-1717.14246192
 31
0.0
  0
LINE
  5
35A
100
AcDbEntity
  8
Sc.1_5
 62
     9
  6
CONTINUOUS
370
    -2
100
AcDbLine
 10
2383.34022287
 20
-1719.28508302
 30
0.0
 11
2383.93119548
 21
-1719.80912872
 31
0.0
  0
LINE
  5
35B
100
AcDbEntity
  8
Sc.1_5
 62
     9
  6
CONTINUOUS
370
    -2
100
AcDbLine
 10
2378.72141995
 20
-1721.95174982
 30
0.0
 11
2379.31239256
 21
-1722.47579552
 31
0.0
  0
LINE
  5
35C
100
AcDbEntity
  8
Sc.1_5
 62
     9
  6
CONTINUOUS
370
    -2
100
AcDbLine
 10
2374.10261704
 20
-1724.61841661
 30
0.0
 11
2374.69358965
 21
-1725.14246232
 31
0.0
  0
LINE
  5
35D
100
AcDbEntity
  8
Sc.1_5
 62
     9
  6
CONTINUOUS
370
    -2
100
AcDbLine
 10
2369.48381412
 20
-1727.28508341
 30
0.0
 11
2370.07478673
 21
-1727.80912912
 31
0.0
  0
LINE
  5
35E
100
AcDbEntity
  8
Sc.1_5
 62
     9
  6
CONTINUOUS
370
    -2
100
AcDbLine
 10
2364.8650112
 20
-1729.95175021
 30
0.0
 11
2365.45598381
 21
-1730.47579592
 31
0.0
  0
LINE
  5
35F
100
AcDbEntity
  8
Sc.1_5
 62
     9
  6
CONTINUOUS
370
    -2
100
AcDbLine
 10
2360.24620829
 20
-1732.61841701
 30
0.0
 11
2360.8371809
 21
-1733.14246271
 31
0.0
  0
LINE
  5
360
100
AcDbEntity
  8
Sc.1_5
 62
     9
  6
CONTINUOUS
370
    -2
100
AcDbLine
 10
2424.33829089
 20
-1709.79626057
 30
0.0
 11
2424.49664147
 21
-1710.57008071
 31
0.0
  0
LINE
  5
361
100
AcDbEntity
  8
Sc.1_5
 62
     9
  6
CONTINUOUS
370
    -2
100
AcDbLine
 10
2419.71948824
 20
-1712.46292783
 30
0.0
 11
2419.87783882
 21
-1713.23674798
 31
0.0
  0
LINE
  5
362
100
AcDbEntity
  8
Sc.1_5
 62
     9
  6
CONTINUOUS
370
    -2
100
AcDbLine
 10
2415.10068559
 20
-1715.12959509
 30
0.0
 11
2415.25903617
 21
-1715.90341524
 31
0.0
  0
LINE
  5
363
100
AcDbEntity
  8
Sc.1_5
 62
     9
  6
CONTINUOUS
370
    -2
100
AcDbLine
 10
2410.48188294
 20
-1717.79626235
 30
0.0
 11
2410.64023353
 21
-1718.5700825
 31
0.0
  0
LINE
  5
364
100
AcDbEntity
  8
Sc.1_5
 62
     9
  6
CONTINUOUS
370
    -2
100
AcDbLine
 10
2405.86308029
 20
-1720.46292962
 30
0.0
 11
2406.02143088
 21
-1721.23674976
 31
0.0
  0
LINE
  5
365
100
AcDbEntity
  8
Sc.1_5
 62
     9
  6
CONTINUOUS
370
    -2
100
AcDbLine
 10
2401.24427764
 20
-1723.12959688
 30
0.0
 11
2401.40262823
 21
-1723.90341702
 31
0.0
  0
LINE
  5
366
100
AcDbEntity
  8
Sc.1_5
 62
     9
  6
CONTINUOUS
370
    -2
100
AcDbLine
 10
2396.62547499
 20
-1725.79626414
 30
0.0
 11
2396.78382558
 21
-1726.57008429
 31
0.0
  0
LINE
  5
367
100
AcDbEntity
  8
Sc.1_5
 62
     9
  6
CONTINUOUS
370
    -2
100
AcDbLine
 10
2392.00667234
 20
-1728.4629314
 30
0.0
 11
2392.16502293
 21
-1729.23675155
 31
0.0
  0
LINE
  5
368
100
AcDbEntity
  8
Sc.1_5
 62
     9
  6
CONTINUOUS
370
    -2
100
AcDbLine
 10
2387.38786969
 20
-1731.12959866
 30
0.0
 11
2387.54622028
 21
-1731.90341881
 31
0.0
  0
LINE
  5
369
100
AcDbEntity
  8
Sc.1_5
 62
     9
  6
CONTINUOUS
370
    -2
100
AcDbLine
 10
2382.76906704
 20
-1733.79626592
 30
0.0
 11
2382.92741763
 21
-1734.57008607
 31
0.0
  0
LINE
  5
36A
100
AcDbEntity
  8
Sc.1_5
 62
     9
  6
CONTINUOUS
370
    -2
100
AcDbLine
 10
2378.15026439
 20
-1736.46293319
 30
0.0
 11
2378.30861498
 21
-1737.23675333
 31
0.0
  0
LINE
  5
36B
100
AcDbEntity
  8
Sc.1_5
 62
     9
  6
CONTINUOUS
370
    -2
100
AcDbLine
 10
2373.53146174
 20
-1739.12960045
 30
0.0
 11
2373.68981233
 21
-1739.90342059
 31
0.0
  0
LINE
  5
36C
100
AcDbEntity
  8
Sc.1_5
 62
     9
  6
CONTINUOUS
370
    -2
100
AcDbLine
 10
2368.91265909
 20
-1741.79626771
 30
0.0
 11
2369.07100968
 21
-1742.57008786
 31
0.0
  0
LINE
  5
36D
100
AcDbEntity
  8
Sc.1_5
 62
     9
  6
CONTINUOUS
370
    -2
100
AcDbLine
 10
2364.29385644
 20
-1744.46293497
 30
0.0
 11
2364.45220703
 21
-1745.23675512
 31
0.0
  0
LINE
  5
36E
100
AcDbEntity
  8
Sc.1_5
 62
     9
  6
CONTINUOUS
370
    -2
100
AcDbLine
 10
2364.88482647
 20
-1744.98697367
 30
0.0
 11
2364.29385386
 21
-1744.46292796
 31
0.0
  0
LINE
  5
36F
100
AcDbEntity
  8
Sc.1_5
 62
     9
  6
CONTINUOUS
370
    -2
100
AcDbLine
 10
2369.50362939
 20
-1742.32030687
 30
0.0
 11
2368.91265678
 21
-1741.79626116
 31
0.0
  0
LINE
  5
370
100
AcDbEntity
  8
Sc.1_5
 62
     9
  6
CONTINUOUS
370
    -2
100
AcDbLine
 10
2374.12243231
 20
-1739.65364007
 30
0.0
 11
2373.5314597
 21
-1739.12959437
 31
0.0
  0
LINE
  5
371
100
AcDbEntity
  8
Sc.1_5
 62
     9
  6
CONTINUOUS
370
    -2
100
AcDbLine
 10
2378.74123522
 20
-1736.98697327
 30
0.0
 11
2378.15026261
 21
-1736.46292757
 31
0.0
  0
LINE
  5
372
100
AcDbEntity
  8
Sc.1_5
 62
     9
  6
CONTINUOUS
370
    -2
100
AcDbLine
 10
2383.36003814
 20
-1734.32030647
 30
0.0
 11
2382.76906553
 21
-1733.79626077
 31
0.0
  0
LINE
  5
373
100
AcDbEntity
  8
Sc.1_5
 62
     9
  6
CONTINUOUS
370
    -2
100
AcDbLine
 10
2387.97884106
 20
-1731.65363967
 30
0.0
 11
2387.38786845
 21
-1731.12959397
 31
0.0
  0
LINE
  5
374
100
AcDbEntity
  8
Sc.1_5
 62
     9
  6
CONTINUOUS
370
    -2
100
AcDbLine
 10
2392.59764397
 20
-1728.98697287
 30
0.0
 11
2392.00667136
 21
-1728.46292717
 31
0.0
  0
LINE
  5
375
100
AcDbEntity
  8
Sc.1_5
 62
     9
  6
CONTINUOUS
370
    -2
100
AcDbLine
 10
2397.21644689
 20
-1726.32030608
 30
0.0
 11
2396.62547428
 21
-1725.79626037
 31
0.0
  0
LINE
  5
376
100
AcDbEntity
  8
Sc.1_5
 62
     9
  6
CONTINUOUS
370
    -2
100
AcDbLine
 10
2401.83524981
 20
-1723.65363928
 30
0.0
 11
2401.2442772
 21
-1723.12959357
 31
0.0
  0
LINE
  5
377
100
AcDbEntity
  8
Sc.1_5
 62
     9
  6
CONTINUOUS
370
    -2
100
AcDbLine
 10
2406.45405273
 20
-1720.98697248
 30
0.0
 11
2405.86308011
 21
-1720.46292677
 31
0.0
  0
LINE
  5
378
100
AcDbEntity
  8
Sc.1_5
 62
     9
  6
CONTINUOUS
370
    -2
100
AcDbLine
 10
2411.07285564
 20
-1718.32030568
 30
0.0
 11
2410.48188303
 21
-1717.79625998
 31
0.0
  0
LINE
  5
379
100
AcDbEntity
  8
Sc.1_5
 62
     9
  6
CONTINUOUS
370
    -2
100
AcDbLine
 10
2415.69165856
 20
-1715.65363888
 30
0.0
 11
2415.10068595
 21
-1715.12959318
 31
0.0
  0
LINE
  5
37A
100
AcDbEntity
  8
Sc.1_5
 62
     9
  6
CONTINUOUS
370
    -2
100
AcDbLine
 10
2420.31046148
 20
-1712.98697208
 30
0.0
 11
2419.71948886
 21
-1712.46292638
 31
0.0
  0
LINE
  5
37B
100
AcDbEntity
  8
Sc.1_5
 62
     9
  6
CONTINUOUS
370
    -2
100
AcDbLine
 10
2416.47918835
 20
-1701.51723052
 30
0.0
 11
2416.71015979
 21
-1702.04440268
 31
0.0
  0
LINE
  5
37C
100
AcDbEntity
  8
Sc.1_5
 62
     9
  6
CONTINUOUS
370
    -2
100
AcDbLine
 10
2411.86038965
 20
-1704.18390272
 30
0.0
 11
2412.09136109
 21
-1704.71107488
 31
0.0
  0
LINE
  5
37D
100
AcDbEntity
  8
Sc.1_5
 62
     9
  6
CONTINUOUS
370
    -2
100
AcDbLine
 10
2407.24159094
 20
-1706.85057492
 30
0.0
 11
2407.47256238
 21
-1707.37774708
 31
0.0
  0
LINE
  5
37E
100
AcDbEntity
  8
Sc.1_5
 62
     9
  6
CONTINUOUS
370
    -2
100
AcDbLine
 10
2402.62279224
 20
-1709.51724713
 30
0.0
 11
2402.85376368
 21
-1710.04441928
 31
0.0
  0
LINE
  5
37F
100
AcDbEntity
  8
Sc.1_5
 62
     9
  6
CONTINUOUS
370
    -2
100
AcDbLine
 10
2398.00399353
 20
-1712.18391933
 30
0.0
 11
2398.23496498
 21
-1712.71109148
 31
0.0
  0
LINE
  5
380
100
AcDbEntity
  8
Sc.1_5
 62
     9
  6
CONTINUOUS
370
    -2
100
AcDbLine
 10
2393.38519483
 20
-1714.85059153
 30
0.0
 11
2393.61616627
 21
-1715.37776368
 31
0.0
  0
LINE
  5
381
100
AcDbEntity
  8
Sc.1_5
 62
     9
  6
CONTINUOUS
370
    -2
100
AcDbLine
 10
2388.76639613
 20
-1717.51726373
 30
0.0
 11
2388.99736757
 21
-1718.04443588
 31
0.0
  0
LINE
  5
382
100
AcDbEntity
  8
Sc.1_5
 62
     9
  6
CONTINUOUS
370
    -2
100
AcDbLine
 10
2384.14759742
 20
-1720.18393593
 30
0.0
 11
2384.37856886
 21
-1720.71110809
 31
0.0
  0
LINE
  5
383
100
AcDbEntity
  8
Sc.1_5
 62
     9
  6
CONTINUOUS
370
    -2
100
AcDbLine
 10
2379.52879872
 20
-1722.85060813
 30
0.0
 11
2379.75977016
 21
-1723.37778029
 31
0.0
  0
LINE
  5
384
100
AcDbEntity
  8
Sc.1_5
 62
     9
  6
CONTINUOUS
370
    -2
100
AcDbLine
 10
2374.91000001
 20
-1725.51728033
 30
0.0
 11
2375.14097145
 21
-1726.04445249
 31
0.0
  0
LINE
  5
385
100
AcDbEntity
  8
Sc.1_5
 62
     9
  6
CONTINUOUS
370
    -2
100
AcDbLine
 10
2370.29120131
 20
-1728.18395253
 30
0.0
 11
2370.52217275
 21
-1728.71112469
 31
0.0
  0
LINE
  5
386
100
AcDbEntity
  8
Sc.1_5
 62
     9
  6
CONTINUOUS
370
    -2
100
AcDbLine
 10
2365.6724026
 20
-1730.85062474
 30
0.0
 11
2365.90337405
 21
-1731.37779689
 31
0.0
  0
LINE
  5
387
100
AcDbEntity
  8
Sc.1_5
 62
     9
  6
CONTINUOUS
370
    -2
100
AcDbLine
 10
2361.0536039
 20
-1733.51729694
 30
0.0
 11
2361.28457534
 21
-1734.04446909
 31
0.0
  0
LINE
  5
388
100
AcDbEntity
  8
Sc.1_5
 62
     9
  6
CONTINUOUS
370
    -2
100
AcDbLine
 10
2416.4791866
 20
-1701.51722401
 30
0.0
 11
2416.82024535
 21
-1701.98083722
 31
0.0
  0
LINE
  5
389
100
AcDbEntity
  8
Sc.1_5
 62
     9
  6
CONTINUOUS
370
    -2
100
AcDbLine
 10
2411.86038137
 20
-1704.18388492
 30
0.0
 11
2412.20144013
 21
-1704.64749814
 31
0.0
  0
LINE
  5
38A
100
AcDbEntity
  8
Sc.1_5
 62
     9
  6
CONTINUOUS
370
    -2
100
AcDbLine
 10
2407.24157615
 20
-1706.85054583
 30
0.0
 11
2407.58263491
 21
-1707.31415905
 31
0.0
  0
LINE
  5
38B
100
AcDbEntity
  8
Sc.1_5
 62
     9
  6
CONTINUOUS
370
    -2
100
AcDbLine
 10
2402.62277093
 20
-1709.51720675
 30
0.0
 11
2402.96382969
 21
-1709.98081996
 31
0.0
  0
LINE
  5
38C
100
AcDbEntity
  8
Sc.1_5
 62
     9
  6
CONTINUOUS
370
    -2
100
AcDbLine
 10
2398.00396571
 20
-1712.18386766
 30
0.0
 11
2398.34502446
 21
-1712.64748087
 31
0.0
  0
LINE
  5
38D
100
AcDbEntity
  8
Sc.1_5
 62
     9
  6
CONTINUOUS
370
    -2
100
AcDbLine
 10
2393.38516049
 20
-1714.85052857
 30
0.0
 11
2393.72621924
 21
-1715.31414179
 31
0.0
  0
LINE
  5
38E
100
AcDbEntity
  8
Sc.1_5
 62
     9
  6
CONTINUOUS
370
    -2
100
AcDbLine
 10
2388.76635526
 20
-1717.51718948
 30
0.0
 11
2389.10741402
 21
-1717.9808027
 31
0.0
  0
LINE
  5
38F
100
AcDbEntity
  8
Sc.1_5
 62
     9
  6
CONTINUOUS
370
    -2
100
AcDbLine
 10
2384.14755004
 20
-1720.1838504
 30
0.0
 11
2384.4886088
 21
-1720.64746361
 31
0.0
  0
LINE
  5
390
100
AcDbEntity
  8
Sc.1_5
 62
     9
  6
CONTINUOUS
370
    -2
100
AcDbLine
 10
2379.52874482
 20
-1722.85051131
 30
0.0
 11
2379.86980358
 21
-1723.31412452
 31
0.0
  0
LINE
  5
391
100
AcDbEntity
  8
Sc.1_5
 62
     9
  6
CONTINUOUS
370
    -2
100
AcDbLine
 10
2374.9099396
 20
-1725.51717222
 30
0.0
 11
2375.25099835
 21
-1725.98078543
 31
0.0
  0
LINE
  5
392
100
AcDbEntity
  8
Sc.1_5
 62
     9
  6
CONTINUOUS
370
    -2
100
AcDbLine
 10
2370.29113438
 20
-1728.18383313
 30
0.0
 11
2370.63219313
 21
-1728.64744635
 31
0.0
  0
LINE
  5
393
100
AcDbEntity
  8
Sc.1_5
 62
     9
  6
CONTINUOUS
370
    -2
100
AcDbLine
 10
2365.67232915
 20
-1730.85049405
 30
0.0
 11
2366.01338791
 21
-1731.31410726
 31
0.0
  0
LINE
  5
394
100
AcDbEntity
  8
Sc.1_5
 62
     9
  6
CONTINUOUS
370
    -2
100
AcDbLine
 10
2361.05352393
 20
-1733.51715496
 30
0.0
 11
2361.39458269
 21
-1733.98076817
 31
0.0
  0
LINE
  5
395
100
AcDbEntity
  8
Sc.1_5
 62
     9
  6
CONTINUOUS
370
    -2
100
AcDbLine
 10
2364.07754657
 20
-1744.08825066
 30
0.0
 11
2363.84657499
 21
-1743.56107856
 31
0.0
  0
LINE
  5
396
100
AcDbEntity
  8
Sc.1_5
 62
     9
  6
CONTINUOUS
370
    -2
100
AcDbLine
 10
2368.69634456
 20
-1741.42157723
 30
0.0
 11
2368.46537298
 21
-1740.89440513
 31
0.0
  0
LINE
  5
397
100
AcDbEntity
  8
Sc.1_5
 62
     9
  6
CONTINUOUS
370
    -2
100
AcDbLine
 10
2373.31514256
 20
-1738.7549038
 30
0.0
 11
2373.08417097
 21
-1738.2277317
 31
0.0
  0
LINE
  5
398
100
AcDbEntity
  8
Sc.1_5
 62
     9
  6
CONTINUOUS
370
    -2
100
AcDbLine
 10
2377.93394055
 20
-1736.08823036
 30
0.0
 11
2377.70296897
 21
-1735.56105827
 31
0.0
  0
LINE
  5
399
100
AcDbEntity
  8
Sc.1_5
 62
     9
  6
CONTINUOUS
370
    -2
100
AcDbLine
 10
2382.55273855
 20
-1733.42155693
 30
0.0
 11
2382.32176696
 21
-1732.89438484
 31
0.0
  0
LINE
  5
39A
100
AcDbEntity
  8
Sc.1_5
 62
     9
  6
CONTINUOUS
370
    -2
100
AcDbLine
 10
2387.17153654
 20
-1730.7548835
 30
0.0
 11
2386.94056496
 21
-1730.22771141
 31
0.0
  0
LINE
  5
39B
100
AcDbEntity
  8
Sc.1_5
 62
     9
  6
CONTINUOUS
370
    -2
100
AcDbLine
 10
2391.79033453
 20
-1728.08821007
 30
0.0
 11
2391.55936295
 21
-1727.56103798
 31
0.0
  0
LINE
  5
39C
100
AcDbEntity
  8
Sc.1_5
 62
     9
  6
CONTINUOUS
370
    -2
100
AcDbLine
 10
2396.40913253
 20
-1725.42153664
 30
0.0
 11
2396.17816095
 21
-1724.89436455
 31
0.0
  0
LINE
  5
39D
100
AcDbEntity
  8
Sc.1_5
 62
     9
  6
CONTINUOUS
370
    -2
100
AcDbLine
 10
2401.02793052
 20
-1722.75486321
 30
0.0
 11
2400.79695894
 21
-1722.22769111
 31
0.0
  0
LINE
  5
39E
100
AcDbEntity
  8
Sc.1_5
 62
     9
  6
CONTINUOUS
370
    -2
100
AcDbLine
 10
2405.64672852
 20
-1720.08818978
 30
0.0
 11
2405.41575693
 21
-1719.56101768
 31
0.0
  0
LINE
  5
39F
100
AcDbEntity
  8
Sc.1_5
 62
     9
  6
CONTINUOUS
370
    -2
100
AcDbLine
 10
2410.26552651
 20
-1717.42151634
 30
0.0
 11
2410.03455493
 21
-1716.89434425
 31
0.0
  0
LINE
  5
3A0
100
AcDbEntity
  8
Sc.1_5
 62
     9
  6
CONTINUOUS
370
    -2
100
AcDbLine
 10
2414.8843245
 20
-1714.75484291
 30
0.0
 11
2414.65335292
 21
-1714.22767082
 31
0.0
  0
LINE
  5
3A1
100
AcDbEntity
  8
Sc.1_5
 62
     9
  6
CONTINUOUS
370
    -2
100
AcDbLine
 10
2419.5031225
 20
-1712.08816948
 30
0.0
 11
2419.27215092
 21
-1711.56099739
 31
0.0
  0
LINE
  5
3A2
100
AcDbEntity
  8
Sc.1_5
 62
     9
  6
CONTINUOUS
370
    -2
100
AcDbLine
 10
2364.07745261
 20
-1744.08808791
 30
0.0
 11
2363.73639385
 21
-1743.6244747
 31
0.0
  0
LINE
  5
3A3
100
AcDbEntity
  8
Sc.1_5
 62
     9
  6
CONTINUOUS
370
    -2
100
AcDbLine
 10
2368.69625783
 20
-1741.421427
 30
0.0
 11
2368.35519907
 21
-1740.95781378
 31
0.0
  0
LINE
  5
3A4
100
AcDbEntity
  8
Sc.1_5
 62
     9
  6
CONTINUOUS
370
    -2
100
AcDbLine
 10
2373.31506305
 20
-1738.75476609
 30
0.0
 11
2372.97400429
 21
-1738.29115287
 31
0.0
  0
LINE
  5
3A5
100
AcDbEntity
  8
Sc.1_5
 62
     9
  6
CONTINUOUS
370
    -2
100
AcDbLine
 10
2377.93386827
 20
-1736.08810517
 30
0.0
 11
2377.59280952
 21
-1735.62449196
 31
0.0
  0
LINE
  5
3A6
100
AcDbEntity
  8
Sc.1_5
 62
     9
  6
CONTINUOUS
370
    -2
100
AcDbLine
 10
2382.55267349
 20
-1733.42144426
 30
0.0
 11
2382.21161474
 21
-1732.95783105
 31
0.0
  0
LINE
  5
3A7
100
AcDbEntity
  8
Sc.1_5
 62
     9
  6
CONTINUOUS
370
    -2
100
AcDbLine
 10
2387.17147872
 20
-1730.75478335
 30
0.0
 11
2386.83041996
 21
-1730.29117014
 31
0.0
  0
LINE
  5
3A8
100
AcDbEntity
  8
Sc.1_5
 62
     9
  6
CONTINUOUS
370
    -2
100
AcDbLine
 10
2391.79028394
 20
-1728.08812244
 30
0.0
 11
2391.44922518
 21
-1727.62450922
 31
0.0
  0
LINE
  5
3A9
100
AcDbEntity
  8
Sc.1_5
 62
     9
  6
CONTINUOUS
370
    -2
100
AcDbLine
 10
2396.40908916
 20
-1725.42146152
 30
0.0
 11
2396.0680304
 21
-1724.95784831
 31
0.0
  0
LINE
  5
3AA
100
AcDbEntity
  8
Sc.1_5
 62
     9
  6
CONTINUOUS
370
    -2
100
AcDbLine
 10
2401.02789438
 20
-1722.75480061
 30
0.0
 11
2400.68683563
 21
-1722.2911874
 31
0.0
  0
LINE
  5
3AB
100
AcDbEntity
  8
Sc.1_5
 62
     9
  6
CONTINUOUS
370
    -2
100
AcDbLine
 10
2405.6466996
 20
-1720.0881397
 30
0.0
 11
2405.30564085
 21
-1719.62452649
 31
0.0
  0
LINE
  5
3AC
100
AcDbEntity
  8
Sc.1_5
 62
     9
  6
CONTINUOUS
370
    -2
100
AcDbLine
 10
2410.26550483
 20
-1717.42147879
 30
0.0
 11
2409.92444607
 21
-1716.95786557
 31
0.0
  0
LINE
  5
3AD
100
AcDbEntity
  8
Sc.1_5
 62
     9
  6
CONTINUOUS
370
    -2
100
AcDbLine
 10
2414.88431005
 20
-1714.75481788
 30
0.0
 11
2414.54325129
 21
-1714.29120466
 31
0.0
  0
LINE
  5
3AE
100
AcDbEntity
  8
Sc.1_5
 62
     9
  6
CONTINUOUS
370
    -2
100
AcDbLine
 10
2419.50311527
 20
-1712.08815696
 30
0.0
 11
2419.16205651
 21
-1711.62454375
 31
0.0
  0
LINE
  5
3AF
100
AcDbEntity
  8
Sc.1_5
 62
     9
  6
CONTINUOUS
370
    -2
100
AcDbLine
 10
2424.12192049
 20
-1709.42149605
 30
0.0
 11
2423.78086174
 21
-1708.95788284
 31
0.0
  0
ENDBLK
  5
3B0
100
AcDbEntity
100
AcDbBlockEnd
  0
BLOCK
  5
3B1
100
AcDbEntity
  8
Sc.1_5
100
AcDbBlockBegin
  2
*X2527
 70
     1
 10
0.0
 20
0.0
 30
0.0
  3
*X2527
  1

  4
Cadwork hatch
  0
LINE
  5
3B2
100
AcDbEntity
  8
Sc.1_5
 62
     9
  6
CONTINUOUS
370
    -2
100
AcDbLine
 10
2456.77341249
 20
-1693.64165563
 30
0.0
 11
2456.46414104
 21
-1693.82021358
 31
0.0
  0
LINE
  5
3B3
100
AcDbEntity
  8
Sc.1_5
 62
     9
  6
CONTINUOUS
370
    -2
100
AcDbLine
 10
2454.77328112
 20
-1694.79643201
 30
0.0
 11
2454.15473945
 21
-1695.15354721
 31
0.0
  0
LINE
  5
3B4
100
AcDbEntity
  8
Sc.1_5
 62
     9
  6
CONTINUOUS
370
    -2
100
AcDbLine
 10
2452.46387953
 20
-1696.12976564
 30
0.0
 11
2451.84533786
 21
-1696.48688084
 31
0.0
  0
LINE
  5
3B5
100
AcDbEntity
  8
Sc.1_5
 62
     9
  6
CONTINUOUS
370
    -2
100
AcDbLine
 10
2450.15447794
 20
-1697.46309927
 30
0.0
 11
2449.53593626
 21
-1697.82021447
 31
0.0
  0
LINE
  5
3B6
100
AcDbEntity
  8
Sc.1_5
 62
     9
  6
CONTINUOUS
370
    -2
100
AcDbLine
 10
2447.84507635
 20
-1698.7964329
 30
0.0
 11
2447.22653467
 21
-1699.1535481
 31
0.0
  0
LINE
  5
3B7
100
AcDbEntity
  8
Sc.1_5
 62
     9
  6
CONTINUOUS
370
    -2
100
AcDbLine
 10
2445.53567475
 20
-1700.12976653
 30
0.0
 11
2444.91713308
 21
-1700.48688173
 31
0.0
  0
LINE
  5
3B8
100
AcDbEntity
  8
Sc.1_5
 62
     9
  6
CONTINUOUS
370
    -2
100
AcDbLine
 10
2443.22627316
 20
-1701.46310016
 30
0.0
 11
2442.60773148
 21
-1701.82021537
 31
0.0
  0
LINE
  5
3B9
100
AcDbEntity
  8
Sc.1_5
 62
     9
  6
CONTINUOUS
370
    -2
100
AcDbLine
 10
2440.91687157
 20
-1702.79643379
 30
0.0
 11
2440.29832989
 21
-1703.153549
 31
0.0
  0
LINE
  5
3BA
100
AcDbEntity
  8
Sc.1_5
 62
     9
  6
CONTINUOUS
370
    -2
100
AcDbLine
 10
2438.60746997
 20
-1704.12976743
 30
0.0
 11
2437.9889283
 21
-1704.48688263
 31
0.0
  0
LINE
  5
3BB
100
AcDbEntity
  8
Sc.1_5
 62
     9
  6
CONTINUOUS
370
    -2
100
AcDbLine
 10
2436.29806838
 20
-1705.46310106
 30
0.0
 11
2435.67952671
 21
-1705.82021626
 31
0.0
  0
LINE
  5
3BC
100
AcDbEntity
  8
Sc.1_5
 62
     9
  6
CONTINUOUS
370
    -2
100
AcDbLine
 10
2433.98866679
 20
-1706.79643469
 30
0.0
 11
2433.37012511
 21
-1707.15354989
 31
0.0
  0
LINE
  5
3BD
100
AcDbEntity
  8
Sc.1_5
 62
     9
  6
CONTINUOUS
370
    -2
100
AcDbLine
 10
2447.58097392
 20
-1683.05322082
 30
0.0
 11
2447.79734432
 21
-1683.42798533
 31
0.0
  0
LINE
  5
3BE
100
AcDbEntity
  8
Sc.1_5
 62
     9
  6
CONTINUOUS
370
    -2
100
AcDbLine
 10
2442.96217214
 20
-1685.71988727
 30
0.0
 11
2443.17854253
 21
-1686.09465179
 31
0.0
  0
LINE
  5
3BF
100
AcDbEntity
  8
Sc.1_5
 62
     9
  6
CONTINUOUS
370
    -2
100
AcDbLine
 10
2438.34337036
 20
-1688.38655372
 30
0.0
 11
2438.55974075
 21
-1688.76131824
 31
0.0
  0
LINE
  5
3C0
100
AcDbEntity
  8
Sc.1_5
 62
     9
  6
CONTINUOUS
370
    -2
100
AcDbLine
 10
2433.72456858
 20
-1691.05322017
 30
0.0
 11
2433.94093897
 21
-1691.42798469
 31
0.0
  0
LINE
  5
3C1
100
AcDbEntity
  8
Sc.1_5
 62
     9
  6
CONTINUOUS
370
    -2
100
AcDbLine
 10
2429.10576679
 20
-1693.71988663
 30
0.0
 11
2429.32213719
 21
-1694.09465114
 31
0.0
  0
LINE
  5
3C2
100
AcDbEntity
  8
Sc.1_5
 62
     9
  6
CONTINUOUS
370
    -2
100
AcDbLine
 10
2455.44007791
 20
-1691.33225579
 30
0.0
 11
2455.6564483
 21
-1691.70702031
 31
0.0
  0
LINE
  5
3C3
100
AcDbEntity
  8
Sc.1_5
 62
     9
  6
CONTINUOUS
370
    -2
100
AcDbLine
 10
2450.82127612
 20
-1693.99892224
 30
0.0
 11
2451.03764652
 21
-1694.37368676
 31
0.0
  0
LINE
  5
3C4
100
AcDbEntity
  8
Sc.1_5
 62
     9
  6
CONTINUOUS
370
    -2
100
AcDbLine
 10
2446.20247434
 20
-1696.66558869
 30
0.0
 11
2446.41884474
 21
-1697.04035321
 31
0.0
  0
LINE
  5
3C5
100
AcDbEntity
  8
Sc.1_5
 62
     9
  6
CONTINUOUS
370
    -2
100
AcDbLine
 10
2441.58367256
 20
-1699.33225515
 30
0.0
 11
2441.80004296
 21
-1699.70701966
 31
0.0
  0
LINE
  5
3C6
100
AcDbEntity
  8
Sc.1_5
 62
     9
  6
CONTINUOUS
370
    -2
100
AcDbLine
 10
2436.96487078
 20
-1701.9989216
 30
0.0
 11
2437.18124117
 21
-1702.37368612
 31
0.0
  0
LINE
  5
3C7
100
AcDbEntity
  8
Sc.1_5
 62
     9
  6
CONTINUOUS
370
    -2
100
AcDbLine
 10
2432.346069
 20
-1704.66558805
 30
0.0
 11
2432.56243939
 21
-1705.04035257
 31
0.0
  0
LINE
  5
3C8
100
AcDbEntity
  8
Sc.1_5
 62
     9
  6
CONTINUOUS
370
    -2
100
AcDbLine
 10
2448.13840319
 20
-1683.8915968
 30
0.0
 11
2455.09902006
 21
-1690.86864221
 31
0.0
  0
LINE
  5
3C9
100
AcDbEntity
  8
Sc.1_5
 62
     9
  6
CONTINUOUS
370
    -2
100
AcDbLine
 10
2443.51959777
 20
-1686.55825479
 30
0.0
 11
2450.48021464
 21
-1693.5353002
 31
0.0
  0
LINE
  5
3CA
100
AcDbEntity
  8
Sc.1_5
 62
     9
  6
CONTINUOUS
370
    -2
100
AcDbLine
 10
2438.90079236
 20
-1689.22491277
 30
0.0
 11
2445.86140923
 21
-1696.20195818
 31
0.0
  0
LINE
  5
3CB
100
AcDbEntity
  8
Sc.1_5
 62
     9
  6
CONTINUOUS
370
    -2
100
AcDbLine
 10
2434.28198694
 20
-1691.89157076
 30
0.0
 11
2441.24260381
 21
-1698.86861617
 31
0.0
  0
LINE
  5
3CC
100
AcDbEntity
  8
Sc.1_5
 62
     9
  6
CONTINUOUS
370
    -2
100
AcDbLine
 10
2429.66318153
 20
-1694.55822875
 30
0.0
 11
2436.6237984
 21
-1701.53527416
 31
0.0
  0
LINE
  5
3CD
100
AcDbEntity
  8
Sc.1_5
 62
     9
  6
CONTINUOUS
370
    -2
100
AcDbLine
 10
2430.80798592
 20
-1703.0020999
 30
0.0
 11
2432.00499298
 21
-1704.20193215
 31
0.0
  0
LINE
  5
3CE
100
AcDbEntity
  8
Sc.1_5
 62
     9
  6
CONTINUOUS
370
    -2
100
AcDbLine
 10
2448.02831551
 20
-1683.95515595
 30
0.0
 11
2450.59030564
 21
-1693.47174969
 31
0.0
  0
LINE
  5
3CF
100
AcDbEntity
  8
Sc.1_5
 62
     9
  6
CONTINUOUS
370
    -2
100
AcDbLine
 10
2443.40951924
 20
-1686.62182978
 30
0.0
 11
2445.97150937
 21
-1696.13842352
 31
0.0
  0
LINE
  5
3D0
100
AcDbEntity
  8
Sc.1_5
 62
     9
  6
CONTINUOUS
370
    -2
100
AcDbLine
 10
2438.79072297
 20
-1689.28850361
 30
0.0
 11
2441.3527131
 21
-1698.80509735
 31
0.0
  0
LINE
  5
3D1
100
AcDbEntity
  8
Sc.1_5
 62
     9
  6
CONTINUOUS
370
    -2
100
AcDbLine
 10
2434.1719267
 20
-1691.95517744
 30
0.0
 11
2436.73391684
 21
-1701.47177118
 31
0.0
  0
LINE
  5
3D2
100
AcDbEntity
  8
Sc.1_5
 62
     9
  6
CONTINUOUS
370
    -2
100
AcDbLine
 10
2429.55313043
 20
-1694.62185127
 30
0.0
 11
2432.11512057
 21
-1704.13844501
 31
0.0
  0
LINE
  5
3D3
100
AcDbEntity
  8
Sc.1_5
 62
     9
  6
CONTINUOUS
370
    -2
100
AcDbLine
 10
2448.46414142
 20
-1679.96380778
 30
0.0
 11
2447.95387137
 21
-1680.47864231
 31
0.0
  0
LINE
  5
3D4
100
AcDbEntity
  8
Sc.1_5
 62
     9
  6
CONTINUOUS
370
    -2
100
AcDbLine
 10
2443.84533933
 20
-1682.63047441
 30
0.0
 11
2443.33506966
 21
-1683.14530856
 31
0.0
  0
LINE
  5
3D5
100
AcDbEntity
  8
Sc.1_5
 62
     9
  6
CONTINUOUS
370
    -2
100
AcDbLine
 10
2439.22653724
 20
-1685.29714104
 30
0.0
 11
2438.71626796
 21
-1685.8119748
 31
0.0
  0
LINE
  5
3D6
100
AcDbEntity
  8
Sc.1_5
 62
     9
  6
CONTINUOUS
370
    -2
100
AcDbLine
 10
2434.60773515
 20
-1687.96380767
 30
0.0
 11
2434.09746625
 21
-1688.47864105
 31
0.0
  0
LINE
  5
3D7
100
AcDbEntity
  8
Sc.1_5
 62
     9
  6
CONTINUOUS
370
    -2
100
AcDbLine
 10
2429.98893306
 20
-1690.6304743
 30
0.0
 11
2429.47866454
 21
-1691.14530729
 31
0.0
  0
LINE
  5
3D8
100
AcDbEntity
  8
Sc.1_5
 62
     9
  6
CONTINUOUS
370
    -2
100
AcDbLine
 10
2425.37013097
 20
-1693.29714093
 30
0.0
 11
2425.26567295
 21
-1693.40253335
 31
0.0
  0
LINE
  5
3D9
100
AcDbEntity
  8
Sc.1_5
 62
     9
  6
CONTINUOUS
370
    -2
100
AcDbLine
 10
2444.46388189
 20
-1682.27335968
 30
0.0
 11
2445.16487668
 21
-1682.08887003
 31
0.0
  0
LINE
  5
3DA
100
AcDbEntity
  8
Sc.1_5
 62
     9
  6
CONTINUOUS
370
    -2
100
AcDbLine
 10
2439.84508068
 20
-1684.94002679
 30
0.0
 11
2440.54607547
 21
-1684.75553714
 31
0.0
  0
LINE
  5
3DB
100
AcDbEntity
  8
Sc.1_5
 62
     9
  6
CONTINUOUS
370
    -2
100
AcDbLine
 10
2435.22627947
 20
-1687.6066939
 30
0.0
 11
2435.92727425
 21
-1687.42220424
 31
0.0
  0
LINE
  5
3DC
100
AcDbEntity
  8
Sc.1_5
 62
     9
  6
CONTINUOUS
370
    -2
100
AcDbLine
 10
2430.60747826
 20
-1690.273361
 30
0.0
 11
2431.30847304
 21
-1690.08887135
 31
0.0
  0
LINE
  5
3DD
100
AcDbEntity
  8
Sc.1_5
 62
     9
  6
CONTINUOUS
370
    -2
100
AcDbLine
 10
2425.98867705
 20
-1692.94002811
 30
0.0
 11
2426.68967183
 21
-1692.75553846
 31
0.0
  0
LINE
  5
3DE
100
AcDbEntity
  8
Sc.1_5
 62
     9
  6
CONTINUOUS
370
    -2
100
AcDbLine
 10
2455.2835526
 20
-1694.28159847
 30
0.0
 11
2454.77328387
 21
-1694.79643167
 31
0.0
  0
LINE
  5
3DF
100
AcDbEntity
  8
Sc.1_5
 62
     9
  6
CONTINUOUS
370
    -2
100
AcDbLine
 10
2450.66475089
 20
-1696.94826471
 30
0.0
 11
2450.15448178
 21
-1697.4630983
 31
0.0
  0
LINE
  5
3E0
100
AcDbEntity
  8
Sc.1_5
 62
     9
  6
CONTINUOUS
370
    -2
100
AcDbLine
 10
2446.04594919
 20
-1699.61493096
 30
0.0
 11
2445.53567969
 21
-1700.12976493
 31
0.0
  0
LINE
  5
3E1
100
AcDbEntity
  8
Sc.1_5
 62
     9
  6
CONTINUOUS
370
    -2
100
AcDbLine
 10
2441.42714748
 20
-1702.2815972
 30
0.0
 11
2440.9168776
 21
-1702.79643156
 31
0.0
  0
LINE
  5
3E2
100
AcDbEntity
  8
Sc.1_5
 62
     9
  6
CONTINUOUS
370
    -2
100
AcDbLine
 10
2436.80834577
 20
-1704.94826345
 30
0.0
 11
2436.29807572
 21
-1705.46309798
 31
0.0
  0
LINE
  5
3E3
100
AcDbEntity
  8
Sc.1_5
 62
     9
  6
CONTINUOUS
370
    -2
100
AcDbLine
 10
2435.67953328
 20
-1705.82021372
 30
0.0
 11
2434.97854026
 21
-1706.0047028
 31
0.0
  0
LINE
  5
3E4
100
AcDbEntity
  8
Sc.1_5
 62
     9
  6
CONTINUOUS
370
    -2
100
AcDbLine
 10
2440.29833537
 20
-1703.15354709
 30
0.0
 11
2439.59734182
 21
-1703.33803631
 31
0.0
  0
LINE
  5
3E5
100
AcDbEntity
  8
Sc.1_5
 62
     9
  6
CONTINUOUS
370
    -2
100
AcDbLine
 10
2444.91713746
 20
-1700.48688046
 30
0.0
 11
2444.21614339
 21
-1700.67136982
 31
0.0
  0
LINE
  5
3E6
100
AcDbEntity
  8
Sc.1_5
 62
     9
  6
CONTINUOUS
370
    -2
100
AcDbLine
 10
2449.53593955
 20
-1697.82021383
 30
0.0
 11
2448.83494496
 21
-1698.00470333
 31
0.0
  0
LINE
  5
3E7
100
AcDbEntity
  8
Sc.1_5
 62
     9
  6
CONTINUOUS
370
    -2
100
AcDbLine
 10
2454.15474133
 20
-1695.15354728
 30
0.0
 11
2453.45374652
 21
-1695.33803684
 31
0.0
  0
LINE
  5
3E8
100
AcDbEntity
  8
Sc.1_5
 62
     9
  6
CONTINUOUS
370
    -2
100
AcDbLine
 10
2447.95387212
 20
-1680.47864193
 30
0.0
 11
2447.61587558
 21
-1681.08749522
 31
0.0
  0
LINE
  5
3E9
100
AcDbEntity
  8
Sc.1_5
 62
     9
  6
CONTINUOUS
370
    -2
100
AcDbLine
 10
2443.33506956
 20
-1683.14530888
 30
0.0
 11
2442.99707301
 21
-1683.75416216
 31
0.0
  0
LINE
  5
3EA
100
AcDbEntity
  8
Sc.1_5
 62
     9
  6
CONTINUOUS
370
    -2
100
AcDbLine
 10
2438.71626699
 20
-1685.81197582
 30
0.0
 11
2438.37827045
 21
-1686.4208291
 31
0.0
  0
LINE
  5
3EB
100
AcDbEntity
  8
Sc.1_5
 62
     9
  6
CONTINUOUS
370
    -2
100
AcDbLine
 10
2434.09746443
 20
-1688.47864276
 30
0.0
 11
2433.75946789
 21
-1689.08749605
 31
0.0
  0
LINE
  5
3EC
100
AcDbEntity
  8
Sc.1_5
 62
     9
  6
CONTINUOUS
370
    -2
100
AcDbLine
 10
2429.47866187
 20
-1691.14530971
 30
0.0
 11
2429.14066533
 21
-1691.75416299
 31
0.0
  0
LINE
  5
3ED
100
AcDbEntity
  8
Sc.1_5
 62
     9
  6
CONTINUOUS
370
    -2
100
AcDbLine
 10
2445.16829137
 20
-1682.08689727
 30
0.0
 11
2445.86457205
 21
-1682.09861037
 31
0.0
  0
LINE
  5
3EE
100
AcDbEntity
  8
Sc.1_5
 62
     9
  6
CONTINUOUS
370
    -2
100
AcDbLine
 10
2440.5494886
 20
-1684.75356385
 30
0.0
 11
2441.24576928
 21
-1684.76527695
 31
0.0
  0
LINE
  5
3EF
100
AcDbEntity
  8
Sc.1_5
 62
     9
  6
CONTINUOUS
370
    -2
100
AcDbLine
 10
2435.93068582
 20
-1687.42023042
 30
0.0
 11
2436.6269665
 21
-1687.43194352
 31
0.0
  0
LINE
  5
3F0
100
AcDbEntity
  8
Sc.1_5
 62
     9
  6
CONTINUOUS
370
    -2
100
AcDbLine
 10
2431.31188305
 20
-1690.086897
 30
0.0
 11
2432.00816373
 21
-1690.0986101
 31
0.0
  0
LINE
  5
3F1
100
AcDbEntity
  8
Sc.1_5
 62
     9
  6
CONTINUOUS
370
    -2
100
AcDbLine
 10
2426.69308027
 20
-1692.75356357
 30
0.0
 11
2427.38936095
 21
-1692.76527667
 31
0.0
  0
LINE
  5
3F2
100
AcDbEntity
  8
Sc.1_5
 62
     9
  6
CONTINUOUS
370
    -2
100
AcDbLine
 10
2455.62154754
 20
-1693.67274451
 30
0.0
 11
2455.28355099
 21
-1694.28159779
 31
0.0
  0
LINE
  5
3F3
100
AcDbEntity
  8
Sc.1_5
 62
     9
  6
CONTINUOUS
370
    -2
100
AcDbLine
 10
2451.00274497
 20
-1696.33941145
 30
0.0
 11
2450.66474843
 21
-1696.94826474
 31
0.0
  0
LINE
  5
3F4
100
AcDbEntity
  8
Sc.1_5
 62
     9
  6
CONTINUOUS
370
    -2
100
AcDbLine
 10
2446.38394241
 20
-1699.0060784
 30
0.0
 11
2446.04594587
 21
-1699.61493168
 31
0.0
  0
LINE
  5
3F5
100
AcDbEntity
  8
Sc.1_5
 62
     9
  6
CONTINUOUS
370
    -2
100
AcDbLine
 10
2441.76513985
 20
-1701.67274534
 30
0.0
 11
2441.42714331
 21
-1702.28159862
 31
0.0
  0
LINE
  5
3F6
100
AcDbEntity
  8
Sc.1_5
 62
     9
  6
CONTINUOUS
370
    -2
100
AcDbLine
 10
2437.14633729
 20
-1704.33941228
 30
0.0
 11
2436.80834074
 21
-1704.94826557
 31
0.0
  0
LINE
  5
3F7
100
AcDbEntity
  8
Sc.1_5
 62
     9
  6
CONTINUOUS
370
    -2
100
AcDbLine
 10
2434.9785358
 20
-1706.00470522
 30
0.0
 11
2434.28225512
 21
-1705.99299217
 31
0.0
  0
LINE
  5
3F8
100
AcDbEntity
  8
Sc.1_5
 62
     9
  6
CONTINUOUS
370
    -2
100
AcDbLine
 10
2439.5973384
 20
-1703.33803834
 30
0.0
 11
2438.90105772
 21
-1703.32632529
 31
0.0
  0
LINE
  5
3F9
100
AcDbEntity
  8
Sc.1_5
 62
     9
  6
CONTINUOUS
370
    -2
100
AcDbLine
 10
2444.21614099
 20
-1700.67137146
 30
0.0
 11
2443.51986031
 21
-1700.65965841
 31
0.0
  0
LINE
  5
3FA
100
AcDbEntity
  8
Sc.1_5
 62
     9
  6
CONTINUOUS
370
    -2
100
AcDbLine
 10
2448.83494359
 20
-1698.00470457
 30
0.0
 11
2448.13866291
 21
-1697.99299152
 31
0.0
  0
LINE
  5
3FB
100
AcDbEntity
  8
Sc.1_5
 62
     9
  6
CONTINUOUS
370
    -2
100
AcDbLine
 10
2453.45374619
 20
-1695.33803769
 30
0.0
 11
2452.75746551
 21
-1695.32632464
 31
0.0
  0
LINE
  5
3FC
100
AcDbEntity
  8
Sc.1_5
 62
     9
  6
CONTINUOUS
370
    -2
100
AcDbLine
 10
2447.61587683
 20
-1681.08749527
 30
0.0
 11
2447.46260253
 21
-1681.65952272
 31
0.0
  0
LINE
  5
3FD
100
AcDbEntity
  8
Sc.1_5
 62
     9
  6
CONTINUOUS
370
    -2
100
AcDbLine
 10
2442.99707383
 20
-1683.75416243
 30
0.0
 11
2442.84379953
 21
-1684.32618987
 31
0.0
  0
LINE
  5
3FE
100
AcDbEntity
  8
Sc.1_5
 62
     9
  6
CONTINUOUS
370
    -2
100
AcDbLine
 10
2438.37827083
 20
-1686.42082958
 30
0.0
 11
2438.22499653
 21
-1686.99285703
 31
0.0
  0
LINE
  5
3FF
100
AcDbEntity
  8
Sc.1_5
 62
     9
  6
CONTINUOUS
370
    -2
100
AcDbLine
 10
2433.75946783
 20
-1689.08749674
 30
0.0
 11
2433.60619353
 21
-1689.65952418
 31
0.0
  0
LINE
  5
400
100
AcDbEntity
  8
Sc.1_5
 62
     9
  6
CONTINUOUS
370
    -2
100
AcDbLine
 10
2429.14066483
 20
-1691.75416389
 30
0.0
 11
2428.98739054
 21
-1692.32619134
 31
0.0
  0
LINE
  5
401
100
AcDbEntity
  8
Sc.1_5
 62
     9
  6
CONTINUOUS
370
    -2
100
AcDbLine
 10
2445.86115431
 20
-1682.10058479
 30
0.0
 11
2446.43318176
 21
-1682.25385908
 31
0.0
  0
LINE
  5
402
100
AcDbEntity
  8
Sc.1_5
 62
     9
  6
CONTINUOUS
370
    -2
100
AcDbLine
 10
2441.24235131
 20
-1684.76725194
 30
0.0
 11
2441.81437876
 21
-1684.92052624
 31
0.0
  0
LINE
  5
403
100
AcDbEntity
  8
Sc.1_5
 62
     9
  6
CONTINUOUS
370
    -2
100
AcDbLine
 10
2436.62354831
 20
-1687.4339191
 30
0.0
 11
2437.19557576
 21
-1687.58719339
 31
0.0
  0
LINE
  5
404
100
AcDbEntity
  8
Sc.1_5
 62
     9
  6
CONTINUOUS
370
    -2
100
AcDbLine
 10
2432.00474531
 20
-1690.10058625
 30
0.0
 11
2432.57677276
 21
-1690.25386055
 31
0.0
  0
LINE
  5
405
100
AcDbEntity
  8
Sc.1_5
 62
     9
  6
CONTINUOUS
370
    -2
100
AcDbLine
 10
2427.38594231
 20
-1692.76725341
 30
0.0
 11
2427.95796976
 21
-1692.9205277
 31
0.0
  0
LINE
  5
406
100
AcDbEntity
  8
Sc.1_5
 62
     9
  6
CONTINUOUS
370
    -2
100
AcDbLine
 10
2455.77482169
 20
-1693.10071902
 30
0.0
 11
2455.6215474
 21
-1693.67274646
 31
0.0
  0
LINE
  5
407
100
AcDbEntity
  8
Sc.1_5
 62
     9
  6
CONTINUOUS
370
    -2
100
AcDbLine
 10
2451.15601869
 20
-1695.76738617
 30
0.0
 11
2451.0027444
 21
-1696.33941362
 31
0.0
  0
LINE
  5
408
100
AcDbEntity
  8
Sc.1_5
 62
     9
  6
CONTINUOUS
370
    -2
100
AcDbLine
 10
2446.53721569
 20
-1698.43405333
 30
0.0
 11
2446.3839414
 21
-1699.00608078
 31
0.0
  0
LINE
  5
409
100
AcDbEntity
  8
Sc.1_5
 62
     9
  6
CONTINUOUS
370
    -2
100
AcDbLine
 10
2441.91841269
 20
-1701.10072048
 30
0.0
 11
2441.7651384
 21
-1701.67274793
 31
0.0
  0
LINE
  5
40A
100
AcDbEntity
  8
Sc.1_5
 62
     9
  6
CONTINUOUS
370
    -2
100
AcDbLine
 10
2437.29960969
 20
-1703.76738764
 30
0.0
 11
2437.1463354
 21
-1704.33941509
 31
0.0
  0
LINE
  5
40B
100
AcDbEntity
  8
Sc.1_5
 62
     9
  6
CONTINUOUS
370
    -2
100
AcDbLine
 10
2434.28225357
 20
-1705.99299163
 30
0.0
 11
2433.71022612
 21
-1705.83971733
 31
0.0
  0
LINE
  5
40C
100
AcDbEntity
  8
Sc.1_5
 62
     9
  6
CONTINUOUS
370
    -2
100
AcDbLine
 10
2438.90105656
 20
-1703.32632447
 30
0.0
 11
2438.32902912
 21
-1703.17305018
 31
0.0
  0
LINE
  5
40D
100
AcDbEntity
  8
Sc.1_5
 62
     9
  6
CONTINUOUS
370
    -2
100
AcDbLine
 10
2443.51985956
 20
-1700.65965732
 30
0.0
 11
2442.94783212
 21
-1700.50638302
 31
0.0
  0
LINE
  5
40E
100
AcDbEntity
  8
Sc.1_5
 62
     9
  6
CONTINUOUS
370
    -2
100
AcDbLine
 10
2448.13866256
 20
-1697.99299016
 30
0.0
 11
2447.56663512
 21
-1697.83971587
 31
0.0
  0
LINE
  5
40F
100
AcDbEntity
  8
Sc.1_5
 62
     9
  6
CONTINUOUS
370
    -2
100
AcDbLine
 10
2452.75746556
 20
-1695.32632301
 30
0.0
 11
2452.18543812
 21
-1695.17304871
 31
0.0
  0
LINE
  5
410
100
AcDbEntity
  8
Sc.1_5
 62
     9
  6
CONTINUOUS
370
    -2
100
AcDbLine
 10
2447.46260155
 20
-1681.65952196
 30
0.0
 11
2447.42262371
 21
-1682.27940058
 31
0.0
  0
LINE
  5
411
100
AcDbEntity
  8
Sc.1_5
 62
     9
  6
CONTINUOUS
370
    -2
100
AcDbLine
 10
2442.8437994
 20
-1684.32618933
 30
0.0
 11
2442.80382155
 21
-1684.94606795
 31
0.0
  0
LINE
  5
412
100
AcDbEntity
  8
Sc.1_5
 62
     9
  6
CONTINUOUS
370
    -2
100
AcDbLine
 10
2438.22499724
 20
-1686.99285669
 30
0.0
 11
2438.1850194
 21
-1687.61273531
 31
0.0
  0
LINE
  5
413
100
AcDbEntity
  8
Sc.1_5
 62
     9
  6
CONTINUOUS
370
    -2
100
AcDbLine
 10
2433.60619509
 20
-1689.65952405
 30
0.0
 11
2433.56621725
 21
-1690.27940268
 31
0.0
  0
LINE
  5
414
100
AcDbEntity
  8
Sc.1_5
 62
     9
  6
CONTINUOUS
370
    -2
100
AcDbLine
 10
2428.98739294
 20
-1692.32619142
 30
0.0
 11
2428.94741509
 21
-1692.94607004
 31
0.0
  0
LINE
  5
415
100
AcDbEntity
  8
Sc.1_5
 62
     9
  6
CONTINUOUS
370
    -2
100
AcDbLine
 10
2446.43318166
 20
-1682.2538567
 30
0.0
 11
2446.9900012
 21
-1682.52917423
 31
0.0
  0
LINE
  5
416
100
AcDbEntity
  8
Sc.1_5
 62
     9
  6
CONTINUOUS
370
    -2
100
AcDbLine
 10
2441.81437873
 20
-1684.92052272
 30
0.0
 11
2442.37119826
 21
-1685.19584024
 31
0.0
  0
LINE
  5
417
100
AcDbEntity
  8
Sc.1_5
 62
     9
  6
CONTINUOUS
370
    -2
100
AcDbLine
 10
2437.19557579
 20
-1687.58718873
 30
0.0
 11
2437.75239533
 21
-1687.86250625
 31
0.0
  0
LINE
  5
418
100
AcDbEntity
  8
Sc.1_5
 62
     9
  6
CONTINUOUS
370
    -2
100
AcDbLine
 10
2432.57677286
 20
-1690.25385474
 30
0.0
 11
2433.13359239
 21
-1690.52917226
 31
0.0
  0
LINE
  5
419
100
AcDbEntity
  8
Sc.1_5
 62
     9
  6
CONTINUOUS
370
    -2
100
AcDbLine
 10
2427.95796992
 20
-1692.92052075
 30
0.0
 11
2428.51478946
 21
-1693.19583827
 31
0.0
  0
LINE
  5
41A
100
AcDbEntity
  8
Sc.1_5
 62
     9
  6
CONTINUOUS
370
    -2
100
AcDbLine
 10
2455.81479944
 20
-1692.48083935
 30
0.0
 11
2455.7748216
 21
-1693.10071797
 31
0.0
  0
LINE
  5
41B
100
AcDbEntity
  8
Sc.1_5
 62
     9
  6
CONTINUOUS
370
    -2
100
AcDbLine
 10
2451.19599729
 20
-1695.14750672
 30
0.0
 11
2451.15601945
 21
-1695.76738534
 31
0.0
  0
LINE
  5
41C
100
AcDbEntity
  8
Sc.1_5
 62
     9
  6
CONTINUOUS
370
    -2
100
AcDbLine
 10
2446.57719513
 20
-1697.81417408
 30
0.0
 11
2446.53721729
 21
-1698.4340527
 31
0.0
  0
LINE
  5
41D
100
AcDbEntity
  8
Sc.1_5
 62
     9
  6
CONTINUOUS
370
    -2
100
AcDbLine
 10
2441.95839298
 20
-1700.48084144
 30
0.0
 11
2441.91841514
 21
-1701.10072007
 31
0.0
  0
LINE
  5
41E
100
AcDbEntity
  8
Sc.1_5
 62
     9
  6
CONTINUOUS
370
    -2
100
AcDbLine
 10
2437.33959083
 20
-1703.14750881
 30
0.0
 11
2437.29961298
 21
-1703.76738743
 31
0.0
  0
LINE
  5
41F
100
AcDbEntity
  8
Sc.1_5
 62
     9
  6
CONTINUOUS
370
    -2
100
AcDbLine
 10
2432.72078867
 20
-1705.81417617
 30
0.0
 11
2432.69172461
 21
-1706.26483063
 31
0.0
  0
LINE
  5
420
100
AcDbEntity
  8
Sc.1_5
 62
     9
  6
CONTINUOUS
370
    -2
100
AcDbLine
 10
2433.71022765
 20
-1705.83971553
 30
0.0
 11
2433.1534081
 21
-1705.56439805
 31
0.0
  0
LINE
  5
421
100
AcDbEntity
  8
Sc.1_5
 62
     9
  6
CONTINUOUS
370
    -2
100
AcDbLine
 10
2438.32903041
 20
-1703.17304922
 30
0.0
 11
2437.77221086
 21
-1702.89773173
 31
0.0
  0
LINE
  5
422
100
AcDbEntity
  8
Sc.1_5
 62
     9
  6
CONTINUOUS
370
    -2
100
AcDbLine
 10
2442.94783317
 20
-1700.5063829
 30
0.0
 11
2442.39101361
 21
-1700.23106541
 31
0.0
  0
LINE
  5
423
100
AcDbEntity
  8
Sc.1_5
 62
     9
  6
CONTINUOUS
370
    -2
100
AcDbLine
 10
2447.56663592
 20
-1697.83971658
 30
0.0
 11
2447.00981637
 21
-1697.5643991
 31
0.0
  0
LINE
  5
424
100
AcDbEntity
  8
Sc.1_5
 62
     9
  6
CONTINUOUS
370
    -2
100
AcDbLine
 10
2452.18543868
 20
-1695.17305026
 30
0.0
 11
2451.62861913
 21
-1694.89773278
 31
0.0
  0
LINE
  5
425
100
AcDbEntity
  8
Sc.1_5
 62
     9
  6
CONTINUOUS
370
    -2
100
AcDbLine
 10
2447.42262327
 20
-1682.27940072
 30
0.0
 11
2447.58097386
 21
-1683.05322086
 31
0.0
  0
LINE
  5
426
100
AcDbEntity
  8
Sc.1_5
 62
     9
  6
CONTINUOUS
370
    -2
100
AcDbLine
 10
2442.80382062
 20
-1684.94606798
 30
0.0
 11
2442.96217121
 21
-1685.71988813
 31
0.0
  0
LINE
  5
427
100
AcDbEntity
  8
Sc.1_5
 62
     9
  6
CONTINUOUS
370
    -2
100
AcDbLine
 10
2438.18501797
 20
-1687.61273524
 30
0.0
 11
2438.34336856
 21
-1688.38655539
 31
0.0
  0
LINE
  5
428
100
AcDbEntity
  8
Sc.1_5
 62
     9
  6
CONTINUOUS
370
    -2
100
AcDbLine
 10
2433.56621532
 20
-1690.2794025
 30
0.0
 11
2433.72456591
 21
-1691.05322265
 31
0.0
  0
LINE
  5
429
100
AcDbEntity
  8
Sc.1_5
 62
     9
  6
CONTINUOUS
370
    -2
100
AcDbLine
 10
2428.94741267
 20
-1692.94606977
 30
0.0
 11
2429.10576326
 21
-1693.71988991
 31
0.0
  0
LINE
  5
42A
100
AcDbEntity
  8
Sc.1_5
 62
     9
  6
CONTINUOUS
370
    -2
100
AcDbLine
 10
2446.99000157
 20
-1682.52917467
 30
0.0
 11
2447.58097418
 21
-1683.05322037
 31
0.0
  0
LINE
  5
42B
100
AcDbEntity
  8
Sc.1_5
 62
     9
  6
CONTINUOUS
370
    -2
100
AcDbLine
 10
2442.37119865
 20
-1685.19584146
 30
0.0
 11
2442.96217126
 21
-1685.71988717
 31
0.0
  0
LINE
  5
42C
100
AcDbEntity
  8
Sc.1_5
 62
     9
  6
CONTINUOUS
370
    -2
100
AcDbLine
 10
2437.75239573
 20
-1687.86250826
 30
0.0
 11
2438.34336835
 21
-1688.38655397
 31
0.0
  0
LINE
  5
42D
100
AcDbEntity
  8
Sc.1_5
 62
     9
  6
CONTINUOUS
370
    -2
100
AcDbLine
 10
2433.13359282
 20
-1690.52917506
 30
0.0
 11
2433.72456543
 21
-1691.05322077
 31
0.0
  0
LINE
  5
42E
100
AcDbEntity
  8
Sc.1_5
 62
     9
  6
CONTINUOUS
370
    -2
100
AcDbLine
 10
2428.5147899
 20
-1693.19584186
 30
0.0
 11
2429.10576251
 21
-1693.71988756
 31
0.0
  0
LINE
  5
42F
100
AcDbEntity
  8
Sc.1_5
 62
     9
  6
CONTINUOUS
370
    -2
100
AcDbLine
 10
2455.65644917
 20
-1691.70701981
 30
0.0
 11
2455.81479975
 21
-1692.48083995
 31
0.0
  0
LINE
  5
430
100
AcDbEntity
  8
Sc.1_5
 62
     9
  6
CONTINUOUS
370
    -2
100
AcDbLine
 10
2451.03764652
 20
-1694.37368707
 30
0.0
 11
2451.1959971
 21
-1695.14750722
 31
0.0
  0
LINE
  5
431
100
AcDbEntity
  8
Sc.1_5
 62
     9
  6
CONTINUOUS
370
    -2
100
AcDbLine
 10
2446.41884387
 20
-1697.04035433
 30
0.0
 11
2446.57719445
 21
-1697.81417448
 31
0.0
  0
LINE
  5
432
100
AcDbEntity
  8
Sc.1_5
 62
     9
  6
CONTINUOUS
370
    -2
100
AcDbLine
 10
2441.80004122
 20
-1699.70702159
 30
0.0
 11
2441.95839181
 21
-1700.48084174
 31
0.0
  0
LINE
  5
433
100
AcDbEntity
  8
Sc.1_5
 62
     9
  6
CONTINUOUS
370
    -2
100
AcDbLine
 10
2437.18123857
 20
-1702.37368886
 30
0.0
 11
2437.33958916
 21
-1703.147509
 31
0.0
  0
LINE
  5
434
100
AcDbEntity
  8
Sc.1_5
 62
     9
  6
CONTINUOUS
370
    -2
100
AcDbLine
 10
2432.56243592
 20
-1705.04035612
 30
0.0
 11
2432.72078651
 21
-1705.81417626
 31
0.0
  0
LINE
  5
435
100
AcDbEntity
  8
Sc.1_5
 62
     9
  6
CONTINUOUS
370
    -2
100
AcDbLine
 10
2433.15340809
 20
-1705.56439852
 30
0.0
 11
2432.56243548
 21
-1705.04035281
 31
0.0
  0
LINE
  5
436
100
AcDbEntity
  8
Sc.1_5
 62
     9
  6
CONTINUOUS
370
    -2
100
AcDbLine
 10
2437.772211
 20
-1702.89773172
 30
0.0
 11
2437.18123839
 21
-1702.37368601
 31
0.0
  0
LINE
  5
437
100
AcDbEntity
  8
Sc.1_5
 62
     9
  6
CONTINUOUS
370
    -2
100
AcDbLine
 10
2442.39101392
 20
-1700.23106492
 30
0.0
 11
2441.80004131
 21
-1699.70701922
 31
0.0
  0
LINE
  5
438
100
AcDbEntity
  8
Sc.1_5
 62
     9
  6
CONTINUOUS
370
    -2
100
AcDbLine
 10
2447.00981684
 20
-1697.56439812
 30
0.0
 11
2446.41884423
 21
-1697.04035242
 31
0.0
  0
LINE
  5
439
100
AcDbEntity
  8
Sc.1_5
 62
     9
  6
CONTINUOUS
370
    -2
100
AcDbLine
 10
2451.62861976
 20
-1694.89773132
 30
0.0
 11
2451.03764714
 21
-1694.37368562
 31
0.0
  0
LINE
  5
43A
100
AcDbEntity
  8
Sc.1_5
 62
     9
  6
CONTINUOUS
370
    -2
100
AcDbLine
 10
2447.79734663
 20
-1683.42798976
 30
0.0
 11
2448.02831807
 21
-1683.95516192
 31
0.0
  0
LINE
  5
43B
100
AcDbEntity
  8
Sc.1_5
 62
     9
  6
CONTINUOUS
370
    -2
100
AcDbLine
 10
2443.17854793
 20
-1686.09466196
 30
0.0
 11
2443.40951937
 21
-1686.62183412
 31
0.0
  0
LINE
  5
43C
100
AcDbEntity
  8
Sc.1_5
 62
     9
  6
CONTINUOUS
370
    -2
100
AcDbLine
 10
2438.55974922
 20
-1688.76133416
 30
0.0
 11
2438.79072066
 21
-1689.28850632
 31
0.0
  0
LINE
  5
43D
100
AcDbEntity
  8
Sc.1_5
 62
     9
  6
CONTINUOUS
370
    -2
100
AcDbLine
 10
2433.94095052
 20
-1691.42800637
 30
0.0
 11
2434.17192196
 21
-1691.95517852
 31
0.0
  0
LINE
  5
43E
100
AcDbEntity
  8
Sc.1_5
 62
     9
  6
CONTINUOUS
370
    -2
100
AcDbLine
 10
2429.32215181
 20
-1694.09467857
 30
0.0
 11
2429.55312326
 21
-1694.62185072
 31
0.0
  0
LINE
  5
43F
100
AcDbEntity
  8
Sc.1_5
 62
     9
  6
CONTINUOUS
370
    -2
100
AcDbLine
 10
2447.79734487
 20
-1683.42798325
 30
0.0
 11
2448.13840363
 21
-1683.89159646
 31
0.0
  0
LINE
  5
440
100
AcDbEntity
  8
Sc.1_5
 62
     9
  6
CONTINUOUS
370
    -2
100
AcDbLine
 10
2443.17853965
 20
-1686.09464416
 30
0.0
 11
2443.51959841
 21
-1686.55825738
 31
0.0
  0
LINE
  5
441
100
AcDbEntity
  8
Sc.1_5
 62
     9
  6
CONTINUOUS
370
    -2
100
AcDbLine
 10
2438.55973443
 20
-1688.76130507
 30
0.0
 11
2438.90079319
 21
-1689.22491829
 31
0.0
  0
LINE
  5
442
100
AcDbEntity
  8
Sc.1_5
 62
     9
  6
CONTINUOUS
370
    -2
100
AcDbLine
 10
2433.94092921
 20
-1691.42796599
 30
0.0
 11
2434.28198797
 21
-1691.8915792
 31
0.0
  0
LINE
  5
443
100
AcDbEntity
  8
Sc.1_5
 62
     9
  6
CONTINUOUS
370
    -2
100
AcDbLine
 10
2429.32212399
 20
-1694.0946269
 30
0.0
 11
2429.66318274
 21
-1694.55824011
 31
0.0
  0
LINE
  5
444
100
AcDbEntity
  8
Sc.1_5
 62
     9
  6
CONTINUOUS
370
    -2
100
AcDbLine
 10
2432.3460888
 20
-1704.66562245
 30
0.0
 11
2432.11511722
 21
-1704.13845035
 31
0.0
  0
LINE
  5
445
100
AcDbEntity
  8
Sc.1_5
 62
     9
  6
CONTINUOUS
370
    -2
100
AcDbLine
 10
2436.9648868
 20
-1701.99894902
 30
0.0
 11
2436.73391521
 21
-1701.47177692
 31
0.0
  0
LINE
  5
446
100
AcDbEntity
  8
Sc.1_5
 62
     9
  6
CONTINUOUS
370
    -2
100
AcDbLine
 10
2441.58368479
 20
-1699.33227558
 30
0.0
 11
2441.35271321
 21
-1698.80510349
 31
0.0
  0
LINE
  5
447
100
AcDbEntity
  8
Sc.1_5
 62
     9
  6
CONTINUOUS
370
    -2
100
AcDbLine
 10
2446.20248278
 20
-1696.66560215
 30
0.0
 11
2445.9715112
 21
-1696.13843006
 31
0.0
  0
LINE
  5
448
100
AcDbEntity
  8
Sc.1_5
 62
     9
  6
CONTINUOUS
370
    -2
100
AcDbLine
 10
2450.82128078
 20
-1693.99892872
 30
0.0
 11
2450.5903092
 21
-1693.47175663
 31
0.0
  0
LINE
  5
449
100
AcDbEntity
  8
Sc.1_5
 62
     9
  6
CONTINUOUS
370
    -2
100
AcDbLine
 10
2432.34605266
 20
-1704.66555985
 30
0.0
 11
2432.00499391
 21
-1704.20194664
 31
0.0
  0
LINE
  5
44A
100
AcDbEntity
  8
Sc.1_5
 62
     9
  6
CONTINUOUS
370
    -2
100
AcDbLine
 10
2436.96485788
 20
-1701.99889894
 30
0.0
 11
2436.62379913
 21
-1701.53528573
 31
0.0
  0
LINE
  5
44B
100
AcDbEntity
  8
Sc.1_5
 62
     9
  6
CONTINUOUS
370
    -2
100
AcDbLine
 10
2441.58366311
 20
-1699.33223803
 30
0.0
 11
2441.24260435
 21
-1698.86862481
 31
0.0
  0
LINE
  5
44C
100
AcDbEntity
  8
Sc.1_5
 62
     9
  6
CONTINUOUS
370
    -2
100
AcDbLine
 10
2446.20246833
 20
-1696.66557712
 30
0.0
 11
2445.86140957
 21
-1696.2019639
 31
0.0
  0
LINE
  5
44D
100
AcDbEntity
  8
Sc.1_5
 62
     9
  6
CONTINUOUS
370
    -2
100
AcDbLine
 10
2450.82127355
 20
-1693.9989162
 30
0.0
 11
2450.48021479
 21
-1693.53530299
 31
0.0
  0
LINE
  5
44E
100
AcDbEntity
  8
Sc.1_5
 62
     9
  6
CONTINUOUS
370
    -2
100
AcDbLine
 10
2455.44007877
 20
-1691.33225529
 30
0.0
 11
2455.09902002
 21
-1690.86864208
 31
0.0
  0
ENDBLK
  5
44F
100
AcDbEntity
100
AcDbBlockEnd
  0
BLOCK
  5
450
100
AcDbEntity
  8
Sc.1_5
100
AcDbBlockBegin
  2
*X2528
 70
     1
 10
0.0
 20
0.0
 30
0.0
  3
*X2528
  1

  4
Cadwork hatch
  0
LINE
  5
451
100
AcDbEntity
  8
Sc.1_5
 62
     9
  6
CONTINUOUS
370
    -2
100
AcDbLine
 10
2429.88883717
 20
-1837.3348925
 30
0.0
 11
2429.57956572
 21
-1837.51345046
 31
0.0
  0
LINE
  5
452
100
AcDbEntity
  8
Sc.1_5
 62
     9
  6
CONTINUOUS
370
    -2
100
AcDbLine
 10
2427.88870581
 20
-1838.48966888
 30
0.0
 11
2427.27016413
 21
-1838.84678409
 31
0.0
  0
LINE
  5
453
100
AcDbEntity
  8
Sc.1_5
 62
     9
  6
CONTINUOUS
370
    -2
100
AcDbLine
 10
2425.57930421
 20
-1839.82300252
 30
0.0
 11
2424.96076254
 21
-1840.18011772
 31
0.0
  0
LINE
  5
454
100
AcDbEntity
  8
Sc.1_5
 62
     9
  6
CONTINUOUS
370
    -2
100
AcDbLine
 10
2423.26990262
 20
-1841.15633615
 30
0.0
 11
2422.65136094
 21
-1841.51345135
 31
0.0
  0
LINE
  5
455
100
AcDbEntity
  8
Sc.1_5
 62
     9
  6
CONTINUOUS
370
    -2
100
AcDbLine
 10
2420.96050103
 20
-1842.48966978
 30
0.0
 11
2420.34195935
 21
-1842.84678498
 31
0.0
  0
LINE
  5
456
100
AcDbEntity
  8
Sc.1_5
 62
     9
  6
CONTINUOUS
370
    -2
100
AcDbLine
 10
2418.65109943
 20
-1843.82300341
 30
0.0
 11
2418.03255776
 21
-1844.18011861
 31
0.0
  0
LINE
  5
457
100
AcDbEntity
  8
Sc.1_5
 62
     9
  6
CONTINUOUS
370
    -2
100
AcDbLine
 10
2416.34169784
 20
-1845.15633704
 30
0.0
 11
2415.72315617
 21
-1845.51345224
 31
0.0
  0
LINE
  5
458
100
AcDbEntity
  8
Sc.1_5
 62
     9
  6
CONTINUOUS
370
    -2
100
AcDbLine
 10
2414.03229625
 20
-1846.48967067
 30
0.0
 11
2413.41375457
 21
-1846.84678587
 31
0.0
  0
LINE
  5
459
100
AcDbEntity
  8
Sc.1_5
 62
     9
  6
CONTINUOUS
370
    -2
100
AcDbLine
 10
2411.72289465
 20
-1847.8230043
 30
0.0
 11
2411.10435298
 21
-1848.18011951
 31
0.0
  0
LINE
  5
45A
100
AcDbEntity
  8
Sc.1_5
 62
     9
  6
CONTINUOUS
370
    -2
100
AcDbLine
 10
2409.41349306
 20
-1849.15633794
 30
0.0
 11
2408.79495139
 21
-1849.51345314
 31
0.0
  0
LINE
  5
45B
100
AcDbEntity
  8
Sc.1_5
 62
     9
  6
CONTINUOUS
370
    -2
100
AcDbLine
 10
2407.10409147
 20
-1850.48967157
 30
0.0
 11
2406.48554979
 21
-1850.84678677
 31
0.0
  0
LINE
  5
45C
100
AcDbEntity
  8
Sc.1_5
 62
     9
  6
CONTINUOUS
370
    -2
100
AcDbLine
 10
2404.79468988
 20
-1851.8230052
 30
0.0
 11
2404.1761482
 21
-1852.1801204
 31
0.0
  0
LINE
  5
45D
100
AcDbEntity
  8
Sc.1_5
 62
     9
  6
CONTINUOUS
370
    -2
100
AcDbLine
 10
2402.48528828
 20
-1853.15633883
 30
0.0
 11
2401.86674661
 21
-1853.51345403
 31
0.0
  0
LINE
  5
45E
100
AcDbEntity
  8
Sc.1_5
 62
     9
  6
CONTINUOUS
370
    -2
100
AcDbLine
 10
2400.17588669
 20
-1854.48967246
 30
0.0
 11
2399.55734501
 21
-1854.84678766
 31
0.0
  0
LINE
  5
45F
100
AcDbEntity
  8
Sc.1_5
 62
     9
  6
CONTINUOUS
370
    -2
100
AcDbLine
 10
2397.8664851
 20
-1855.82300609
 30
0.0
 11
2397.24794342
 21
-1856.18012129
 31
0.0
  0
LINE
  5
460
100
AcDbEntity
  8
Sc.1_5
 62
     9
  6
CONTINUOUS
370
    -2
100
AcDbLine
 10
2395.5570835
 20
-1857.15633972
 30
0.0
 11
2394.93854183
 21
-1857.51345493
 31
0.0
  0
LINE
  5
461
100
AcDbEntity
  8
Sc.1_5
 62
     9
  6
CONTINUOUS
370
    -2
100
AcDbLine
 10
2393.24768191
 20
-1858.48967335
 30
0.0
 11
2392.62914024
 21
-1858.84678856
 31
0.0
  0
LINE
  5
462
100
AcDbEntity
  8
Sc.1_5
 62
     9
  6
CONTINUOUS
370
    -2
100
AcDbLine
 10
2390.93828032
 20
-1859.82300699
 30
0.0
 11
2390.31973864
 21
-1860.18012219
 31
0.0
  0
LINE
  5
463
100
AcDbEntity
  8
Sc.1_5
 62
     9
  6
CONTINUOUS
370
    -2
100
AcDbLine
 10
2388.62887872
 20
-1861.15634062
 30
0.0
 11
2388.01033705
 21
-1861.51345582
 31
0.0
  0
LINE
  5
464
100
AcDbEntity
  8
Sc.1_5
 62
     9
  6
CONTINUOUS
370
    -2
100
AcDbLine
 10
2386.31947713
 20
-1862.48967425
 30
0.0
 11
2385.70093546
 21
-1862.84678945
 31
0.0
  0
LINE
  5
465
100
AcDbEntity
  8
Sc.1_5
 62
     9
  6
CONTINUOUS
370
    -2
100
AcDbLine
 10
2384.01007554
 20
-1863.82300788
 30
0.0
 11
2383.39153386
 21
-1864.18012308
 31
0.0
  0
LINE
  5
466
100
AcDbEntity
  8
Sc.1_5
 62
     9
  6
CONTINUOUS
370
    -2
100
AcDbLine
 10
2381.70067395
 20
-1865.15634151
 30
0.0
 11
2381.08213227
 21
-1865.51345671
 31
0.0
  0
LINE
  5
467
100
AcDbEntity
  8
Sc.1_5
 62
     9
  6
CONTINUOUS
370
    -2
100
AcDbLine
 10
2379.39127235
 20
-1866.48967514
 30
0.0
 11
2378.77273068
 21
-1866.84679035
 31
0.0
  0
LINE
  5
468
100
AcDbEntity
  8
Sc.1_5
 62
     9
  6
CONTINUOUS
370
    -2
100
AcDbLine
 10
2377.08187076
 20
-1867.82300877
 30
0.0
 11
2376.46332909
 21
-1868.18012398
 31
0.0
  0
LINE
  5
469
100
AcDbEntity
  8
Sc.1_5
 62
     9
  6
CONTINUOUS
370
    -2
100
AcDbLine
 10
2374.77246917
 20
-1869.15634241
 30
0.0
 11
2374.15392749
 21
-1869.51345761
 31
0.0
  0
LINE
  5
46A
100
AcDbEntity
  8
Sc.1_5
 62
     9
  6
CONTINUOUS
370
    -2
100
AcDbLine
 10
2372.46306757
 20
-1870.48967604
 30
0.0
 11
2371.8445259
 21
-1870.84679124
 31
0.0
  0
LINE
  5
46B
100
AcDbEntity
  8
Sc.1_5
 62
     9
  6
CONTINUOUS
370
    -2
100
AcDbLine
 10
2370.15366598
 20
-1871.82300967
 30
0.0
 11
2369.53512431
 21
-1872.18012487
 31
0.0
  0
LINE
  5
46C
100
AcDbEntity
  8
Sc.1_5
 62
     9
  6
CONTINUOUS
370
    -2
100
AcDbLine
 10
2420.6963986
 20
-1826.74645769
 30
0.0
 11
2420.912769
 21
-1827.12122221
 31
0.0
  0
LINE
  5
46D
100
AcDbEntity
  8
Sc.1_5
 62
     9
  6
CONTINUOUS
370
    -2
100
AcDbLine
 10
2416.07759682
 20
-1829.41312415
 30
0.0
 11
2416.29396722
 21
-1829.78788866
 31
0.0
  0
LINE
  5
46E
100
AcDbEntity
  8
Sc.1_5
 62
     9
  6
CONTINUOUS
370
    -2
100
AcDbLine
 10
2411.45879504
 20
-1832.0797906
 30
0.0
 11
2411.67516543
 21
-1832.45455512
 31
0.0
  0
LINE
  5
46F
100
AcDbEntity
  8
Sc.1_5
 62
     9
  6
CONTINUOUS
370
    -2
100
AcDbLine
 10
2406.83999326
 20
-1834.74645705
 30
0.0
 11
2407.05636365
 21
-1835.12122157
 31
0.0
  0
LINE
  5
470
100
AcDbEntity
  8
Sc.1_5
 62
     9
  6
CONTINUOUS
370
    -2
100
AcDbLine
 10
2402.22119147
 20
-1837.4131235
 30
0.0
 11
2402.43756187
 21
-1837.78788802
 31
0.0
  0
LINE
  5
471
100
AcDbEntity
  8
Sc.1_5
 62
     9
  6
CONTINUOUS
370
    -2
100
AcDbLine
 10
2397.60238969
 20
-1840.07978996
 30
0.0
 11
2397.81876009
 21
-1840.45455447
 31
0.0
  0
LINE
  5
472
100
AcDbEntity
  8
Sc.1_5
 62
     9
  6
CONTINUOUS
370
    -2
100
AcDbLine
 10
2392.98358791
 20
-1842.74645641
 30
0.0
 11
2393.19995831
 21
-1843.12122092
 31
0.0
  0
LINE
  5
473
100
AcDbEntity
  8
Sc.1_5
 62
     9
  6
CONTINUOUS
370
    -2
100
AcDbLine
 10
2388.36478613
 20
-1845.41312286
 30
0.0
 11
2388.58115652
 21
-1845.78788738
 31
0.0
  0
LINE
  5
474
100
AcDbEntity
  8
Sc.1_5
 62
     9
  6
CONTINUOUS
370
    -2
100
AcDbLine
 10
2383.74598435
 20
-1848.07978931
 30
0.0
 11
2383.96235474
 21
-1848.45455383
 31
0.0
  0
LINE
  5
475
100
AcDbEntity
  8
Sc.1_5
 62
     9
  6
CONTINUOUS
370
    -2
100
AcDbLine
 10
2379.12718257
 20
-1850.74645576
 30
0.0
 11
2379.34355296
 21
-1851.12122028
 31
0.0
  0
LINE
  5
476
100
AcDbEntity
  8
Sc.1_5
 62
     9
  6
CONTINUOUS
370
    -2
100
AcDbLine
 10
2374.50838078
 20
-1853.41312222
 30
0.0
 11
2374.72475118
 21
-1853.78788673
 31
0.0
  0
LINE
  5
477
100
AcDbEntity
  8
Sc.1_5
 62
     9
  6
CONTINUOUS
370
    -2
100
AcDbLine
 10
2369.889579
 20
-1856.07978867
 30
0.0
 11
2370.1059494
 21
-1856.45455319
 31
0.0
  0
LINE
  5
478
100
AcDbEntity
  8
Sc.1_5
 62
     9
  6
CONTINUOUS
370
    -2
100
AcDbLine
 10
2365.27077722
 20
-1858.74645512
 30
0.0
 11
2365.48714761
 21
-1859.12121964
 31
0.0
  0
LINE
  5
479
100
AcDbEntity
  8
Sc.1_5
 62
     9
  6
CONTINUOUS
370
    -2
100
AcDbLine
 10
2428.55550259
 20
-1835.02549267
 30
0.0
 11
2428.77187298
 21
-1835.40025719
 31
0.0
  0
LINE
  5
47A
100
AcDbEntity
  8
Sc.1_5
 62
     9
  6
CONTINUOUS
370
    -2
100
AcDbLine
 10
2423.93670081
 20
-1837.69215912
 30
0.0
 11
2424.1530712
 21
-1838.06692364
 31
0.0
  0
LINE
  5
47B
100
AcDbEntity
  8
Sc.1_5
 62
     9
  6
CONTINUOUS
370
    -2
100
AcDbLine
 10
2419.31789902
 20
-1840.35882557
 30
0.0
 11
2419.53426942
 21
-1840.73359009
 31
0.0
  0
LINE
  5
47C
100
AcDbEntity
  8
Sc.1_5
 62
     9
  6
CONTINUOUS
370
    -2
100
AcDbLine
 10
2414.69909724
 20
-1843.02549202
 30
0.0
 11
2414.91546764
 21
-1843.40025654
 31
0.0
  0
LINE
  5
47D
100
AcDbEntity
  8
Sc.1_5
 62
     9
  6
CONTINUOUS
370
    -2
100
AcDbLine
 10
2410.08029546
 20
-1845.69215848
 30
0.0
 11
2410.29666585
 21
-1846.06692299
 31
0.0
  0
LINE
  5
47E
100
AcDbEntity
  8
Sc.1_5
 62
     9
  6
CONTINUOUS
370
    -2
100
AcDbLine
 10
2405.46149368
 20
-1848.35882493
 30
0.0
 11
2405.67786407
 21
-1848.73358945
 31
0.0
  0
LINE
  5
47F
100
AcDbEntity
  8
Sc.1_5
 62
     9
  6
CONTINUOUS
370
    -2
100
AcDbLine
 10
2400.8426919
 20
-1851.02549138
 30
0.0
 11
2401.05906229
 21
-1851.4002559
 31
0.0
  0
LINE
  5
480
100
AcDbEntity
  8
Sc.1_5
 62
     9
  6
CONTINUOUS
370
    -2
100
AcDbLine
 10
2396.22389011
 20
-1853.69215783
 30
0.0
 11
2396.44026051
 21
-1854.06692235
 31
0.0
  0
LINE
  5
481
100
AcDbEntity
  8
Sc.1_5
 62
     9
  6
CONTINUOUS
370
    -2
100
AcDbLine
 10
2391.60508833
 20
-1856.35882429
 30
0.0
 11
2391.82145873
 21
-1856.7335888
 31
0.0
  0
LINE
  5
482
100
AcDbEntity
  8
Sc.1_5
 62
     9
  6
CONTINUOUS
370
    -2
100
AcDbLine
 10
2386.98628655
 20
-1859.02549074
 30
0.0
 11
2387.20265695
 21
-1859.40025525
 31
0.0
  0
LINE
  5
483
100
AcDbEntity
  8
Sc.1_5
 62
     9
  6
CONTINUOUS
370
    -2
100
AcDbLine
 10
2382.36748477
 20
-1861.69215719
 30
0.0
 11
2382.58385516
 21
-1862.06692171
 31
0.0
  0
LINE
  5
484
100
AcDbEntity
  8
Sc.1_5
 62
     9
  6
CONTINUOUS
370
    -2
100
AcDbLine
 10
2377.74868299
 20
-1864.35882364
 30
0.0
 11
2377.96505338
 21
-1864.73358816
 31
0.0
  0
LINE
  5
485
100
AcDbEntity
  8
Sc.1_5
 62
     9
  6
CONTINUOUS
370
    -2
100
AcDbLine
 10
2373.1298812
 20
-1867.02549009
 30
0.0
 11
2373.3462516
 21
-1867.40025461
 31
0.0
  0
LINE
  5
486
100
AcDbEntity
  8
Sc.1_5
 62
     9
  6
CONTINUOUS
370
    -2
100
AcDbLine
 10
2368.51107942
 20
-1869.69215655
 30
0.0
 11
2368.72744982
 21
-1870.06692106
 31
0.0
  0
LINE
  5
487
100
AcDbEntity
  8
Sc.1_5
 62
     9
  6
CONTINUOUS
370
    -2
100
AcDbLine
 10
2421.25382787
 20
-1827.58483368
 30
0.0
 11
2428.21444474
 21
-1834.56187909
 31
0.0
  0
LINE
  5
488
100
AcDbEntity
  8
Sc.1_5
 62
     9
  6
CONTINUOUS
370
    -2
100
AcDbLine
 10
2416.63502245
 20
-1830.25149166
 30
0.0
 11
2423.59563932
 21
-1837.22853707
 31
0.0
  0
LINE
  5
489
100
AcDbEntity
  8
Sc.1_5
 62
     9
  6
CONTINUOUS
370
    -2
100
AcDbLine
 10
2412.01621704
 20
-1832.91814965
 30
0.0
 11
2418.97683391
 21
-1839.89519506
 31
0.0
  0
LINE
  5
48A
100
AcDbEntity
  8
Sc.1_5
 62
     9
  6
CONTINUOUS
370
    -2
100
AcDbLine
 10
2407.39741162
 20
-1835.58480764
 30
0.0
 11
2414.35802849
 21
-1842.56185305
 31
0.0
  0
LINE
  5
48B
100
AcDbEntity
  8
Sc.1_5
 62
     9
  6
CONTINUOUS
370
    -2
100
AcDbLine
 10
2402.77860621
 20
-1838.25146563
 30
0.0
 11
2409.73922308
 21
-1845.22851104
 31
0.0
  0
LINE
  5
48C
100
AcDbEntity
  8
Sc.1_5
 62
     9
  6
CONTINUOUS
370
    -2
100
AcDbLine
 10
2398.15980079
 20
-1840.91812362
 30
0.0
 11
2405.12041766
 21
-1847.89516903
 31
0.0
  0
LINE
  5
48D
100
AcDbEntity
  8
Sc.1_5
 62
     9
  6
CONTINUOUS
370
    -2
100
AcDbLine
 10
2393.54099538
 20
-1843.5847816
 30
0.0
 11
2400.50161225
 21
-1850.56182701
 31
0.0
  0
LINE
  5
48E
100
AcDbEntity
  8
Sc.1_5
 62
     9
  6
CONTINUOUS
370
    -2
100
AcDbLine
 10
2388.92218996
 20
-1846.25143959
 30
0.0
 11
2395.88280683
 21
-1853.228485
 31
0.0
  0
LINE
  5
48F
100
AcDbEntity
  8
Sc.1_5
 62
     9
  6
CONTINUOUS
370
    -2
100
AcDbLine
 10
2384.30338455
 20
-1848.91809758
 30
0.0
 11
2391.26400142
 21
-1855.89514299
 31
0.0
  0
LINE
  5
490
100
AcDbEntity
  8
Sc.1_5
 62
     9
  6
CONTINUOUS
370
    -2
100
AcDbLine
 10
2379.68457913
 20
-1851.58475557
 30
0.0
 11
2386.645196
 21
-1858.56180098
 31
0.0
  0
LINE
  5
491
100
AcDbEntity
  8
Sc.1_5
 62
     9
  6
CONTINUOUS
370
    -2
100
AcDbLine
 10
2375.06577372
 20
-1854.25141356
 30
0.0
 11
2382.02639059
 21
-1861.22845897
 31
0.0
  0
LINE
  5
492
100
AcDbEntity
  8
Sc.1_5
 62
     9
  6
CONTINUOUS
370
    -2
100
AcDbLine
 10
2370.4469683
 20
-1856.91807154
 30
0.0
 11
2377.40758517
 21
-1863.89511695
 31
0.0
  0
LINE
  5
493
100
AcDbEntity
  8
Sc.1_5
 62
     9
  6
CONTINUOUS
370
    -2
100
AcDbLine
 10
2365.82816289
 20
-1859.58472953
 30
0.0
 11
2372.78877976
 21
-1866.56177494
 31
0.0
  0
LINE
  5
494
100
AcDbEntity
  8
Sc.1_5
 62
     9
  6
CONTINUOUS
370
    -2
100
AcDbLine
 10
2362.9761626
 20
-1864.02236268
 30
0.0
 11
2368.16997434
 21
-1869.22843293
 31
0.0
  0
LINE
  5
495
100
AcDbEntity
  8
Sc.1_5
 62
     9
  6
CONTINUOUS
370
    -2
100
AcDbLine
 10
2421.14374019
 20
-1827.64839283
 30
0.0
 11
2423.70573032
 21
-1837.16498657
 31
0.0
  0
LINE
  5
496
100
AcDbEntity
  8
Sc.1_5
 62
     9
  6
CONTINUOUS
370
    -2
100
AcDbLine
 10
2416.52494392
 20
-1830.31506666
 30
0.0
 11
2419.08693405
 21
-1839.8316604
 31
0.0
  0
LINE
  5
497
100
AcDbEntity
  8
Sc.1_5
 62
     9
  6
CONTINUOUS
370
    -2
100
AcDbLine
 10
2411.90614765
 20
-1832.98174049
 30
0.0
 11
2414.46813779
 21
-1842.49833423
 31
0.0
  0
LINE
  5
498
100
AcDbEntity
  8
Sc.1_5
 62
     9
  6
CONTINUOUS
370
    -2
100
AcDbLine
 10
2407.28735138
 20
-1835.64841432
 30
0.0
 11
2409.84934152
 21
-1845.16500806
 31
0.0
  0
LINE
  5
499
100
AcDbEntity
  8
Sc.1_5
 62
     9
  6
CONTINUOUS
370
    -2
100
AcDbLine
 10
2402.66855511
 20
-1838.31508815
 30
0.0
 11
2405.23054525
 21
-1847.83168189
 31
0.0
  0
LINE
  5
49A
100
AcDbEntity
  8
Sc.1_5
 62
     9
  6
CONTINUOUS
370
    -2
100
AcDbLine
 10
2398.04975885
 20
-1840.98176198
 30
0.0
 11
2400.61174898
 21
-1850.49835572
 31
0.0
  0
LINE
  5
49B
100
AcDbEntity
  8
Sc.1_5
 62
     9
  6
CONTINUOUS
370
    -2
100
AcDbLine
 10
2393.43096258
 20
-1843.64843581
 30
0.0
 11
2395.99295271
 21
-1853.16502955
 31
0.0
  0
LINE
  5
49C
100
AcDbEntity
  8
Sc.1_5
 62
     9
  6
CONTINUOUS
370
    -2
100
AcDbLine
 10
2388.81216631
 20
-1846.31510964
 30
0.0
 11
2391.37415644
 21
-1855.83170338
 31
0.0
  0
LINE
  5
49D
100
AcDbEntity
  8
Sc.1_5
 62
     9
  6
CONTINUOUS
370
    -2
100
AcDbLine
 10
2384.19337004
 20
-1848.98178347
 30
0.0
 11
2386.75536017
 21
-1858.49837721
 31
0.0
  0
LINE
  5
49E
100
AcDbEntity
  8
Sc.1_5
 62
     9
  6
CONTINUOUS
370
    -2
100
AcDbLine
 10
2379.57457377
 20
-1851.6484573
 30
0.0
 11
2382.13656391
 21
-1861.16505104
 31
0.0
  0
LINE
  5
49F
100
AcDbEntity
  8
Sc.1_5
 62
     9
  6
CONTINUOUS
370
    -2
100
AcDbLine
 10
2374.9557775
 20
-1854.31513113
 30
0.0
 11
2377.51776764
 21
-1863.83172487
 31
0.0
  0
LINE
  5
4A0
100
AcDbEntity
  8
Sc.1_5
 62
     9
  6
CONTINUOUS
370
    -2
100
AcDbLine
 10
2370.33698124
 20
-1856.98180497
 30
0.0
 11
2372.89897137
 21
-1866.49839871
 31
0.0
  0
LINE
  5
4A1
100
AcDbEntity
  8
Sc.1_5
 62
     9
  6
CONTINUOUS
370
    -2
100
AcDbLine
 10
2365.71818497
 20
-1859.6484788
 30
0.0
 11
2368.2801751
 21
-1869.16507254
 31
0.0
  0
LINE
  5
4A2
100
AcDbEntity
  8
Sc.1_5
 62
     9
  6
CONTINUOUS
370
    -2
100
AcDbLine
 10
2421.5795661
 20
-1823.65704465
 30
0.0
 11
2421.06929605
 21
-1824.17187919
 31
0.0
  0
LINE
  5
4A3
100
AcDbEntity
  8
Sc.1_5
 62
     9
  6
CONTINUOUS
370
    -2
100
AcDbLine
 10
2416.96076401
 20
-1826.32371128
 30
0.0
 11
2416.45049434
 21
-1826.83854543
 31
0.0
  0
LINE
  5
4A4
100
AcDbEntity
  8
Sc.1_5
 62
     9
  6
CONTINUOUS
370
    -2
100
AcDbLine
 10
2412.34196192
 20
-1828.99037792
 30
0.0
 11
2411.83169264
 21
-1829.50521168
 31
0.0
  0
LINE
  5
4A5
100
AcDbEntity
  8
Sc.1_5
 62
     9
  6
CONTINUOUS
370
    -2
100
AcDbLine
 10
2407.72315983
 20
-1831.65704455
 30
0.0
 11
2407.21289093
 21
-1832.17187792
 31
0.0
  0
LINE
  5
4A6
100
AcDbEntity
  8
Sc.1_5
 62
     9
  6
CONTINUOUS
370
    -2
100
AcDbLine
 10
2403.10435774
 20
-1834.32371118
 30
0.0
 11
2402.59408922
 21
-1834.83854417
 31
0.0
  0
LINE
  5
4A7
100
AcDbEntity
  8
Sc.1_5
 62
     9
  6
CONTINUOUS
370
    -2
100
AcDbLine
 10
2398.48555565
 20
-1836.99037781
 30
0.0
 11
2397.97528751
 21
-1837.50521041
 31
0.0
  0
LINE
  5
4A8
100
AcDbEntity
  8
Sc.1_5
 62
     9
  6
CONTINUOUS
370
    -2
100
AcDbLine
 10
2393.86675356
 20
-1839.65704444
 30
0.0
 11
2393.3564858
 21
-1840.17187666
 31
0.0
  0
LINE
  5
4A9
100
AcDbEntity
  8
Sc.1_5
 62
     9
  6
CONTINUOUS
370
    -2
100
AcDbLine
 10
2389.24795147
 20
-1842.32371107
 30
0.0
 11
2388.73768409
 21
-1842.8385429
 31
0.0
  0
LINE
  5
4AA
100
AcDbEntity
  8
Sc.1_5
 62
     9
  6
CONTINUOUS
370
    -2
100
AcDbLine
 10
2384.62914938
 20
-1844.9903777
 30
0.0
 11
2384.11888239
 21
-1845.50520915
 31
0.0
  0
LINE
  5
4AB
100
AcDbEntity
  8
Sc.1_5
 62
     9
  6
CONTINUOUS
370
    -2
100
AcDbLine
 10
2380.01034729
 20
-1847.65704433
 30
0.0
 11
2379.50008068
 21
-1848.17187539
 31
0.0
  0
LINE
  5
4AC
100
AcDbEntity
  8
Sc.1_5
 62
     9
  6
CONTINUOUS
370
    -2
100
AcDbLine
 10
2375.3915452
 20
-1850.32371096
 30
0.0
 11
2374.88127897
 21
-1850.83854164
 31
0.0
  0
LINE
  5
4AD
100
AcDbEntity
  8
Sc.1_5
 62
     9
  6
CONTINUOUS
370
    -2
100
AcDbLine
 10
2370.7727431
 20
-1852.99037759
 30
0.0
 11
2370.26247726
 21
-1853.50520788
 31
0.0
  0
LINE
  5
4AE
100
AcDbEntity
  8
Sc.1_5
 62
     9
  6
CONTINUOUS
370
    -2
100
AcDbLine
 10
2366.15394101
 20
-1855.65704422
 30
0.0
 11
2365.64367555
 21
-1856.17187413
 31
0.0
  0
LINE
  5
4AF
100
AcDbEntity
  8
Sc.1_5
 62
     9
  6
CONTINUOUS
370
    -2
100
AcDbLine
 10
2361.53513892
 20
-1858.32371085
 30
0.0
 11
2361.02487384
 21
-1858.83854037
 31
0.0
  0
LINE
  5
4B0
100
AcDbEntity
  8
Sc.1_5
 62
     9
  6
CONTINUOUS
370
    -2
100
AcDbLine
 10
2417.57930657
 20
-1825.96659656
 30
0.0
 11
2418.28030136
 21
-1825.78210691
 31
0.0
  0
LINE
  5
4B1
100
AcDbEntity
  8
Sc.1_5
 62
     9
  6
CONTINUOUS
370
    -2
100
AcDbLine
 10
2412.96050536
 20
-1828.63326367
 30
0.0
 11
2413.66150015
 21
-1828.44877401
 31
0.0
  0
LINE
  5
4B2
100
AcDbEntity
  8
Sc.1_5
 62
     9
  6
CONTINUOUS
370
    -2
100
AcDbLine
 10
2408.34170415
 20
-1831.29993077
 30
0.0
 11
2409.04269894
 21
-1831.11544112
 31
0.0
  0
LINE
  5
4B3
100
AcDbEntity
  8
Sc.1_5
 62
     9
  6
CONTINUOUS
370
    -2
100
AcDbLine
 10
2403.72290294
 20
-1833.96659788
 30
0.0
 11
2404.42389773
 21
-1833.78210823
 31
0.0
  0
LINE
  5
4B4
100
AcDbEntity
  8
Sc.1_5
 62
     9
  6
CONTINUOUS
370
    -2
100
AcDbLine
 10
2399.10410173
 20
-1836.63326499
 30
0.0
 11
2399.80509652
 21
-1836.44877534
 31
0.0
  0
LINE
  5
4B5
100
AcDbEntity
  8
Sc.1_5
 62
     9
  6
CONTINUOUS
370
    -2
100
AcDbLine
 10
2394.48530052
 20
-1839.2999321
 30
0.0
 11
2395.1862953
 21
-1839.11544244
 31
0.0
  0
LINE
  5
4B6
100
AcDbEntity
  8
Sc.1_5
 62
     9
  6
CONTINUOUS
370
    -2
100
AcDbLine
 10
2389.86649931
 20
-1841.9665992
 30
0.0
 11
2390.56749409
 21
-1841.78210955
 31
0.0
  0
LINE
  5
4B7
100
AcDbEntity
  8
Sc.1_5
 62
     9
  6
CONTINUOUS
370
    -2
100
AcDbLine
 10
2385.2476981
 20
-1844.63326631
 30
0.0
 11
2385.94869288
 21
-1844.44877666
 31
0.0
  0
LINE
  5
4B8
100
AcDbEntity
  8
Sc.1_5
 62
     9
  6
CONTINUOUS
370
    -2
100
AcDbLine
 10
2380.62889689
 20
-1847.29993342
 30
0.0
 11
2381.32989167
 21
-1847.11544376
 31
0.0
  0
LINE
  5
4B9
100
AcDbEntity
  8
Sc.1_5
 62
     9
  6
CONTINUOUS
370
    -2
100
AcDbLine
 10
2376.01009568
 20
-1849.96660052
 30
0.0
 11
2376.71109046
 21
-1849.78211087
 31
0.0
  0
LINE
  5
4BA
100
AcDbEntity
  8
Sc.1_5
 62
     9
  6
CONTINUOUS
370
    -2
100
AcDbLine
 10
2371.39129447
 20
-1852.63326763
 30
0.0
 11
2372.09228925
 21
-1852.44877798
 31
0.0
  0
LINE
  5
4BB
100
AcDbEntity
  8
Sc.1_5
 62
     9
  6
CONTINUOUS
370
    -2
100
AcDbLine
 10
2366.77249326
 20
-1855.29993474
 30
0.0
 11
2367.47348804
 21
-1855.11544509
 31
0.0
  0
LINE
  5
4BC
100
AcDbEntity
  8
Sc.1_5
 62
     9
  6
CONTINUOUS
370
    -2
100
AcDbLine
 10
2362.15369205
 20
-1857.96660185
 30
0.0
 11
2362.85468683
 21
-1857.78211219
 31
0.0
  0
LINE
  5
4BD
100
AcDbEntity
  8
Sc.1_5
 62
     9
  6
CONTINUOUS
370
    -2
100
AcDbLine
 10
2428.39897728
 20
-1837.97483534
 30
0.0
 11
2427.88870855
 21
-1838.48966855
 31
0.0
  0
LINE
  5
4BE
100
AcDbEntity
  8
Sc.1_5
 62
     9
  6
CONTINUOUS
370
    -2
100
AcDbLine
 10
2423.78017557
 20
-1840.64150159
 30
0.0
 11
2423.26990646
 21
-1841.15633518
 31
0.0
  0
LINE
  5
4BF
100
AcDbEntity
  8
Sc.1_5
 62
     9
  6
CONTINUOUS
370
    -2
100
AcDbLine
 10
2419.16137387
 20
-1843.30816783
 30
0.0
 11
2418.65110437
 21
-1843.82300181
 31
0.0
  0
LINE
  5
4C0
100
AcDbEntity
  8
Sc.1_5
 62
     9
  6
CONTINUOUS
370
    -2
100
AcDbLine
 10
2414.54257216
 20
-1845.97483408
 30
0.0
 11
2414.03230228
 21
-1846.48966844
 31
0.0
  0
LINE
  5
4C1
100
AcDbEntity
  8
Sc.1_5
 62
     9
  6
CONTINUOUS
370
    -2
100
AcDbLine
 10
2409.92377045
 20
-1848.64150032
 30
0.0
 11
2409.4135004
 21
-1849.15633486
 31
0.0
  0
LINE
  5
4C2
100
AcDbEntity
  8
Sc.1_5
 62
     9
  6
CONTINUOUS
370
    -2
100
AcDbLine
 10
2405.30496874
 20
-1851.30816657
 30
0.0
 11
2404.79469869
 21
-1851.8230011
 31
0.0
  0
LINE
  5
4C3
100
AcDbEntity
  8
Sc.1_5
 62
     9
  6
CONTINUOUS
370
    -2
100
AcDbLine
 10
2400.68616703
 20
-1853.97483281
 30
0.0
 11
2400.17589698
 21
-1854.48966735
 31
0.0
  0
LINE
  5
4C4
100
AcDbEntity
  8
Sc.1_5
 62
     9
  6
CONTINUOUS
370
    -2
100
AcDbLine
 10
2396.06736532
 20
-1856.64149906
 30
0.0
 11
2395.55709527
 21
-1857.15633359
 31
0.0
  0
LINE
  5
4C5
100
AcDbEntity
  8
Sc.1_5
 62
     9
  6
CONTINUOUS
370
    -2
100
AcDbLine
 10
2391.44856362
 20
-1859.3081653
 30
0.0
 11
2390.93829357
 21
-1859.82299984
 31
0.0
  0
LINE
  5
4C6
100
AcDbEntity
  8
Sc.1_5
 62
     9
  6
CONTINUOUS
370
    -2
100
AcDbLine
 10
2386.82976191
 20
-1861.97483155
 30
0.0
 11
2386.31949186
 21
-1862.48966608
 31
0.0
  0
LINE
  5
4C7
100
AcDbEntity
  8
Sc.1_5
 62
     9
  6
CONTINUOUS
370
    -2
100
AcDbLine
 10
2382.2109602
 20
-1864.64149779
 30
0.0
 11
2381.70069015
 21
-1865.15633233
 31
0.0
  0
LINE
  5
4C8
100
AcDbEntity
  8
Sc.1_5
 62
     9
  6
CONTINUOUS
370
    -2
100
AcDbLine
 10
2377.59215849
 20
-1867.30816403
 30
0.0
 11
2377.08188844
 21
-1867.82299857
 31
0.0
  0
LINE
  5
4C9
100
AcDbEntity
  8
Sc.1_5
 62
     9
  6
CONTINUOUS
370
    -2
100
AcDbLine
 10
2372.97335678
 20
-1869.97483028
 30
0.0
 11
2372.46308673
 21
-1870.48966482
 31
0.0
  0
LINE
  5
4CA
100
AcDbEntity
  8
Sc.1_5
 62
     9
  6
CONTINUOUS
370
    -2
100
AcDbLine
 10
2368.35455507
 20
-1872.64149652
 30
0.0
 11
2368.1004452
 21
-1872.89787948
 31
0.0
  0
LINE
  5
4CB
100
AcDbEntity
  8
Sc.1_5
 62
     9
  6
CONTINUOUS
370
    -2
100
AcDbLine
 10
2371.84454123
 20
-1870.84678364
 30
0.0
 11
2371.14355242
 21
-1871.03127162
 31
0.0
  0
LINE
  5
4CC
100
AcDbEntity
  8
Sc.1_5
 62
     9
  6
CONTINUOUS
370
    -2
100
AcDbLine
 10
2376.46334332
 20
-1868.18011701
 30
0.0
 11
2375.76235398
 21
-1868.36460513
 31
0.0
  0
LINE
  5
4CD
100
AcDbEntity
  8
Sc.1_5
 62
     9
  6
CONTINUOUS
370
    -2
100
AcDbLine
 10
2381.08214541
 20
-1865.51345038
 30
0.0
 11
2380.38115555
 21
-1865.69793864
 31
0.0
  0
LINE
  5
4CE
100
AcDbEntity
  8
Sc.1_5
 62
     9
  6
CONTINUOUS
370
    -2
100
AcDbLine
 10
2385.7009475
 20
-1862.84678375
 30
0.0
 11
2384.99995711
 21
-1863.03127214
 31
0.0
  0
LINE
  5
4CF
100
AcDbEntity
  8
Sc.1_5
 62
     9
  6
CONTINUOUS
370
    -2
100
AcDbLine
 10
2390.31974959
 20
-1860.18011712
 30
0.0
 11
2389.61875868
 21
-1860.36460565
 31
0.0
  0
LINE
  5
4D0
100
AcDbEntity
  8
Sc.1_5
 62
     9
  6
CONTINUOUS
370
    -2
100
AcDbLine
 10
2394.93855168
 20
-1857.51345049
 30
0.0
 11
2394.23756024
 21
-1857.69793916
 31
0.0
  0
LINE
  5
4D1
100
AcDbEntity
  8
Sc.1_5
 62
     9
  6
CONTINUOUS
370
    -2
100
AcDbLine
 10
2399.55735378
 20
-1854.84678386
 30
0.0
 11
2398.85636181
 21
-1855.03127267
 31
0.0
  0
LINE
  5
4D2
100
AcDbEntity
  8
Sc.1_5
 62
     9
  6
CONTINUOUS
370
    -2
100
AcDbLine
 10
2404.17615587
 20
-1852.18011723
 30
0.0
 11
2403.47516337
 21
-1852.36460617
 31
0.0
  0
LINE
  5
4D3
100
AcDbEntity
  8
Sc.1_5
 62
     9
  6
CONTINUOUS
370
    -2
100
AcDbLine
 10
2408.79495796
 20
-1849.5134506
 30
0.0
 11
2408.09396494
 21
-1849.69793968
 31
0.0
  0
LINE
  5
4D4
100
AcDbEntity
  8
Sc.1_5
 62
     9
  6
CONTINUOUS
370
    -2
100
AcDbLine
 10
2413.41376005
 20
-1846.84678396
 30
0.0
 11
2412.71276651
 21
-1847.03127319
 31
0.0
  0
LINE
  5
4D5
100
AcDbEntity
  8
Sc.1_5
 62
     9
  6
CONTINUOUS
370
    -2
100
AcDbLine
 10
2418.03256214
 20
-1844.18011733
 30
0.0
 11
2417.33156807
 21
-1844.3646067
 31
0.0
  0
LINE
  5
4D6
100
AcDbEntity
  8
Sc.1_5
 62
     9
  6
CONTINUOUS
370
    -2
100
AcDbLine
 10
2422.65136423
 20
-1841.5134507
 30
0.0
 11
2421.95036964
 21
-1841.69794021
 31
0.0
  0
LINE
  5
4D7
100
AcDbEntity
  8
Sc.1_5
 62
     9
  6
CONTINUOUS
370
    -2
100
AcDbLine
 10
2427.27016601
 20
-1838.84678415
 30
0.0
 11
2426.5691712
 21
-1839.03127371
 31
0.0
  0
LINE
  5
4D8
100
AcDbEntity
  8
Sc.1_5
 62
     9
  6
CONTINUOUS
370
    -2
100
AcDbLine
 10
2421.0692968
 20
-1824.17187881
 30
0.0
 11
2420.73130026
 21
-1824.78073209
 31
0.0
  0
LINE
  5
4D9
100
AcDbEntity
  8
Sc.1_5
 62
     9
  6
CONTINUOUS
370
    -2
100
AcDbLine
 10
2416.45049424
 20
-1826.83854575
 30
0.0
 11
2416.11249769
 21
-1827.44739904
 31
0.0
  0
LINE
  5
4DA
100
AcDbEntity
  8
Sc.1_5
 62
     9
  6
CONTINUOUS
370
    -2
100
AcDbLine
 10
2411.83169167
 20
-1829.5052127
 30
0.0
 11
2411.49369513
 21
-1830.11406598
 31
0.0
  0
LINE
  5
4DB
100
AcDbEntity
  8
Sc.1_5
 62
     9
  6
CONTINUOUS
370
    -2
100
AcDbLine
 10
2407.21288911
 20
-1832.17187964
 30
0.0
 11
2406.87489257
 21
-1832.78073292
 31
0.0
  0
LINE
  5
4DC
100
AcDbEntity
  8
Sc.1_5
 62
     9
  6
CONTINUOUS
370
    -2
100
AcDbLine
 10
2402.59408655
 20
-1834.83854658
 30
0.0
 11
2402.25609001
 21
-1835.44739987
 31
0.0
  0
LINE
  5
4DD
100
AcDbEntity
  8
Sc.1_5
 62
     9
  6
CONTINUOUS
370
    -2
100
AcDbLine
 10
2397.97528399
 20
-1837.50521353
 30
0.0
 11
2397.63728745
 21
-1838.11406681
 31
0.0
  0
LINE
  5
4DE
100
AcDbEntity
  8
Sc.1_5
 62
     9
  6
CONTINUOUS
370
    -2
100
AcDbLine
 10
2393.35648142
 20
-1840.17188047
 30
0.0
 11
2393.01848488
 21
-1840.78073376
 31
0.0
  0
LINE
  5
4DF
100
AcDbEntity
  8
Sc.1_5
 62
     9
  6
CONTINUOUS
370
    -2
100
AcDbLine
 10
2388.73767886
 20
-1842.83854742
 30
0.0
 11
2388.39968232
 21
-1843.4474007
 31
0.0
  0
LINE
  5
4E0
100
AcDbEntity
  8
Sc.1_5
 62
     9
  6
CONTINUOUS
370
    -2
100
AcDbLine
 10
2384.1188763
 20
-1845.50521436
 30
0.0
 11
2383.78087976
 21
-1846.11406764
 31
0.0
  0
LINE
  5
4E1
100
AcDbEntity
  8
Sc.1_5
 62
     9
  6
CONTINUOUS
370
    -2
100
AcDbLine
 10
2379.50007374
 20
-1848.1718813
 30
0.0
 11
2379.1620772
 21
-1848.78073459
 31
0.0
  0
LINE
  5
4E2
100
AcDbEntity
  8
Sc.1_5
 62
     9
  6
CONTINUOUS
370
    -2
100
AcDbLine
 10
2374.88127118
 20
-1850.83854825
 30
0.0
 11
2374.54327463
 21
-1851.44740153
 31
0.0
  0
LINE
  5
4E3
100
AcDbEntity
  8
Sc.1_5
 62
     9
  6
CONTINUOUS
370
    -2
100
AcDbLine
 10
2370.26246861
 20
-1853.50521519
 30
0.0
 11
2369.92447207
 21
-1854.11406847
 31
0.0
  0
LINE
  5
4E4
100
AcDbEntity
  8
Sc.1_5
 62
     9
  6
CONTINUOUS
370
    -2
100
AcDbLine
 10
2365.64366605
 20
-1856.17188213
 30
0.0
 11
2365.30566951
 21
-1856.78073542
 31
0.0
  0
LINE
  5
4E5
100
AcDbEntity
  8
Sc.1_5
 62
     9
  6
CONTINUOUS
370
    -2
100
AcDbLine
 10
2361.02486349
 20
-1858.83854908
 30
0.0
 11
2360.68686695
 21
-1859.44740236
 31
0.0
  0
LINE
  5
4E6
100
AcDbEntity
  8
Sc.1_5
 62
     9
  6
CONTINUOUS
370
    -2
100
AcDbLine
 10
2418.28371605
 20
-1825.78013415
 30
0.0
 11
2418.97999673
 21
-1825.79184725
 31
0.0
  0
LINE
  5
4E7
100
AcDbEntity
  8
Sc.1_5
 62
     9
  6
CONTINUOUS
370
    -2
100
AcDbLine
 10
2413.66491328
 20
-1828.44680073
 30
0.0
 11
2414.36119396
 21
-1828.45851382
 31
0.0
  0
LINE
  5
4E8
100
AcDbEntity
  8
Sc.1_5
 62
     9
  6
CONTINUOUS
370
    -2
100
AcDbLine
 10
2409.0461105
 20
-1831.1134673
 30
0.0
 11
2409.74239118
 21
-1831.1251804
 31
0.0
  0
LINE
  5
4E9
100
AcDbEntity
  8
Sc.1_5
 62
     9
  6
CONTINUOUS
370
    -2
100
AcDbLine
 10
2404.42730773
 20
-1833.78013388
 30
0.0
 11
2405.12358841
 21
-1833.79184697
 31
0.0
  0
LINE
  5
4EA
100
AcDbEntity
  8
Sc.1_5
 62
     9
  6
CONTINUOUS
370
    -2
100
AcDbLine
 10
2399.80850495
 20
-1836.44680045
 30
0.0
 11
2400.50478563
 21
-1836.45851355
 31
0.0
  0
LINE
  5
4EB
100
AcDbEntity
  8
Sc.1_5
 62
     9
  6
CONTINUOUS
370
    -2
100
AcDbLine
 10
2395.18970218
 20
-1839.11346703
 30
0.0
 11
2395.88598286
 21
-1839.12518012
 31
0.0
  0
LINE
  5
4EC
100
AcDbEntity
  8
Sc.1_5
 62
     9
  6
CONTINUOUS
370
    -2
100
AcDbLine
 10
2390.5708994
 20
-1841.7801336
 30
0.0
 11
2391.26718008
 21
-1841.7918467
 31
0.0
  0
LINE
  5
4ED
100
AcDbEntity
  8
Sc.1_5
 62
     9
  6
CONTINUOUS
370
    -2
100
AcDbLine
 10
2385.95209663
 20
-1844.44680018
 30
0.0
 11
2386.64837731
 21
-1844.45851327
 31
0.0
  0
LINE
  5
4EE
100
AcDbEntity
  8
Sc.1_5
 62
     9
  6
CONTINUOUS
370
    -2
100
AcDbLine
 10
2381.33329385
 20
-1847.11346675
 30
0.0
 11
2382.02957453
 21
-1847.12517985
 31
0.0
  0
LINE
  5
4EF
100
AcDbEntity
  8
Sc.1_5
 62
     9
  6
CONTINUOUS
370
    -2
100
AcDbLine
 10
2376.71449108
 20
-1849.78013332
 30
0.0
 11
2377.41077176
 21
-1849.79184642
 31
0.0
  0
LINE
  5
4F0
100
AcDbEntity
  8
Sc.1_5
 62
     9
  6
CONTINUOUS
370
    -2
100
AcDbLine
 10
2372.0956883
 20
-1852.4467999
 30
0.0
 11
2372.79196898
 21
-1852.458513
 31
0.0
  0
LINE
  5
4F1
100
AcDbEntity
  8
Sc.1_5
 62
     9
  6
CONTINUOUS
370
    -2
100
AcDbLine
 10
2367.47688553
 20
-1855.11346647
 30
0.0
 11
2368.17316621
 21
-1855.12517957
 31
0.0
  0
LINE
  5
4F2
100
AcDbEntity
  8
Sc.1_5
 62
     9
  6
CONTINUOUS
370
    -2
100
AcDbLine
 10
2362.85808275
 20
-1857.78013305
 30
0.0
 11
2363.55436343
 21
-1857.79184615
 31
0.0
  0
LINE
  5
4F3
100
AcDbEntity
  8
Sc.1_5
 62
     9
  6
CONTINUOUS
370
    -2
100
AcDbLine
 10
2428.73697222
 20
-1837.36598139
 30
0.0
 11
2428.39897567
 21
-1837.97483467
 31
0.0
  0
LINE
  5
4F4
100
AcDbEntity
  8
Sc.1_5
 62
     9
  6
CONTINUOUS
370
    -2
100
AcDbLine
 10
2424.11816965
 20
-1840.03264833
 30
0.0
 11
2423.78017311
 21
-1840.64150161
 31
0.0
  0
LINE
  5
4F5
100
AcDbEntity
  8
Sc.1_5
 62
     9
  6
CONTINUOUS
370
    -2
100
AcDbLine
 10
2419.49936709
 20
-1842.69931527
 30
0.0
 11
2419.16137055
 21
-1843.30816856
 31
0.0
  0
LINE
  5
4F6
100
AcDbEntity
  8
Sc.1_5
 62
     9
  6
CONTINUOUS
370
    -2
100
AcDbLine
 10
2414.88056453
 20
-1845.36598222
 30
0.0
 11
2414.54256799
 21
-1845.9748355
 31
0.0
  0
LINE
  5
4F7
100
AcDbEntity
  8
Sc.1_5
 62
     9
  6
CONTINUOUS
370
    -2
100
AcDbLine
 10
2410.26176197
 20
-1848.03264916
 30
0.0
 11
2409.92376543
 21
-1848.64150245
 31
0.0
  0
LINE
  5
4F8
100
AcDbEntity
  8
Sc.1_5
 62
     9
  6
CONTINUOUS
370
    -2
100
AcDbLine
 10
2405.6429594
 20
-1850.69931611
 30
0.0
 11
2405.30496286
 21
-1851.30816939
 31
0.0
  0
LINE
  5
4F9
100
AcDbEntity
  8
Sc.1_5
 62
     9
  6
CONTINUOUS
370
    -2
100
AcDbLine
 10
2401.02415684
 20
-1853.36598305
 30
0.0
 11
2400.6861603
 21
-1853.97483633
 31
0.0
  0
LINE
  5
4FA
100
AcDbEntity
  8
Sc.1_5
 62
     9
  6
CONTINUOUS
370
    -2
100
AcDbLine
 10
2396.40535428
 20
-1856.03264999
 30
0.0
 11
2396.06735774
 21
-1856.64150328
 31
0.0
  0
LINE
  5
4FB
100
AcDbEntity
  8
Sc.1_5
 62
     9
  6
CONTINUOUS
370
    -2
100
AcDbLine
 10
2391.78655172
 20
-1858.69931694
 30
0.0
 11
2391.44855518
 21
-1859.30817022
 31
0.0
  0
LINE
  5
4FC
100
AcDbEntity
  8
Sc.1_5
 62
     9
  6
CONTINUOUS
370
    -2
100
AcDbLine
 10
2387.16774916
 20
-1861.36598388
 30
0.0
 11
2386.82975261
 21
-1861.97483716
 31
0.0
  0
LINE
  5
4FD
100
AcDbEntity
  8
Sc.1_5
 62
     9
  6
CONTINUOUS
370
    -2
100
AcDbLine
 10
2382.54894659
 20
-1864.03265082
 30
0.0
 11
2382.21095005
 21
-1864.64150411
 31
0.0
  0
LINE
  5
4FE
100
AcDbEntity
  8
Sc.1_5
 62
     9
  6
CONTINUOUS
370
    -2
100
AcDbLine
 10
2377.93014403
 20
-1866.69931777
 30
0.0
 11
2377.59214749
 21
-1867.30817105
 31
0.0
  0
LINE
  5
4FF
100
AcDbEntity
  8
Sc.1_5
 62
     9
  6
CONTINUOUS
370
    -2
100
AcDbLine
 10
2373.31134147
 20
-1869.36598471
 30
0.0
 11
2372.97334493
 21
-1869.97483799
 31
0.0
  0
LINE
  5
500
100
AcDbEntity
  8
Sc.1_5
 62
     9
  6
CONTINUOUS
370
    -2
100
AcDbLine
 10
2368.69253891
 20
-1872.03265165
 30
0.0
 11
2368.35454237
 21
-1872.64150494
 31
0.0
  0
LINE
  5
501
100
AcDbEntity
  8
Sc.1_5
 62
     9
  6
CONTINUOUS
370
    -2
100
AcDbLine
 10
2371.1435397
 20
-1871.03127716
 30
0.0
 11
2370.44725902
 21
-1871.0195641
 31
0.0
  0
LINE
  5
502
100
AcDbEntity
  8
Sc.1_5
 62
     9
  6
CONTINUOUS
370
    -2
100
AcDbLine
 10
2375.7623423
 20
-1868.36461027
 30
0.0
 11
2375.06606161
 21
-1868.35289722
 31
0.0
  0
LINE
  5
503
100
AcDbEntity
  8
Sc.1_5
 62
     9
  6
CONTINUOUS
370
    -2
100
AcDbLine
 10
2380.38114489
 20
-1865.69794339
 30
0.0
 11
2379.68486421
 21
-1865.68623034
 31
0.0
  0
LINE
  5
504
100
AcDbEntity
  8
Sc.1_5
 62
     9
  6
CONTINUOUS
370
    -2
100
AcDbLine
 10
2384.99994749
 20
-1863.03127651
 30
0.0
 11
2384.30366681
 21
-1863.01956346
 31
0.0
  0
LINE
  5
505
100
AcDbEntity
  8
Sc.1_5
 62
     9
  6
CONTINUOUS
370
    -2
100
AcDbLine
 10
2389.61875009
 20
-1860.36460963
 30
0.0
 11
2388.92246941
 21
-1860.35289658
 31
0.0
  0
LINE
  5
506
100
AcDbEntity
  8
Sc.1_5
 62
     9
  6
CONTINUOUS
370
    -2
100
AcDbLine
 10
2394.23755269
 20
-1857.69794274
 30
0.0
 11
2393.54127201
 21
-1857.68622969
 31
0.0
  0
LINE
  5
507
100
AcDbEntity
  8
Sc.1_5
 62
     9
  6
CONTINUOUS
370
    -2
100
AcDbLine
 10
2398.85635528
 20
-1855.03127586
 30
0.0
 11
2398.1600746
 21
-1855.01956281
 31
0.0
  0
LINE
  5
508
100
AcDbEntity
  8
Sc.1_5
 62
     9
  6
CONTINUOUS
370
    -2
100
AcDbLine
 10
2403.47515788
 20
-1852.36460898
 30
0.0
 11
2402.7788772
 21
-1852.35289593
 31
0.0
  0
LINE
  5
509
100
AcDbEntity
  8
Sc.1_5
 62
     9
  6
CONTINUOUS
370
    -2
100
AcDbLine
 10
2408.09396048
 20
-1849.6979421
 30
0.0
 11
2407.3976798
 21
-1849.68622905
 31
0.0
  0
LINE
  5
50A
100
AcDbEntity
  8
Sc.1_5
 62
     9
  6
CONTINUOUS
370
    -2
100
AcDbLine
 10
2412.71276308
 20
-1847.03127522
 30
0.0
 11
2412.0164824
 21
-1847.01956217
 31
0.0
  0
LINE
  5
50B
100
AcDbEntity
  8
Sc.1_5
 62
     9
  6
CONTINUOUS
370
    -2
100
AcDbLine
 10
2417.33156568
 20
-1844.36460833
 30
0.0
 11
2416.63528499
 21
-1844.35289528
 31
0.0
  0
LINE
  5
50C
100
AcDbEntity
  8
Sc.1_5
 62
     9
  6
CONTINUOUS
370
    -2
100
AcDbLine
 10
2421.95036827
 20
-1841.69794145
 30
0.0
 11
2421.25408759
 21
-1841.6862284
 31
0.0
  0
LINE
  5
50D
100
AcDbEntity
  8
Sc.1_5
 62
     9
  6
CONTINUOUS
370
    -2
100
AcDbLine
 10
2426.56917087
 20
-1839.03127457
 30
0.0
 11
2425.87289019
 21
-1839.01956152
 31
0.0
  0
LINE
  5
50E
100
AcDbEntity
  8
Sc.1_5
 62
     9
  6
CONTINUOUS
370
    -2
100
AcDbLine
 10
2420.73130151
 20
-1824.78073215
 30
0.0
 11
2420.57802722
 21
-1825.3527596
 31
0.0
  0
LINE
  5
50F
100
AcDbEntity
  8
Sc.1_5
 62
     9
  6
CONTINUOUS
370
    -2
100
AcDbLine
 10
2416.11249851
 20
-1827.4473993
 30
0.0
 11
2415.95922422
 21
-1828.01942675
 31
0.0
  0
LINE
  5
510
100
AcDbEntity
  8
Sc.1_5
 62
     9
  6
CONTINUOUS
370
    -2
100
AcDbLine
 10
2411.49369551
 20
-1830.11406646
 30
0.0
 11
2411.34042122
 21
-1830.68609391
 31
0.0
  0
LINE
  5
511
100
AcDbEntity
  8
Sc.1_5
 62
     9
  6
CONTINUOUS
370
    -2
100
AcDbLine
 10
2406.87489251
 20
-1832.78073361
 30
0.0
 11
2406.72161822
 21
-1833.35276106
 31
0.0
  0
LINE
  5
512
100
AcDbEntity
  8
Sc.1_5
 62
     9
  6
CONTINUOUS
370
    -2
100
AcDbLine
 10
2402.25608951
 20
-1835.44740077
 30
0.0
 11
2402.10281522
 21
-1836.01942822
 31
0.0
  0
LINE
  5
513
100
AcDbEntity
  8
Sc.1_5
 62
     9
  6
CONTINUOUS
370
    -2
100
AcDbLine
 10
2397.63728651
 20
-1838.11406792
 30
0.0
 11
2397.48401222
 21
-1838.68609537
 31
0.0
  0
LINE
  5
514
100
AcDbEntity
  8
Sc.1_5
 62
     9
  6
CONTINUOUS
370
    -2
100
AcDbLine
 10
2393.01848351
 20
-1840.78073508
 30
0.0
 11
2392.86520922
 21
-1841.35276253
 31
0.0
  0
LINE
  5
515
100
AcDbEntity
  8
Sc.1_5
 62
     9
  6
CONTINUOUS
370
    -2
100
AcDbLine
 10
2388.39968051
 20
-1843.44740224
 30
0.0
 11
2388.24640622
 21
-1844.01942968
 31
0.0
  0
LINE
  5
516
100
AcDbEntity
  8
Sc.1_5
 62
     9
  6
CONTINUOUS
370
    -2
100
AcDbLine
 10
2383.78087751
 20
-1846.11406939
 30
0.0
 11
2383.62760322
 21
-1846.68609684
 31
0.0
  0
LINE
  5
517
100
AcDbEntity
  8
Sc.1_5
 62
     9
  6
CONTINUOUS
370
    -2
100
AcDbLine
 10
2379.16207451
 20
-1848.78073655
 30
0.0
 11
2379.00880022
 21
-1849.35276399
 31
0.0
  0
LINE
  5
518
100
AcDbEntity
  8
Sc.1_5
 62
     9
  6
CONTINUOUS
370
    -2
100
AcDbLine
 10
2374.54327151
 20
-1851.4474037
 30
0.0
 11
2374.38999722
 21
-1852.01943115
 31
0.0
  0
LINE
  5
519
100
AcDbEntity
  8
Sc.1_5
 62
     9
  6
CONTINUOUS
370
    -2
100
AcDbLine
 10
2369.92446851
 20
-1854.11407086
 30
0.0
 11
2369.77119422
 21
-1854.6860983
 31
0.0
  0
LINE
  5
51A
100
AcDbEntity
  8
Sc.1_5
 62
     9
  6
CONTINUOUS
370
    -2
100
AcDbLine
 10
2365.30566551
 20
-1856.78073801
 30
0.0
 11
2365.15239122
 21
-1857.35276546
 31
0.0
  0
LINE
  5
51B
100
AcDbEntity
  8
Sc.1_5
 62
     9
  6
CONTINUOUS
370
    -2
100
AcDbLine
 10
2360.68686251
 20
-1859.44740517
 30
0.0
 11
2360.57526614
 21
-1859.86388851
 31
0.0
  0
LINE
  5
51C
100
AcDbEntity
  8
Sc.1_5
 62
     9
  6
CONTINUOUS
370
    -2
100
AcDbLine
 10
2418.97657899
 20
-1825.79382166
 30
0.0
 11
2419.54860644
 21
-1825.94709596
 31
0.0
  0
LINE
  5
51D
100
AcDbEntity
  8
Sc.1_5
 62
     9
  6
CONTINUOUS
370
    -2
100
AcDbLine
 10
2414.35777599
 20
-1828.46048882
 30
0.0
 11
2414.92980344
 21
-1828.61376311
 31
0.0
  0
LINE
  5
51E
100
AcDbEntity
  8
Sc.1_5
 62
     9
  6
CONTINUOUS
370
    -2
100
AcDbLine
 10
2409.73897299
 20
-1831.12715598
 30
0.0
 11
2410.31100044
 21
-1831.28043027
 31
0.0
  0
LINE
  5
51F
100
AcDbEntity
  8
Sc.1_5
 62
     9
  6
CONTINUOUS
370
    -2
100
AcDbLine
 10
2405.12016999
 20
-1833.79382313
 30
0.0
 11
2405.69219744
 21
-1833.94709742
 31
0.0
  0
LINE
  5
520
100
AcDbEntity
  8
Sc.1_5
 62
     9
  6
CONTINUOUS
370
    -2
100
AcDbLine
 10
2400.50136699
 20
-1836.46049029
 30
0.0
 11
2401.07339444
 21
-1836.61376458
 31
0.0
  0
LINE
  5
521
100
AcDbEntity
  8
Sc.1_5
 62
     9
  6
CONTINUOUS
370
    -2
100
AcDbLine
 10
2395.88256399
 20
-1839.12715744
 30
0.0
 11
2396.45459144
 21
-1839.28043173
 31
0.0
  0
LINE
  5
522
100
AcDbEntity
  8
Sc.1_5
 62
     9
  6
CONTINUOUS
370
    -2
100
AcDbLine
 10
2391.26376099
 20
-1841.7938246
 30
0.0
 11
2391.83578844
 21
-1841.94709889
 31
0.0
  0
LINE
  5
523
100
AcDbEntity
  8
Sc.1_5
 62
     9
  6
CONTINUOUS
370
    -2
100
AcDbLine
 10
2386.64495799
 20
-1844.46049175
 30
0.0
 11
2387.21698544
 21
-1844.61376604
 31
0.0
  0
LINE
  5
524
100
AcDbEntity
  8
Sc.1_5
 62
     9
  6
CONTINUOUS
370
    -2
100
AcDbLine
 10
2382.02615499
 20
-1847.12715891
 30
0.0
 11
2382.59818244
 21
-1847.2804332
 31
0.0
  0
LINE
  5
525
100
AcDbEntity
  8
Sc.1_5
 62
     9
  6
CONTINUOUS
370
    -2
100
AcDbLine
 10
2377.40735199
 20
-1849.79382606
 30
0.0
 11
2377.97937944
 21
-1849.94710036
 31
0.0
  0
LINE
  5
526
100
AcDbEntity
  8
Sc.1_5
 62
     9
  6
CONTINUOUS
370
    -2
100
AcDbLine
 10
2372.78854899
 20
-1852.46049322
 30
0.0
 11
2373.36057644
 21
-1852.61376751
 31
0.0
  0
LINE
  5
527
100
AcDbEntity
  8
Sc.1_5
 62
     9
  6
CONTINUOUS
370
    -2
100
AcDbLine
 10
2368.16974599
 20
-1855.12716037
 30
0.0
 11
2368.74177344
 21
-1855.28043467
 31
0.0
  0
LINE
  5
528
100
AcDbEntity
  8
Sc.1_5
 62
     9
  6
CONTINUOUS
370
    -2
100
AcDbLine
 10
2363.55094299
 20
-1857.79382753
 30
0.0
 11
2364.12297044
 21
-1857.94710182
 31
0.0
  0
LINE
  5
529
100
AcDbEntity
  8
Sc.1_5
 62
     9
  6
CONTINUOUS
370
    -2
100
AcDbLine
 10
2428.89024637
 20
-1836.79395589
 30
0.0
 11
2428.73697208
 21
-1837.36598334
 31
0.0
  0
LINE
  5
52A
100
AcDbEntity
  8
Sc.1_5
 62
     9
  6
CONTINUOUS
370
    -2
100
AcDbLine
 10
2424.27144337
 20
-1839.46062305
 30
0.0
 11
2424.11816908
 21
-1840.0326505
 31
0.0
  0
LINE
  5
52B
100
AcDbEntity
  8
Sc.1_5
 62
     9
  6
CONTINUOUS
370
    -2
100
AcDbLine
 10
2419.65264037
 20
-1842.1272902
 30
0.0
 11
2419.49936608
 21
-1842.69931765
 31
0.0
  0
LINE
  5
52C
100
AcDbEntity
  8
Sc.1_5
 62
     9
  6
CONTINUOUS
370
    -2
100
AcDbLine
 10
2415.03383737
 20
-1844.79395736
 30
0.0
 11
2414.88056308
 21
-1845.36598481
 31
0.0
  0
LINE
  5
52D
100
AcDbEntity
  8
Sc.1_5
 62
     9
  6
CONTINUOUS
370
    -2
100
AcDbLine
 10
2410.41503437
 20
-1847.46062452
 30
0.0
 11
2410.26176008
 21
-1848.03265196
 31
0.0
  0
LINE
  5
52E
100
AcDbEntity
  8
Sc.1_5
 62
     9
  6
CONTINUOUS
370
    -2
100
AcDbLine
 10
2405.79623137
 20
-1850.12729167
 30
0.0
 11
2405.64295708
 21
-1850.69931912
 31
0.0
  0
LINE
  5
52F
100
AcDbEntity
  8
Sc.1_5
 62
     9
  6
CONTINUOUS
370
    -2
100
AcDbLine
 10
2401.17742837
 20
-1852.79395883
 30
0.0
 11
2401.02415408
 21
-1853.36598627
 31
0.0
  0
LINE
  5
530
100
AcDbEntity
  8
Sc.1_5
 62
     9
  6
CONTINUOUS
370
    -2
100
AcDbLine
 10
2396.55862537
 20
-1855.46062598
 30
0.0
 11
2396.40535108
 21
-1856.03265343
 31
0.0
  0
LINE
  5
531
100
AcDbEntity
  8
Sc.1_5
 62
     9
  6
CONTINUOUS
370
    -2
100
AcDbLine
 10
2391.93982237
 20
-1858.12729314
 30
0.0
 11
2391.78654808
 21
-1858.69932058
 31
0.0
  0
LINE
  5
532
100
AcDbEntity
  8
Sc.1_5
 62
     9
  6
CONTINUOUS
370
    -2
100
AcDbLine
 10
2387.32101937
 20
-1860.79396029
 30
0.0
 11
2387.16774508
 21
-1861.36598774
 31
0.0
  0
LINE
  5
533
100
AcDbEntity
  8
Sc.1_5
 62
     9
  6
CONTINUOUS
370
    -2
100
AcDbLine
 10
2382.70221637
 20
-1863.46062745
 30
0.0
 11
2382.54894208
 21
-1864.0326549
 31
0.0
  0
LINE
  5
534
100
AcDbEntity
  8
Sc.1_5
 62
     9
  6
CONTINUOUS
370
    -2
100
AcDbLine
 10
2378.08341337
 20
-1866.1272946
 30
0.0
 11
2377.93013908
 21
-1866.69932205
 31
0.0
  0
LINE
  5
535
100
AcDbEntity
  8
Sc.1_5
 62
     9
  6
CONTINUOUS
370
    -2
100
AcDbLine
 10
2373.46461037
 20
-1868.79396176
 30
0.0
 11
2373.31133608
 21
-1869.36598921
 31
0.0
  0
LINE
  5
536
100
AcDbEntity
  8
Sc.1_5
 62
     9
  6
CONTINUOUS
370
    -2
100
AcDbLine
 10
2368.84580737
 20
-1871.46062891
 30
0.0
 11
2368.69253308
 21
-1872.03265636
 31
0.0
  0
LINE
  5
537
100
AcDbEntity
  8
Sc.1_5
 62
     9
  6
CONTINUOUS
370
    -2
100
AcDbLine
 10
2370.44725425
 20
-1871.01956575
 30
0.0
 11
2369.8752268
 21
-1870.86629145
 31
0.0
  0
LINE
  5
538
100
AcDbEntity
  8
Sc.1_5
 62
     9
  6
CONTINUOUS
370
    -2
100
AcDbLine
 10
2375.06605725
 20
-1868.35289859
 30
0.0
 11
2374.4940298
 21
-1868.1996243
 31
0.0
  0
LINE
  5
539
100
AcDbEntity
  8
Sc.1_5
 62
     9
  6
CONTINUOUS
370
    -2
100
AcDbLine
 10
2379.68486025
 20
-1865.68623144
 30
0.0
 11
2379.1128328
 21
-1865.53295714
 31
0.0
  0
LINE
  5
53A
100
AcDbEntity
  8
Sc.1_5
 62
     9
  6
CONTINUOUS
370
    -2
100
AcDbLine
 10
2384.30366325
 20
-1863.01956428
 30
0.0
 11
2383.7316358
 21
-1862.86628999
 31
0.0
  0
LINE
  5
53B
100
AcDbEntity
  8
Sc.1_5
 62
     9
  6
CONTINUOUS
370
    -2
100
AcDbLine
 10
2388.92246625
 20
-1860.35289713
 30
0.0
 11
2388.3504388
 21
-1860.19962283
 31
0.0
  0
LINE
  5
53C
100
AcDbEntity
  8
Sc.1_5
 62
     9
  6
CONTINUOUS
370
    -2
100
AcDbLine
 10
2393.54126925
 20
-1857.68622997
 30
0.0
 11
2392.9692418
 21
-1857.53295568
 31
0.0
  0
LINE
  5
53D
100
AcDbEntity
  8
Sc.1_5
 62
     9
  6
CONTINUOUS
370
    -2
100
AcDbLine
 10
2398.16007225
 20
-1855.01956282
 30
0.0
 11
2397.5880448
 21
-1854.86628852
 31
0.0
  0
LINE
  5
53E
100
AcDbEntity
  8
Sc.1_5
 62
     9
  6
CONTINUOUS
370
    -2
100
AcDbLine
 10
2402.77887525
 20
-1852.35289566
 30
0.0
 11
2402.2068478
 21
-1852.19962137
 31
0.0
  0
LINE
  5
53F
100
AcDbEntity
  8
Sc.1_5
 62
     9
  6
CONTINUOUS
370
    -2
100
AcDbLine
 10
2407.39767825
 20
-1849.68622851
 30
0.0
 11
2406.8256508
 21
-1849.53295421
 31
0.0
  0
LINE
  5
540
100
AcDbEntity
  8
Sc.1_5
 62
     9
  6
CONTINUOUS
370
    -2
100
AcDbLine
 10
2412.01648125
 20
-1847.01956135
 30
0.0
 11
2411.4444538
 21
-1846.86628706
 31
0.0
  0
LINE
  5
541
100
AcDbEntity
  8
Sc.1_5
 62
     9
  6
CONTINUOUS
370
    -2
100
AcDbLine
 10
2416.63528425
 20
-1844.35289419
 30
0.0
 11
2416.0632568
 21
-1844.1996199
 31
0.0
  0
LINE
  5
542
100
AcDbEntity
  8
Sc.1_5
 62
     9
  6
CONTINUOUS
370
    -2
100
AcDbLine
 10
2421.25408725
 20
-1841.68622704
 30
0.0
 11
2420.6820598
 21
-1841.53295275
 31
0.0
  0
LINE
  5
543
100
AcDbEntity
  8
Sc.1_5
 62
     9
  6
CONTINUOUS
370
    -2
100
AcDbLine
 10
2425.87289025
 20
-1839.01955988
 30
0.0
 11
2425.3008628
 21
-1838.86628559
 31
0.0
  0
LINE
  5
544
100
AcDbEntity
  8
Sc.1_5
 62
     9
  6
CONTINUOUS
370
    -2
100
AcDbLine
 10
2420.57802623
 20
-1825.35275884
 30
0.0
 11
2420.53804839
 21
-1825.97263746
 31
0.0
  0
LINE
  5
545
100
AcDbEntity
  8
Sc.1_5
 62
     9
  6
CONTINUOUS
370
    -2
100
AcDbLine
 10
2415.95922408
 20
-1828.0194262
 30
0.0
 11
2415.91924623
 21
-1828.63930483
 31
0.0
  0
LINE
  5
546
100
AcDbEntity
  8
Sc.1_5
 62
     9
  6
CONTINUOUS
370
    -2
100
AcDbLine
 10
2411.34042192
 20
-1830.68609357
 30
0.0
 11
2411.30044408
 21
-1831.30597219
 31
0.0
  0
LINE
  5
547
100
AcDbEntity
  8
Sc.1_5
 62
     9
  6
CONTINUOUS
370
    -2
100
AcDbLine
 10
2406.72161977
 20
-1833.35276093
 30
0.0
 11
2406.68164193
 21
-1833.97263955
 31
0.0
  0
LINE
  5
548
100
AcDbEntity
  8
Sc.1_5
 62
     9
  6
CONTINUOUS
370
    -2
100
AcDbLine
 10
2402.10281762
 20
-1836.0194283
 30
0.0
 11
2402.06283977
 21
-1836.63930692
 31
0.0
  0
LINE
  5
549
100
AcDbEntity
  8
Sc.1_5
 62
     9
  6
CONTINUOUS
370
    -2
100
AcDbLine
 10
2397.48401546
 20
-1838.68609566
 30
0.0
 11
2397.44403762
 21
-1839.30597428
 31
0.0
  0
LINE
  5
54A
100
AcDbEntity
  8
Sc.1_5
 62
     9
  6
CONTINUOUS
370
    -2
100
AcDbLine
 10
2392.86521331
 20
-1841.35276302
 30
0.0
 11
2392.82523547
 21
-1841.97264164
 31
0.0
  0
LINE
  5
54B
100
AcDbEntity
  8
Sc.1_5
 62
     9
  6
CONTINUOUS
370
    -2
100
AcDbLine
 10
2388.24641116
 20
-1844.01943039
 30
0.0
 11
2388.20643331
 21
-1844.63930901
 31
0.0
  0
LINE
  5
54C
100
AcDbEntity
  8
Sc.1_5
 62
     9
  6
CONTINUOUS
370
    -2
100
AcDbLine
 10
2383.627609
 20
-1846.68609775
 30
0.0
 11
2383.58763116
 21
-1847.30597637
 31
0.0
  0
LINE
  5
54D
100
AcDbEntity
  8
Sc.1_5
 62
     9
  6
CONTINUOUS
370
    -2
100
AcDbLine
 10
2379.00880685
 20
-1849.35276512
 30
0.0
 11
2378.96882901
 21
-1849.97264374
 31
0.0
  0
LINE
  5
54E
100
AcDbEntity
  8
Sc.1_5
 62
     9
  6
CONTINUOUS
370
    -2
100
AcDbLine
 10
2374.3900047
 20
-1852.01943248
 30
0.0
 11
2374.35002685
 21
-1852.6393111
 31
0.0
  0
LINE
  5
54F
100
AcDbEntity
  8
Sc.1_5
 62
     9
  6
CONTINUOUS
370
    -2
100
AcDbLine
 10
2369.77120254
 20
-1854.68609984
 30
0.0
 11
2369.7312247
 21
-1855.30597846
 31
0.0
  0
LINE
  5
550
100
AcDbEntity
  8
Sc.1_5
 62
     9
  6
CONTINUOUS
370
    -2
100
AcDbLine
 10
2365.15240039
 20
-1857.35276721
 30
0.0
 11
2365.11242255
 21
-1857.97264583
 31
0.0
  0
LINE
  5
551
100
AcDbEntity
  8
Sc.1_5
 62
     9
  6
CONTINUOUS
370
    -2
100
AcDbLine
 10
2419.54860634
 20
-1825.94709358
 30
0.0
 11
2420.10542588
 21
-1826.2224111
 31
0.0
  0
LINE
  5
552
100
AcDbEntity
  8
Sc.1_5
 62
     9
  6
CONTINUOUS
370
    -2
100
AcDbLine
 10
2414.92980341
 20
-1828.61375959
 30
0.0
 11
2415.48662294
 21
-1828.88907711
 31
0.0
  0
LINE
  5
553
100
AcDbEntity
  8
Sc.1_5
 62
     9
  6
CONTINUOUS
370
    -2
100
AcDbLine
 10
2410.31100047
 20
-1831.2804256
 30
0.0
 11
2410.86782001
 21
-1831.55574312
 31
0.0
  0
LINE
  5
554
100
AcDbEntity
  8
Sc.1_5
 62
     9
  6
CONTINUOUS
370
    -2
100
AcDbLine
 10
2405.69219754
 20
-1833.94709161
 30
0.0
 11
2406.24901708
 21
-1834.22240913
 31
0.0
  0
LINE
  5
555
100
AcDbEntity
  8
Sc.1_5
 62
     9
  6
CONTINUOUS
370
    -2
100
AcDbLine
 10
2401.0733946
 20
-1836.61375763
 30
0.0
 11
2401.63021414
 21
-1836.88907515
 31
0.0
  0
LINE
  5
556
100
AcDbEntity
  8
Sc.1_5
 62
     9
  6
CONTINUOUS
370
    -2
100
AcDbLine
 10
2396.45459167
 20
-1839.28042364
 30
0.0
 11
2397.01141121
 21
-1839.55574116
 31
0.0
  0
LINE
  5
557
100
AcDbEntity
  8
Sc.1_5
 62
     9
  6
CONTINUOUS
370
    -2
100
AcDbLine
 10
2391.83578873
 20
-1841.94708965
 30
0.0
 11
2392.39260827
 21
-1842.22240717
 31
0.0
  0
LINE
  5
558
100
AcDbEntity
  8
Sc.1_5
 62
     9
  6
CONTINUOUS
370
    -2
100
AcDbLine
 10
2387.2169858
 20
-1844.61375566
 30
0.0
 11
2387.77380534
 21
-1844.88907318
 31
0.0
  0
LINE
  5
559
100
AcDbEntity
  8
Sc.1_5
 62
     9
  6
CONTINUOUS
370
    -2
100
AcDbLine
 10
2382.59818286
 20
-1847.28042167
 30
0.0
 11
2383.1550024
 21
-1847.55573919
 31
0.0
  0
LINE
  5
55A
100
AcDbEntity
  8
Sc.1_5
 62
     9
  6
CONTINUOUS
370
    -2
100
AcDbLine
 10
2377.97937993
 20
-1849.94708768
 30
0.0
 11
2378.53619947
 21
-1850.2224052
 31
0.0
  0
LINE
  5
55B
100
AcDbEntity
  8
Sc.1_5
 62
     9
  6
CONTINUOUS
370
    -2
100
AcDbLine
 10
2373.360577
 20
-1852.61375369
 30
0.0
 11
2373.91739653
 21
-1852.88907121
 31
0.0
  0
LINE
  5
55C
100
AcDbEntity
  8
Sc.1_5
 62
     9
  6
CONTINUOUS
370
    -2
100
AcDbLine
 10
2368.74177406
 20
-1855.2804197
 30
0.0
 11
2369.2985936
 21
-1855.55573722
 31
0.0
  0
LINE
  5
55D
100
AcDbEntity
  8
Sc.1_5
 62
     9
  6
CONTINUOUS
370
    -2
100
AcDbLine
 10
2364.12297113
 20
-1857.94708571
 30
0.0
 11
2364.67979066
 21
-1858.22240323
 31
0.0
  0
LINE
  5
55E
100
AcDbEntity
  8
Sc.1_5
 62
     9
  6
CONTINUOUS
370
    -2
100
AcDbLine
 10
2428.93022412
 20
-1836.17407623
 30
0.0
 11
2428.89024628
 21
-1836.79395485
 31
0.0
  0
LINE
  5
55F
100
AcDbEntity
  8
Sc.1_5
 62
     9
  6
CONTINUOUS
370
    -2
100
AcDbLine
 10
2424.31142197
 20
-1838.84074359
 30
0.0
 11
2424.27144413
 21
-1839.46062222
 31
0.0
  0
LINE
  5
560
100
AcDbEntity
  8
Sc.1_5
 62
     9
  6
CONTINUOUS
370
    -2
100
AcDbLine
 10
2419.69261982
 20
-1841.50741096
 30
0.0
 11
2419.65264197
 21
-1842.12728958
 31
0.0
  0
LINE
  5
561
100
AcDbEntity
  8
Sc.1_5
 62
     9
  6
CONTINUOUS
370
    -2
100
AcDbLine
 10
2415.07381766
 20
-1844.17407832
 30
0.0
 11
2415.03383982
 21
-1844.79395694
 31
0.0
  0
LINE
  5
562
100
AcDbEntity
  8
Sc.1_5
 62
     9
  6
CONTINUOUS
370
    -2
100
AcDbLine
 10
2410.45501551
 20
-1846.84074569
 30
0.0
 11
2410.41503767
 21
-1847.46062431
 31
0.0
  0
LINE
  5
563
100
AcDbEntity
  8
Sc.1_5
 62
     9
  6
CONTINUOUS
370
    -2
100
AcDbLine
 10
2405.83621335
 20
-1849.50741305
 30
0.0
 11
2405.79623551
 21
-1850.12729167
 31
0.0
  0
LINE
  5
564
100
AcDbEntity
  8
Sc.1_5
 62
     9
  6
CONTINUOUS
370
    -2
100
AcDbLine
 10
2401.2174112
 20
-1852.17408041
 30
0.0
 11
2401.17743336
 21
-1852.79395903
 31
0.0
  0
LINE
  5
565
100
AcDbEntity
  8
Sc.1_5
 62
     9
  6
CONTINUOUS
370
    -2
100
AcDbLine
 10
2396.59860905
 20
-1854.84074778
 30
0.0
 11
2396.5586312
 21
-1855.4606264
 31
0.0
  0
LINE
  5
566
100
AcDbEntity
  8
Sc.1_5
 62
     9
  6
CONTINUOUS
370
    -2
100
AcDbLine
 10
2391.97980689
 20
-1857.50741514
 30
0.0
 11
2391.93982905
 21
-1858.12729376
 31
0.0
  0
LINE
  5
567
100
AcDbEntity
  8
Sc.1_5
 62
     9
  6
CONTINUOUS
370
    -2
100
AcDbLine
 10
2387.36100474
 20
-1860.17408251
 30
0.0
 11
2387.3210269
 21
-1860.79396113
 31
0.0
  0
LINE
  5
568
100
AcDbEntity
  8
Sc.1_5
 62
     9
  6
CONTINUOUS
370
    -2
100
AcDbLine
 10
2382.74220259
 20
-1862.84074987
 30
0.0
 11
2382.70222474
 21
-1863.46062849
 31
0.0
  0
LINE
  5
569
100
AcDbEntity
  8
Sc.1_5
 62
     9
  6
CONTINUOUS
370
    -2
100
AcDbLine
 10
2378.12340043
 20
-1865.50741723
 30
0.0
 11
2378.08342259
 21
-1866.12729585
 31
0.0
  0
LINE
  5
56A
100
AcDbEntity
  8
Sc.1_5
 62
     9
  6
CONTINUOUS
370
    -2
100
AcDbLine
 10
2373.50459828
 20
-1868.1740846
 30
0.0
 11
2373.46462044
 21
-1868.79396322
 31
0.0
  0
LINE
  5
56B
100
AcDbEntity
  8
Sc.1_5
 62
     9
  6
CONTINUOUS
370
    -2
100
AcDbLine
 10
2368.88579613
 20
-1870.84075196
 30
0.0
 11
2368.84581828
 21
-1871.46063058
 31
0.0
  0
LINE
  5
56C
100
AcDbEntity
  8
Sc.1_5
 62
     9
  6
CONTINUOUS
370
    -2
100
AcDbLine
 10
2369.87523028
 20
-1870.86628296
 30
0.0
 11
2369.31841072
 21
-1870.59096547
 31
0.0
  0
LINE
  5
56D
100
AcDbEntity
  8
Sc.1_5
 62
     9
  6
CONTINUOUS
370
    -2
100
AcDbLine
 10
2374.49403303
 20
-1868.19961664
 30
0.0
 11
2373.93721348
 21
-1867.92429916
 31
0.0
  0
LINE
  5
56E
100
AcDbEntity
  8
Sc.1_5
 62
     9
  6
CONTINUOUS
370
    -2
100
AcDbLine
 10
2379.11283579
 20
-1865.53295032
 30
0.0
 11
2378.55601624
 21
-1865.25763284
 31
0.0
  0
LINE
  5
56F
100
AcDbEntity
  8
Sc.1_5
 62
     9
  6
CONTINUOUS
370
    -2
100
AcDbLine
 10
2383.73163855
 20
-1862.866284
 30
0.0
 11
2383.17481899
 21
-1862.59096652
 31
0.0
  0
LINE
  5
570
100
AcDbEntity
  8
Sc.1_5
 62
     9
  6
CONTINUOUS
370
    -2
100
AcDbLine
 10
2388.3504413
 20
-1860.19961768
 30
0.0
 11
2387.79362175
 21
-1859.9243002
 31
0.0
  0
LINE
  5
571
100
AcDbEntity
  8
Sc.1_5
 62
     9
  6
CONTINUOUS
370
    -2
100
AcDbLine
 10
2392.96924406
 20
-1857.53295137
 30
0.0
 11
2392.41242451
 21
-1857.25763388
 31
0.0
  0
LINE
  5
572
100
AcDbEntity
  8
Sc.1_5
 62
     9
  6
CONTINUOUS
370
    -2
100
AcDbLine
 10
2397.58804682
 20
-1854.86628505
 30
0.0
 11
2397.03122726
 21
-1854.59096756
 31
0.0
  0
LINE
  5
573
100
AcDbEntity
  8
Sc.1_5
 62
     9
  6
CONTINUOUS
370
    -2
100
AcDbLine
 10
2402.20684958
 20
-1852.19961873
 30
0.0
 11
2401.65003002
 21
-1851.92430125
 31
0.0
  0
LINE
  5
574
100
AcDbEntity
  8
Sc.1_5
 62
     9
  6
CONTINUOUS
370
    -2
100
AcDbLine
 10
2406.82565233
 20
-1849.53295241
 30
0.0
 11
2406.26883278
 21
-1849.25763493
 31
0.0
  0
LINE
  5
575
100
AcDbEntity
  8
Sc.1_5
 62
     9
  6
CONTINUOUS
370
    -2
100
AcDbLine
 10
2411.44445509
 20
-1846.86628609
 30
0.0
 11
2410.88763554
 21
-1846.59096861
 31
0.0
  0
LINE
  5
576
100
AcDbEntity
  8
Sc.1_5
 62
     9
  6
CONTINUOUS
370
    -2
100
AcDbLine
 10
2416.06325785
 20
-1844.19961978
 30
0.0
 11
2415.50643829
 21
-1843.92430229
 31
0.0
  0
LINE
  5
577
100
AcDbEntity
  8
Sc.1_5
 62
     9
  6
CONTINUOUS
370
    -2
100
AcDbLine
 10
2420.68206061
 20
-1841.53295346
 30
0.0
 11
2420.12524105
 21
-1841.25763597
 31
0.0
  0
LINE
  5
578
100
AcDbEntity
  8
Sc.1_5
 62
     9
  6
CONTINUOUS
370
    -2
100
AcDbLine
 10
2425.30086336
 20
-1838.86628714
 30
0.0
 11
2424.74404381
 21
-1838.59096966
 31
0.0
  0
LINE
  5
579
100
AcDbEntity
  8
Sc.1_5
 62
     9
  6
CONTINUOUS
370
    -2
100
AcDbLine
 10
2420.53804795
 20
-1825.9726376
 30
0.0
 11
2420.69639854
 21
-1826.74645774
 31
0.0
  0
LINE
  5
57A
100
AcDbEntity
  8
Sc.1_5
 62
     9
  6
CONTINUOUS
370
    -2
100
AcDbLine
 10
2415.9192453
 20
-1828.63930486
 30
0.0
 11
2416.07759589
 21
-1829.413125
 31
0.0
  0
LINE
  5
57B
100
AcDbEntity
  8
Sc.1_5
 62
     9
  6
CONTINUOUS
370
    -2
100
AcDbLine
 10
2411.30044265
 20
-1831.30597212
 30
0.0
 11
2411.45879324
 21
-1832.07979227
 31
0.0
  0
LINE
  5
57C
100
AcDbEntity
  8
Sc.1_5
 62
     9
  6
CONTINUOUS
370
    -2
100
AcDbLine
 10
2406.68164
 20
-1833.97263938
 30
0.0
 11
2406.83999059
 21
-1834.74645953
 31
0.0
  0
LINE
  5
57D
100
AcDbEntity
  8
Sc.1_5
 62
     9
  6
CONTINUOUS
370
    -2
100
AcDbLine
 10
2402.06283735
 20
-1836.63930664
 30
0.0
 11
2402.22118794
 21
-1837.41312679
 31
0.0
  0
LINE
  5
57E
100
AcDbEntity
  8
Sc.1_5
 62
     9
  6
CONTINUOUS
370
    -2
100
AcDbLine
 10
2397.4440347
 20
-1839.3059739
 30
0.0
 11
2397.60238529
 21
-1840.07979405
 31
0.0
  0
LINE
  5
57F
100
AcDbEntity
  8
Sc.1_5
 62
     9
  6
CONTINUOUS
370
    -2
100
AcDbLine
 10
2392.82523206
 20
-1841.97264117
 30
0.0
 11
2392.98358264
 21
-1842.74646131
 31
0.0
  0
LINE
  5
580
100
AcDbEntity
  8
Sc.1_5
 62
     9
  6
CONTINUOUS
370
    -2
100
AcDbLine
 10
2388.20642941
 20
-1844.63930843
 30
0.0
 11
2388.36477999
 21
-1845.41312857
 31
0.0
  0
LINE
  5
581
100
AcDbEntity
  8
Sc.1_5
 62
     9
  6
CONTINUOUS
370
    -2
100
AcDbLine
 10
2383.58762676
 20
-1847.30597569
 30
0.0
 11
2383.74597734
 21
-1848.07979584
 31
0.0
  0
LINE
  5
582
100
AcDbEntity
  8
Sc.1_5
 62
     9
  6
CONTINUOUS
370
    -2
100
AcDbLine
 10
2378.96882411
 20
-1849.97264295
 30
0.0
 11
2379.12717469
 21
-1850.7464631
 31
0.0
  0
LINE
  5
583
100
AcDbEntity
  8
Sc.1_5
 62
     9
  6
CONTINUOUS
370
    -2
100
AcDbLine
 10
2374.35002146
 20
-1852.63931021
 30
0.0
 11
2374.50837204
 21
-1853.41313036
 31
0.0
  0
LINE
  5
584
100
AcDbEntity
  8
Sc.1_5
 62
     9
  6
CONTINUOUS
370
    -2
100
AcDbLine
 10
2369.73121881
 20
-1855.30597748
 30
0.0
 11
2369.88956939
 21
-1856.07979762
 31
0.0
  0
LINE
  5
585
100
AcDbEntity
  8
Sc.1_5
 62
     9
  6
CONTINUOUS
370
    -2
100
AcDbLine
 10
2365.11241616
 20
-1857.97264474
 30
0.0
 11
2365.27076674
 21
-1858.74646488
 31
0.0
  0
LINE
  5
586
100
AcDbEntity
  8
Sc.1_5
 62
     9
  6
CONTINUOUS
370
    -2
100
AcDbLine
 10
2420.10542625
 20
-1826.22241154
 30
0.0
 11
2420.69639886
 21
-1826.74645725
 31
0.0
  0
LINE
  5
587
100
AcDbEntity
  8
Sc.1_5
 62
     9
  6
CONTINUOUS
370
    -2
100
AcDbLine
 10
2415.48662333
 20
-1828.88907834
 30
0.0
 11
2416.07759594
 21
-1829.41312405
 31
0.0
  0
LINE
  5
588
100
AcDbEntity
  8
Sc.1_5
 62
     9
  6
CONTINUOUS
370
    -2
100
AcDbLine
 10
2410.86782042
 20
-1831.55574514
 30
0.0
 11
2411.45879303
 21
-1832.07979085
 31
0.0
  0
LINE
  5
589
100
AcDbEntity
  8
Sc.1_5
 62
     9
  6
CONTINUOUS
370
    -2
100
AcDbLine
 10
2406.2490175
 20
-1834.22241194
 30
0.0
 11
2406.83999011
 21
-1834.74645764
 31
0.0
  0
LINE
  5
58A
100
AcDbEntity
  8
Sc.1_5
 62
     9
  6
CONTINUOUS
370
    -2
100
AcDbLine
 10
2401.63021458
 20
-1836.88907874
 30
0.0
 11
2402.22118719
 21
-1837.41312444
 31
0.0
  0
LINE
  5
58B
100
AcDbEntity
  8
Sc.1_5
 62
     9
  6
CONTINUOUS
370
    -2
100
AcDbLine
 10
2397.01141166
 20
-1839.55574554
 30
0.0
 11
2397.60238428
 21
-1840.07979124
 31
0.0
  0
LINE
  5
58C
100
AcDbEntity
  8
Sc.1_5
 62
     9
  6
CONTINUOUS
370
    -2
100
AcDbLine
 10
2392.39260875
 20
-1842.22241234
 30
0.0
 11
2392.98358136
 21
-1842.74645804
 31
0.0
  0
LINE
  5
58D
100
AcDbEntity
  8
Sc.1_5
 62
     9
  6
CONTINUOUS
370
    -2
100
AcDbLine
 10
2387.77380583
 20
-1844.88907913
 30
0.0
 11
2388.36477844
 21
-1845.41312484
 31
0.0
  0
LINE
  5
58E
100
AcDbEntity
  8
Sc.1_5
 62
     9
  6
CONTINUOUS
370
    -2
100
AcDbLine
 10
2383.15500291
 20
-1847.55574593
 30
0.0
 11
2383.74597552
 21
-1848.07979164
 31
0.0
  0
LINE
  5
58F
100
AcDbEntity
  8
Sc.1_5
 62
     9
  6
CONTINUOUS
370
    -2
100
AcDbLine
 10
2378.5362
 20
-1850.22241273
 30
0.0
 11
2379.12717261
 21
-1850.74645844
 31
0.0
  0
LINE
  5
590
100
AcDbEntity
  8
Sc.1_5
 62
     9
  6
CONTINUOUS
370
    -2
100
AcDbLine
 10
2373.91739708
 20
-1852.88907953
 30
0.0
 11
2374.50836969
 21
-1853.41312523
 31
0.0
  0
LINE
  5
591
100
AcDbEntity
  8
Sc.1_5
 62
     9
  6
CONTINUOUS
370
    -2
100
AcDbLine
 10
2369.29859416
 20
-1855.55574633
 30
0.0
 11
2369.88956677
 21
-1856.07979203
 31
0.0
  0
LINE
  5
592
100
AcDbEntity
  8
Sc.1_5
 62
     9
  6
CONTINUOUS
370
    -2
100
AcDbLine
 10
2364.67979125
 20
-1858.22241313
 30
0.0
 11
2365.27076386
 21
-1858.74645883
 31
0.0
  0
LINE
  5
593
100
AcDbEntity
  8
Sc.1_5
 62
     9
  6
CONTINUOUS
370
    -2
100
AcDbLine
 10
2428.77187385
 20
-1835.40025669
 30
0.0
 11
2428.93022443
 21
-1836.17407683
 31
0.0
  0
LINE
  5
594
100
AcDbEntity
  8
Sc.1_5
 62
     9
  6
CONTINUOUS
370
    -2
100
AcDbLine
 10
2424.1530712
 20
-1838.06692395
 30
0.0
 11
2424.31142179
 21
-1838.84074409
 31
0.0
  0
LINE
  5
595
100
AcDbEntity
  8
Sc.1_5
 62
     9
  6
CONTINUOUS
370
    -2
100
AcDbLine
 10
2419.53426855
 20
-1840.73359121
 30
0.0
 11
2419.69261914
 21
-1841.50741136
 31
0.0
  0
LINE
  5
596
100
AcDbEntity
  8
Sc.1_5
 62
     9
  6
CONTINUOUS
370
    -2
100
AcDbLine
 10
2414.9154659
 20
-1843.40025847
 30
0.0
 11
2415.07381649
 21
-1844.17407862
 31
0.0
  0
LINE
  5
597
100
AcDbEntity
  8
Sc.1_5
 62
     9
  6
CONTINUOUS
370
    -2
100
AcDbLine
 10
2410.29666325
 20
-1846.06692573
 30
0.0
 11
2410.45501384
 21
-1846.84074588
 31
0.0
  0
LINE
  5
598
100
AcDbEntity
  8
Sc.1_5
 62
     9
  6
CONTINUOUS
370
    -2
100
AcDbLine
 10
2405.6778606
 20
-1848.733593
 30
0.0
 11
2405.83621119
 21
-1849.50741314
 31
0.0
  0
LINE
  5
599
100
AcDbEntity
  8
Sc.1_5
 62
     9
  6
CONTINUOUS
370
    -2
100
AcDbLine
 10
2401.05905795
 20
-1851.40026026
 30
0.0
 11
2401.21740854
 21
-1852.1740804
 31
0.0
  0
LINE
  5
59A
100
AcDbEntity
  8
Sc.1_5
 62
     9
  6
CONTINUOUS
370
    -2
100
AcDbLine
 10
2396.4402553
 20
-1854.06692752
 30
0.0
 11
2396.59860589
 21
-1854.84074766
 31
0.0
  0
LINE
  5
59B
100
AcDbEntity
  8
Sc.1_5
 62
     9
  6
CONTINUOUS
370
    -2
100
AcDbLine
 10
2391.82145265
 20
-1856.73359478
 30
0.0
 11
2391.97980324
 21
-1857.50741493
 31
0.0
  0
LINE
  5
59C
100
AcDbEntity
  8
Sc.1_5
 62
     9
  6
CONTINUOUS
370
    -2
100
AcDbLine
 10
2387.20265
 20
-1859.40026204
 30
0.0
 11
2387.36100059
 21
-1860.17408219
 31
0.0
  0
LINE
  5
59D
100
AcDbEntity
  8
Sc.1_5
 62
     9
  6
CONTINUOUS
370
    -2
100
AcDbLine
 10
2382.58384735
 20
-1862.0669293
 30
0.0
 11
2382.74219794
 21
-1862.84074945
 31
0.0
  0
LINE
  5
59E
100
AcDbEntity
  8
Sc.1_5
 62
     9
  6
CONTINUOUS
370
    -2
100
AcDbLine
 10
2377.9650447
 20
-1864.73359657
 30
0.0
 11
2378.12339529
 21
-1865.50741671
 31
0.0
  0
LINE
  5
59F
100
AcDbEntity
  8
Sc.1_5
 62
     9
  6
CONTINUOUS
370
    -2
100
AcDbLine
 10
2373.34624205
 20
-1867.40026383
 30
0.0
 11
2373.50459264
 21
-1868.17408397
 31
0.0
  0
LINE
  5
5A0
100
AcDbEntity
  8
Sc.1_5
 62
     9
  6
CONTINUOUS
370
    -2
100
AcDbLine
 10
2368.7274394
 20
-1870.06693109
 30
0.0
 11
2368.88578999
 21
-1870.84075124
 31
0.0
  0
LINE
  5
5A1
100
AcDbEntity
  8
Sc.1_5
 62
     9
  6
CONTINUOUS
370
    -2
100
AcDbLine
 10
2369.31840943
 20
-1870.59096978
 30
0.0
 11
2368.72743682
 21
-1870.06692408
 31
0.0
  0
LINE
  5
5A2
100
AcDbEntity
  8
Sc.1_5
 62
     9
  6
CONTINUOUS
370
    -2
100
AcDbLine
 10
2373.93721235
 20
-1867.92430299
 30
0.0
 11
2373.34623974
 21
-1867.40025728
 31
0.0
  0
LINE
  5
5A3
100
AcDbEntity
  8
Sc.1_5
 62
     9
  6
CONTINUOUS
370
    -2
100
AcDbLine
 10
2378.55601527
 20
-1865.25763619
 30
0.0
 11
2377.96504266
 21
-1864.73359048
 31
0.0
  0
LINE
  5
5A4
100
AcDbEntity
  8
Sc.1_5
 62
     9
  6
CONTINUOUS
370
    -2
100
AcDbLine
 10
2383.17481818
 20
-1862.59096939
 30
0.0
 11
2382.58384557
 21
-1862.06692368
 31
0.0
  0
LINE
  5
5A5
100
AcDbEntity
  8
Sc.1_5
 62
     9
  6
CONTINUOUS
370
    -2
100
AcDbLine
 10
2387.7936211
 20
-1859.92430259
 30
0.0
 11
2387.20264849
 21
-1859.40025689
 31
0.0
  0
LINE
  5
5A6
100
AcDbEntity
  8
Sc.1_5
 62
     9
  6
CONTINUOUS
370
    -2
100
AcDbLine
 10
2392.41242402
 20
-1857.25763579
 30
0.0
 11
2391.82145141
 21
-1856.73359009
 31
0.0
  0
LINE
  5
5A7
100
AcDbEntity
  8
Sc.1_5
 62
     9
  6
CONTINUOUS
370
    -2
100
AcDbLine
 10
2397.03122693
 20
-1854.59096899
 30
0.0
 11
2396.44025432
 21
-1854.06692329
 31
0.0
  0
LINE
  5
5A8
100
AcDbEntity
  8
Sc.1_5
 62
     9
  6
CONTINUOUS
370
    -2
100
AcDbLine
 10
2401.65002985
 20
-1851.92430219
 30
0.0
 11
2401.05905724
 21
-1851.40025649
 31
0.0
  0
LINE
  5
5A9
100
AcDbEntity
  8
Sc.1_5
 62
     9
  6
CONTINUOUS
370
    -2
100
AcDbLine
 10
2406.26883277
 20
-1849.25763539
 30
0.0
 11
2405.67786016
 21
-1848.73358969
 31
0.0
  0
LINE
  5
5AA
100
AcDbEntity
  8
Sc.1_5
 62
     9
  6
CONTINUOUS
370
    -2
100
AcDbLine
 10
2410.88763569
 20
-1846.5909686
 30
0.0
 11
2410.29666307
 21
-1846.06692289
 31
0.0
  0
LINE
  5
5AB
100
AcDbEntity
  8
Sc.1_5
 62
     9
  6
CONTINUOUS
370
    -2
100
AcDbLine
 10
2415.5064386
 20
-1843.9243018
 30
0.0
 11
2414.91546599
 21
-1843.40025609
 31
0.0
  0
LINE
  5
5AC
100
AcDbEntity
  8
Sc.1_5
 62
     9
  6
CONTINUOUS
370
    -2
100
AcDbLine
 10
2420.12524152
 20
-1841.257635
 30
0.0
 11
2419.53426891
 21
-1840.73358929
 31
0.0
  0
LINE
  5
5AD
100
AcDbEntity
  8
Sc.1_5
 62
     9
  6
CONTINUOUS
370
    -2
100
AcDbLine
 10
2424.74404444
 20
-1838.5909682
 30
0.0
 11
2424.15307183
 21
-1838.0669225
 31
0.0
  0
LINE
  5
5AE
100
AcDbEntity
  8
Sc.1_5
 62
     9
  6
CONTINUOUS
370
    -2
100
AcDbLine
 10
2420.91277131
 20
-1827.12122664
 30
0.0
 11
2421.14374275
 21
-1827.64839879
 31
0.0
  0
LINE
  5
5AF
100
AcDbEntity
  8
Sc.1_5
 62
     9
  6
CONTINUOUS
370
    -2
100
AcDbLine
 10
2416.29397261
 20
-1829.78789884
 30
0.0
 11
2416.52494405
 21
-1830.315071
 31
0.0
  0
LINE
  5
5B0
100
AcDbEntity
  8
Sc.1_5
 62
     9
  6
CONTINUOUS
370
    -2
100
AcDbLine
 10
2411.6751739
 20
-1832.45457104
 30
0.0
 11
2411.90614535
 21
-1832.9817432
 31
0.0
  0
LINE
  5
5B1
100
AcDbEntity
  8
Sc.1_5
 62
     9
  6
CONTINUOUS
370
    -2
100
AcDbLine
 10
2407.0563752
 20
-1835.12124324
 30
0.0
 11
2407.28734664
 21
-1835.6484154
 31
0.0
  0
LINE
  5
5B2
100
AcDbEntity
  8
Sc.1_5
 62
     9
  6
CONTINUOUS
370
    -2
100
AcDbLine
 10
2402.43757649
 20
-1837.78791545
 30
0.0
 11
2402.66854794
 21
-1838.3150876
 31
0.0
  0
LINE
  5
5B3
100
AcDbEntity
  8
Sc.1_5
 62
     9
  6
CONTINUOUS
370
    -2
100
AcDbLine
 10
2397.81877779
 20
-1840.45458765
 30
0.0
 11
2398.04974923
 21
-1840.9817598
 31
0.0
  0
LINE
  5
5B4
100
AcDbEntity
  8
Sc.1_5
 62
     9
  6
CONTINUOUS
370
    -2
100
AcDbLine
 10
2393.19997909
 20
-1843.12125985
 30
0.0
 11
2393.43095053
 21
-1843.648432
 31
0.0
  0
LINE
  5
5B5
100
AcDbEntity
  8
Sc.1_5
 62
     9
  6
CONTINUOUS
370
    -2
100
AcDbLine
 10
2388.58118038
 20
-1845.78793205
 30
0.0
 11
2388.81215182
 21
-1846.3151042
 31
0.0
  0
LINE
  5
5B6
100
AcDbEntity
  8
Sc.1_5
 62
     9
  6
CONTINUOUS
370
    -2
100
AcDbLine
 10
2383.96238168
 20
-1848.45460425
 30
0.0
 11
2384.19335312
 21
-1848.9817764
 31
0.0
  0
LINE
  5
5B7
100
AcDbEntity
  8
Sc.1_5
 62
     9
  6
CONTINUOUS
370
    -2
100
AcDbLine
 10
2379.34358297
 20
-1851.12127645
 30
0.0
 11
2379.57455442
 21
-1851.64844861
 31
0.0
  0
LINE
  5
5B8
100
AcDbEntity
  8
Sc.1_5
 62
     9
  6
CONTINUOUS
370
    -2
100
AcDbLine
 10
2374.72478427
 20
-1853.78794865
 30
0.0
 11
2374.95575571
 21
-1854.31512081
 31
0.0
  0
LINE
  5
5B9
100
AcDbEntity
  8
Sc.1_5
 62
     9
  6
CONTINUOUS
370
    -2
100
AcDbLine
 10
2370.10598556
 20
-1856.45462085
 30
0.0
 11
2370.33695701
 21
-1856.98179301
 31
0.0
  0
LINE
  5
5BA
100
AcDbEntity
  8
Sc.1_5
 62
     9
  6
CONTINUOUS
370
    -2
100
AcDbLine
 10
2365.48718686
 20
-1859.12129305
 30
0.0
 11
2365.7181583
 21
-1859.64846521
 31
0.0
  0
LINE
  5
5BB
100
AcDbEntity
  8
Sc.1_5
 62
     9
  6
CONTINUOUS
370
    -2
100
AcDbLine
 10
2420.91276956
 20
-1827.12122013
 30
0.0
 11
2421.25382831
 21
-1827.58483334
 31
0.0
  0
LINE
  5
5BC
100
AcDbEntity
  8
Sc.1_5
 62
     9
  6
CONTINUOUS
370
    -2
100
AcDbLine
 10
2416.29396433
 20
-1829.78788104
 30
0.0
 11
2416.63502309
 21
-1830.25149425
 31
0.0
  0
LINE
  5
5BD
100
AcDbEntity
  8
Sc.1_5
 62
     9
  6
CONTINUOUS
370
    -2
100
AcDbLine
 10
2411.67515911
 20
-1832.45454195
 30
0.0
 11
2412.01621787
 21
-1832.91815517
 31
0.0
  0
LINE
  5
5BE
100
AcDbEntity
  8
Sc.1_5
 62
     9
  6
CONTINUOUS
370
    -2
100
AcDbLine
 10
2407.05635389
 20
-1835.12120286
 30
0.0
 11
2407.39741265
 21
-1835.58481608
 31
0.0
  0
LINE
  5
5BF
100
AcDbEntity
  8
Sc.1_5
 62
     9
  6
CONTINUOUS
370
    -2
100
AcDbLine
 10
2402.43754867
 20
-1837.78786378
 30
0.0
 11
2402.77860742
 21
-1838.25147699
 31
0.0
  0
LINE
  5
5C0
100
AcDbEntity
  8
Sc.1_5
 62
     9
  6
CONTINUOUS
370
    -2
100
AcDbLine
 10
2397.81874345
 20
-1840.45452469
 30
0.0
 11
2398.1598022
 21
-1840.9181379
 31
0.0
  0
LINE
  5
5C1
100
AcDbEntity
  8
Sc.1_5
 62
     9
  6
CONTINUOUS
370
    -2
100
AcDbLine
 10
2393.19993822
 20
-1843.1211856
 30
0.0
 11
2393.54099698
 21
-1843.58479882
 31
0.0
  0
LINE
  5
5C2
100
AcDbEntity
  8
Sc.1_5
 62
     9
  6
CONTINUOUS
370
    -2
100
AcDbLine
 10
2388.581133
 20
-1845.78784651
 30
0.0
 11
2388.92219176
 21
-1846.25145973
 31
0.0
  0
LINE
  5
5C3
100
AcDbEntity
  8
Sc.1_5
 62
     9
  6
CONTINUOUS
370
    -2
100
AcDbLine
 10
2383.96232778
 20
-1848.45450743
 30
0.0
 11
2384.30338654
 21
-1848.91812064
 31
0.0
  0
LINE
  5
5C4
100
AcDbEntity
  8
Sc.1_5
 62
     9
  6
CONTINUOUS
370
    -2
100
AcDbLine
 10
2379.34352256
 20
-1851.12116834
 30
0.0
 11
2379.68458132
 21
-1851.58478155
 31
0.0
  0
LINE
  5
5C5
100
AcDbEntity
  8
Sc.1_5
 62
     9
  6
CONTINUOUS
370
    -2
100
AcDbLine
 10
2374.72471734
 20
-1853.78782925
 30
0.0
 11
2375.06577609
 21
-1854.25144246
 31
0.0
  0
LINE
  5
5C6
100
AcDbEntity
  8
Sc.1_5
 62
     9
  6
CONTINUOUS
370
    -2
100
AcDbLine
 10
2370.10591211
 20
-1856.45449016
 30
0.0
 11
2370.44697087
 21
-1856.91810338
 31
0.0
  0
LINE
  5
5C7
100
AcDbEntity
  8
Sc.1_5
 62
     9
  6
CONTINUOUS
370
    -2
100
AcDbLine
 10
2365.48710689
 20
-1859.12115108
 30
0.0
 11
2365.82816565
 21
-1859.58476429
 31
0.0
  0
LINE
  5
5C8
100
AcDbEntity
  8
Sc.1_5
 62
     9
  6
CONTINUOUS
370
    -2
100
AcDbLine
 10
2368.51112953
 20
-1869.69224678
 30
0.0
 11
2368.28015795
 21
-1869.16507468
 31
0.0
  0
LINE
  5
5C9
100
AcDbEntity
  8
Sc.1_5
 62
     9
  6
CONTINUOUS
370
    -2
100
AcDbLine
 10
2373.12992752
 20
-1867.02557334
 30
0.0
 11
2372.89895594
 21
-1866.49840125
 31
0.0
  0
LINE
  5
5CA
100
AcDbEntity
  8
Sc.1_5
 62
     9
  6
CONTINUOUS
370
    -2
100
AcDbLine
 10
2377.74872552
 20
-1864.35889991
 30
0.0
 11
2377.51775394
 21
-1863.83172782
 31
0.0
  0
LINE
  5
5CB
100
AcDbEntity
  8
Sc.1_5
 62
     9
  6
CONTINUOUS
370
    -2
100
AcDbLine
 10
2382.36752351
 20
-1861.69222648
 30
0.0
 11
2382.13655193
 21
-1861.16505439
 31
0.0
  0
LINE
  5
5CC
100
AcDbEntity
  8
Sc.1_5
 62
     9
  6
CONTINUOUS
370
    -2
100
AcDbLine
 10
2386.98632151
 20
-1859.02555305
 30
0.0
 11
2386.75534992
 21
-1858.49838096
 31
0.0
  0
LINE
  5
5CD
100
AcDbEntity
  8
Sc.1_5
 62
     9
  6
CONTINUOUS
370
    -2
100
AcDbLine
 10
2391.6051195
 20
-1856.35887962
 30
0.0
 11
2391.37414792
 21
-1855.83170753
 31
0.0
  0
LINE
  5
5CE
100
AcDbEntity
  8
Sc.1_5
 62
     9
  6
CONTINUOUS
370
    -2
100
AcDbLine
 10
2396.22391749
 20
-1853.69220619
 30
0.0
 11
2395.99294591
 21
-1853.16503409
 31
0.0
  0
LINE
  5
5CF
100
AcDbEntity
  8
Sc.1_5
 62
     9
  6
CONTINUOUS
370
    -2
100
AcDbLine
 10
2400.84271549
 20
-1851.02553276
 30
0.0
 11
2400.61174391
 21
-1850.49836066
 31
0.0
  0
LINE
  5
5D0
100
AcDbEntity
  8
Sc.1_5
 62
     9
  6
CONTINUOUS
370
    -2
100
AcDbLine
 10
2405.46151348
 20
-1848.35885933
 30
0.0
 11
2405.2305419
 21
-1847.83168723
 31
0.0
  0
LINE
  5
5D1
100
AcDbEntity
  8
Sc.1_5
 62
     9
  6
CONTINUOUS
370
    -2
100
AcDbLine
 10
2410.08031148
 20
-1845.69218589
 30
0.0
 11
2409.84933989
 21
-1845.1650138
 31
0.0
  0
LINE
  5
5D2
100
AcDbEntity
  8
Sc.1_5
 62
     9
  6
CONTINUOUS
370
    -2
100
AcDbLine
 10
2414.69910947
 20
-1843.02551246
 30
0.0
 11
2414.46813789
 21
-1842.49834037
 31
0.0
  0
LINE
  5
5D3
100
AcDbEntity
  8
Sc.1_5
 62
     9
  6
CONTINUOUS
370
    -2
100
AcDbLine
 10
2419.31790746
 20
-1840.35883903
 30
0.0
 11
2419.08693588
 21
-1839.83166694
 31
0.0
  0
LINE
  5
5D4
100
AcDbEntity
  8
Sc.1_5
 62
     9
  6
CONTINUOUS
370
    -2
100
AcDbLine
 10
2423.93670546
 20
-1837.6921656
 30
0.0
 11
2423.70573388
 21
-1837.16499351
 31
0.0
  0
LINE
  5
5D5
100
AcDbEntity
  8
Sc.1_5
 62
     9
  6
CONTINUOUS
370
    -2
100
AcDbLine
 10
2368.51103557
 20
-1869.69208403
 30
0.0
 11
2368.16997681
 21
-1869.22847081
 31
0.0
  0
LINE
  5
5D6
100
AcDbEntity
  8
Sc.1_5
 62
     9
  6
CONTINUOUS
370
    -2
100
AcDbLine
 10
2373.12984079
 20
-1867.02542312
 30
0.0
 11
2372.78878203
 21
-1866.5618099
 31
0.0
  0
LINE
  5
5D7
100
AcDbEntity
  8
Sc.1_5
 62
     9
  6
CONTINUOUS
370
    -2
100
AcDbLine
 10
2377.74864601
 20
-1864.3587622
 30
0.0
 11
2377.40758725
 21
-1863.89514899
 31
0.0
  0
LINE
  5
5D8
100
AcDbEntity
  8
Sc.1_5
 62
     9
  6
CONTINUOUS
370
    -2
100
AcDbLine
 10
2382.36745123
 20
-1861.69210129
 30
0.0
 11
2382.02639248
 21
-1861.22848808
 31
0.0
  0
LINE
  5
5D9
100
AcDbEntity
  8
Sc.1_5
 62
     9
  6
CONTINUOUS
370
    -2
100
AcDbLine
 10
2386.98625646
 20
-1859.02544038
 30
0.0
 11
2386.6451977
 21
-1858.56182717
 31
0.0
  0
LINE
  5
5DA
100
AcDbEntity
  8
Sc.1_5
 62
     9
  6
CONTINUOUS
370
    -2
100
AcDbLine
 10
2391.60506168
 20
-1856.35877947
 30
0.0
 11
2391.26400292
 21
-1855.89516625
 31
0.0
  0
LINE
  5
5DB
100
AcDbEntity
  8
Sc.1_5
 62
     9
  6
CONTINUOUS
370
    -2
100
AcDbLine
 10
2396.2238669
 20
-1853.69211855
 30
0.0
 11
2395.88280814
 21
-1853.22850534
 31
0.0
  0
LINE
  5
5DC
100
AcDbEntity
  8
Sc.1_5
 62
     9
  6
CONTINUOUS
370
    -2
100
AcDbLine
 10
2400.84267212
 20
-1851.02545764
 30
0.0
 11
2400.50161336
 21
-1850.56184443
 31
0.0
  0
LINE
  5
5DD
100
AcDbEntity
  8
Sc.1_5
 62
     9
  6
CONTINUOUS
370
    -2
100
AcDbLine
 10
2405.46147734
 20
-1848.35879673
 30
0.0
 11
2405.12041859
 21
-1847.89518352
 31
0.0
  0
LINE
  5
5DE
100
AcDbEntity
  8
Sc.1_5
 62
     9
  6
CONTINUOUS
370
    -2
100
AcDbLine
 10
2410.08028257
 20
-1845.69213582
 30
0.0
 11
2409.73922381
 21
-1845.2285226
 31
0.0
  0
LINE
  5
5DF
100
AcDbEntity
  8
Sc.1_5
 62
     9
  6
CONTINUOUS
370
    -2
100
AcDbLine
 10
2414.69908779
 20
-1843.02547491
 30
0.0
 11
2414.35802903
 21
-1842.56186169
 31
0.0
  0
LINE
  5
5E0
100
AcDbEntity
  8
Sc.1_5
 62
     9
  6
CONTINUOUS
370
    -2
100
AcDbLine
 10
2419.31789301
 20
-1840.35881399
 30
0.0
 11
2418.97683425
 21
-1839.89520078
 31
0.0
  0
LINE
  5
5E1
100
AcDbEntity
  8
Sc.1_5
 62
     9
  6
CONTINUOUS
370
    -2
100
AcDbLine
 10
2423.93669823
 20
-1837.69215308
 30
0.0
 11
2423.59563947
 21
-1837.22853987
 31
0.0
  0
LINE
  5
5E2
100
AcDbEntity
  8
Sc.1_5
 62
     9
  6
CONTINUOUS
370
    -2
100
AcDbLine
 10
2428.55550345
 20
-1835.02549217
 30
0.0
 11
2428.2144447
 21
-1834.56187895
 31
0.0
  0
ENDBLK
  5
5E3
100
AcDbEntity
100
AcDbBlockEnd
  0
BLOCK
  5
5E4
100
AcDbEntity
  8
Sc.1_5
100
AcDbBlockBegin
  2
*X2529
 70
     1
 10
0.0
 20
0.0
 30
0.0
  3
*X2529
  1

  4
Cadwork hatch
  0
LINE
  5
5E5
100
AcDbEntity
  8
Sc.1_5
 62
     9
  6
CONTINUOUS
370
    -2
100
AcDbLine
 10
2461.20699545
 20
-1819.24565174
 30
0.0
 11
2460.897724
 21
-1819.4242097
 31
0.0
  0
LINE
  5
5E6
100
AcDbEntity
  8
Sc.1_5
 62
     9
  6
CONTINUOUS
370
    -2
100
AcDbLine
 10
2459.20686408
 20
-1820.40042812
 30
0.0
 11
2458.58832241
 21
-1820.75754333
 31
0.0
  0
LINE
  5
5E7
100
AcDbEntity
  8
Sc.1_5
 62
     9
  6
CONTINUOUS
370
    -2
100
AcDbLine
 10
2456.89746249
 20
-1821.73376176
 30
0.0
 11
2456.27892082
 21
-1822.09087696
 31
0.0
  0
LINE
  5
5E8
100
AcDbEntity
  8
Sc.1_5
 62
     9
  6
CONTINUOUS
370
    -2
100
AcDbLine
 10
2454.5880609
 20
-1823.06709539
 30
0.0
 11
2453.96951922
 21
-1823.42421059
 31
0.0
  0
LINE
  5
5E9
100
AcDbEntity
  8
Sc.1_5
 62
     9
  6
CONTINUOUS
370
    -2
100
AcDbLine
 10
2452.27865931
 20
-1824.40042902
 30
0.0
 11
2451.66011763
 21
-1824.75754422
 31
0.0
  0
LINE
  5
5EA
100
AcDbEntity
  8
Sc.1_5
 62
     9
  6
CONTINUOUS
370
    -2
100
AcDbLine
 10
2449.96925771
 20
-1825.73376265
 30
0.0
 11
2449.35071604
 21
-1826.09087785
 31
0.0
  0
LINE
  5
5EB
100
AcDbEntity
  8
Sc.1_5
 62
     9
  6
CONTINUOUS
370
    -2
100
AcDbLine
 10
2447.65985612
 20
-1827.06709628
 30
0.0
 11
2447.04131445
 21
-1827.42421148
 31
0.0
  0
LINE
  5
5EC
100
AcDbEntity
  8
Sc.1_5
 62
     9
  6
CONTINUOUS
370
    -2
100
AcDbLine
 10
2445.35045453
 20
-1828.40042991
 30
0.0
 11
2444.73191285
 21
-1828.75754511
 31
0.0
  0
LINE
  5
5ED
100
AcDbEntity
  8
Sc.1_5
 62
     9
  6
CONTINUOUS
370
    -2
100
AcDbLine
 10
2443.04105293
 20
-1829.73376354
 30
0.0
 11
2442.42251126
 21
-1830.09087875
 31
0.0
  0
LINE
  5
5EE
100
AcDbEntity
  8
Sc.1_5
 62
     9
  6
CONTINUOUS
370
    -2
100
AcDbLine
 10
2440.73165134
 20
-1831.06709717
 30
0.0
 11
2440.11310967
 21
-1831.42421238
 31
0.0
  0
LINE
  5
5EF
100
AcDbEntity
  8
Sc.1_5
 62
     9
  6
CONTINUOUS
370
    -2
100
AcDbLine
 10
2438.42224975
 20
-1832.40043081
 30
0.0
 11
2437.80370807
 21
-1832.75754601
 31
0.0
  0
LINE
  5
5F0
100
AcDbEntity
  8
Sc.1_5
 62
     9
  6
CONTINUOUS
370
    -2
100
AcDbLine
 10
2452.01455688
 20
-1808.65721693
 30
0.0
 11
2452.23092728
 21
-1809.03198145
 31
0.0
  0
LINE
  5
5F1
100
AcDbEntity
  8
Sc.1_5
 62
     9
  6
CONTINUOUS
370
    -2
100
AcDbLine
 10
2447.3957551
 20
-1811.32388339
 30
0.0
 11
2447.6121255
 21
-1811.6986479
 31
0.0
  0
LINE
  5
5F2
100
AcDbEntity
  8
Sc.1_5
 62
     9
  6
CONTINUOUS
370
    -2
100
AcDbLine
 10
2442.77695332
 20
-1813.99054984
 30
0.0
 11
2442.99332371
 21
-1814.36531436
 31
0.0
  0
LINE
  5
5F3
100
AcDbEntity
  8
Sc.1_5
 62
     9
  6
CONTINUOUS
370
    -2
100
AcDbLine
 10
2438.15815154
 20
-1816.65721629
 30
0.0
 11
2438.37452193
 21
-1817.03198081
 31
0.0
  0
LINE
  5
5F4
100
AcDbEntity
  8
Sc.1_5
 62
     9
  6
CONTINUOUS
370
    -2
100
AcDbLine
 10
2433.53934975
 20
-1819.32388274
 30
0.0
 11
2433.75572015
 21
-1819.69864726
 31
0.0
  0
LINE
  5
5F5
100
AcDbEntity
  8
Sc.1_5
 62
     9
  6
CONTINUOUS
370
    -2
100
AcDbLine
 10
2459.87366087
 20
-1816.93625191
 30
0.0
 11
2460.09003126
 21
-1817.31101643
 31
0.0
  0
LINE
  5
5F6
100
AcDbEntity
  8
Sc.1_5
 62
     9
  6
CONTINUOUS
370
    -2
100
AcDbLine
 10
2455.25485908
 20
-1819.60291836
 30
0.0
 11
2455.47122948
 21
-1819.97768288
 31
0.0
  0
LINE
  5
5F7
100
AcDbEntity
  8
Sc.1_5
 62
     9
  6
CONTINUOUS
370
    -2
100
AcDbLine
 10
2450.6360573
 20
-1822.26958481
 30
0.0
 11
2450.8524277
 21
-1822.64434933
 31
0.0
  0
LINE
  5
5F8
100
AcDbEntity
  8
Sc.1_5
 62
     9
  6
CONTINUOUS
370
    -2
100
AcDbLine
 10
2446.01725552
 20
-1824.93625126
 30
0.0
 11
2446.23362592
 21
-1825.31101578
 31
0.0
  0
LINE
  5
5F9
100
AcDbEntity
  8
Sc.1_5
 62
     9
  6
CONTINUOUS
370
    -2
100
AcDbLine
 10
2441.39845374
 20
-1827.60291772
 30
0.0
 11
2441.61482413
 21
-1827.97768223
 31
0.0
  0
LINE
  5
5FA
100
AcDbEntity
  8
Sc.1_5
 62
     9
  6
CONTINUOUS
370
    -2
100
AcDbLine
 10
2436.77965196
 20
-1830.26958417
 30
0.0
 11
2436.99602235
 21
-1830.64434869
 31
0.0
  0
LINE
  5
5FB
100
AcDbEntity
  8
Sc.1_5
 62
     9
  6
CONTINUOUS
370
    -2
100
AcDbLine
 10
2452.57198615
 20
-1809.49559292
 30
0.0
 11
2459.53260302
 21
-1816.47263833
 31
0.0
  0
LINE
  5
5FC
100
AcDbEntity
  8
Sc.1_5
 62
     9
  6
CONTINUOUS
370
    -2
100
AcDbLine
 10
2447.95318073
 20
-1812.1622509
 30
0.0
 11
2454.9137976
 21
-1819.13929631
 31
0.0
  0
LINE
  5
5FD
100
AcDbEntity
  8
Sc.1_5
 62
     9
  6
CONTINUOUS
370
    -2
100
AcDbLine
 10
2443.33437532
 20
-1814.82890889
 30
0.0
 11
2450.29499219
 21
-1821.8059543
 31
0.0
  0
LINE
  5
5FE
100
AcDbEntity
  8
Sc.1_5
 62
     9
  6
CONTINUOUS
370
    -2
100
AcDbLine
 10
2438.7155699
 20
-1817.49556688
 30
0.0
 11
2445.67618677
 21
-1824.47261229
 31
0.0
  0
LINE
  5
5FF
100
AcDbEntity
  8
Sc.1_5
 62
     9
  6
CONTINUOUS
370
    -2
100
AcDbLine
 10
2434.09676449
 20
-1820.16222487
 30
0.0
 11
2441.05738136
 21
-1827.13927028
 31
0.0
  0
LINE
  5
600
100
AcDbEntity
  8
Sc.1_5
 62
     9
  6
CONTINUOUS
370
    -2
100
AcDbLine
 10
2435.24156888
 20
-1828.60609601
 30
0.0
 11
2436.43857594
 21
-1829.80592827
 31
0.0
  0
LINE
  5
601
100
AcDbEntity
  8
Sc.1_5
 62
     9
  6
CONTINUOUS
370
    -2
100
AcDbLine
 10
2452.46189847
 20
-1809.55915207
 30
0.0
 11
2455.0238886
 21
-1819.07574581
 31
0.0
  0
LINE
  5
602
100
AcDbEntity
  8
Sc.1_5
 62
     9
  6
CONTINUOUS
370
    -2
100
AcDbLine
 10
2447.8431022
 20
-1812.2258259
 30
0.0
 11
2450.40509233
 21
-1821.74241964
 31
0.0
  0
LINE
  5
603
100
AcDbEntity
  8
Sc.1_5
 62
     9
  6
CONTINUOUS
370
    -2
100
AcDbLine
 10
2443.22430593
 20
-1814.89249973
 30
0.0
 11
2445.78629607
 21
-1824.40909347
 31
0.0
  0
LINE
  5
604
100
AcDbEntity
  8
Sc.1_5
 62
     9
  6
CONTINUOUS
370
    -2
100
AcDbLine
 10
2438.60550966
 20
-1817.55917356
 30
0.0
 11
2441.1674998
 21
-1827.0757673
 31
0.0
  0
LINE
  5
605
100
AcDbEntity
  8
Sc.1_5
 62
     9
  6
CONTINUOUS
370
    -2
100
AcDbLine
 10
2433.98671339
 20
-1820.22584739
 30
0.0
 11
2436.54870353
 21
-1829.74244113
 31
0.0
  0
LINE
  5
606
100
AcDbEntity
  8
Sc.1_5
 62
     9
  6
CONTINUOUS
370
    -2
100
AcDbLine
 10
2452.89772438
 20
-1805.56780389
 30
0.0
 11
2452.38745433
 21
-1806.08263843
 31
0.0
  0
LINE
  5
607
100
AcDbEntity
  8
Sc.1_5
 62
     9
  6
CONTINUOUS
370
    -2
100
AcDbLine
 10
2448.27892229
 20
-1808.23447052
 30
0.0
 11
2447.76865262
 21
-1808.74930467
 31
0.0
  0
LINE
  5
608
100
AcDbEntity
  8
Sc.1_5
 62
     9
  6
CONTINUOUS
370
    -2
100
AcDbLine
 10
2443.6601202
 20
-1810.90113716
 30
0.0
 11
2443.14985092
 21
-1811.41597092
 31
0.0
  0
LINE
  5
609
100
AcDbEntity
  8
Sc.1_5
 62
     9
  6
CONTINUOUS
370
    -2
100
AcDbLine
 10
2439.04131811
 20
-1813.56780379
 30
0.0
 11
2438.53104921
 21
-1814.08263716
 31
0.0
  0
LINE
  5
60A
100
AcDbEntity
  8
Sc.1_5
 62
     9
  6
CONTINUOUS
370
    -2
100
AcDbLine
 10
2434.42251602
 20
-1816.23447042
 30
0.0
 11
2433.9122475
 21
-1816.74930341
 31
0.0
  0
LINE
  5
60B
100
AcDbEntity
  8
Sc.1_5
 62
     9
  6
CONTINUOUS
370
    -2
100
AcDbLine
 10
2429.80371393
 20
-1818.90113705
 30
0.0
 11
2429.69925591
 21
-1819.00652946
 31
0.0
  0
LINE
  5
60C
100
AcDbEntity
  8
Sc.1_5
 62
     9
  6
CONTINUOUS
370
    -2
100
AcDbLine
 10
2448.89746485
 20
-1807.8773558
 30
0.0
 11
2449.59845964
 21
-1807.69286615
 31
0.0
  0
LINE
  5
60D
100
AcDbEntity
  8
Sc.1_5
 62
     9
  6
CONTINUOUS
370
    -2
100
AcDbLine
 10
2444.27866364
 20
-1810.54402291
 30
0.0
 11
2444.97965843
 21
-1810.35953325
 31
0.0
  0
LINE
  5
60E
100
AcDbEntity
  8
Sc.1_5
 62
     9
  6
CONTINUOUS
370
    -2
100
AcDbLine
 10
2439.65986243
 20
-1813.21069001
 30
0.0
 11
2440.36085722
 21
-1813.02620036
 31
0.0
  0
LINE
  5
60F
100
AcDbEntity
  8
Sc.1_5
 62
     9
  6
CONTINUOUS
370
    -2
100
AcDbLine
 10
2435.04106122
 20
-1815.87735712
 30
0.0
 11
2435.74205601
 21
-1815.69286747
 31
0.0
  0
LINE
  5
610
100
AcDbEntity
  8
Sc.1_5
 62
     9
  6
CONTINUOUS
370
    -2
100
AcDbLine
 10
2430.42226001
 20
-1818.54402423
 30
0.0
 11
2431.12325479
 21
-1818.35953458
 31
0.0
  0
LINE
  5
611
100
AcDbEntity
  8
Sc.1_5
 62
     9
  6
CONTINUOUS
370
    -2
100
AcDbLine
 10
2459.71713556
 20
-1819.88559458
 30
0.0
 11
2459.20686683
 21
-1820.40042779
 31
0.0
  0
LINE
  5
612
100
AcDbEntity
  8
Sc.1_5
 62
     9
  6
CONTINUOUS
370
    -2
100
AcDbLine
 10
2455.09833385
 20
-1822.55226083
 30
0.0
 11
2454.58806474
 21
-1823.06709442
 31
0.0
  0
LINE
  5
613
100
AcDbEntity
  8
Sc.1_5
 62
     9
  6
CONTINUOUS
370
    -2
100
AcDbLine
 10
2450.47953215
 20
-1825.21892707
 30
0.0
 11
2449.96926265
 21
-1825.73376105
 31
0.0
  0
LINE
  5
614
100
AcDbEntity
  8
Sc.1_5
 62
     9
  6
CONTINUOUS
370
    -2
100
AcDbLine
 10
2445.86073044
 20
-1827.88559332
 30
0.0
 11
2445.35046056
 21
-1828.40042768
 31
0.0
  0
LINE
  5
615
100
AcDbEntity
  8
Sc.1_5
 62
     9
  6
CONTINUOUS
370
    -2
100
AcDbLine
 10
2441.24192873
 20
-1830.55225956
 30
0.0
 11
2440.73165868
 21
-1831.0670941
 31
0.0
  0
LINE
  5
616
100
AcDbEntity
  8
Sc.1_5
 62
     9
  6
CONTINUOUS
370
    -2
100
AcDbLine
 10
2440.11311624
 20
-1831.42420984
 30
0.0
 11
2439.41212322
 21
-1831.60869892
 31
0.0
  0
LINE
  5
617
100
AcDbEntity
  8
Sc.1_5
 62
     9
  6
CONTINUOUS
370
    -2
100
AcDbLine
 10
2444.73191833
 20
-1828.7575432
 30
0.0
 11
2444.03092479
 21
-1828.94203243
 31
0.0
  0
LINE
  5
618
100
AcDbEntity
  8
Sc.1_5
 62
     9
  6
CONTINUOUS
370
    -2
100
AcDbLine
 10
2449.35072042
 20
-1826.09087657
 30
0.0
 11
2448.64972635
 21
-1826.27536594
 31
0.0
  0
LINE
  5
619
100
AcDbEntity
  8
Sc.1_5
 62
     9
  6
CONTINUOUS
370
    -2
100
AcDbLine
 10
2453.96952251
 20
-1823.42420994
 30
0.0
 11
2453.26852792
 21
-1823.60869945
 31
0.0
  0
LINE
  5
61A
100
AcDbEntity
  8
Sc.1_5
 62
     9
  6
CONTINUOUS
370
    -2
100
AcDbLine
 10
2458.58832429
 20
-1820.75754339
 30
0.0
 11
2457.88732948
 21
-1820.94203295
 31
0.0
  0
LINE
  5
61B
100
AcDbEntity
  8
Sc.1_5
 62
     9
  6
CONTINUOUS
370
    -2
100
AcDbLine
 10
2452.38745508
 20
-1806.08263805
 30
0.0
 11
2452.04945854
 21
-1806.69149133
 31
0.0
  0
LINE
  5
61C
100
AcDbEntity
  8
Sc.1_5
 62
     9
  6
CONTINUOUS
370
    -2
100
AcDbLine
 10
2447.76865252
 20
-1808.74930499
 30
0.0
 11
2447.43065597
 21
-1809.35815828
 31
0.0
  0
LINE
  5
61D
100
AcDbEntity
  8
Sc.1_5
 62
     9
  6
CONTINUOUS
370
    -2
100
AcDbLine
 10
2443.14984995
 20
-1811.41597194
 30
0.0
 11
2442.81185341
 21
-1812.02482522
 31
0.0
  0
LINE
  5
61E
100
AcDbEntity
  8
Sc.1_5
 62
     9
  6
CONTINUOUS
370
    -2
100
AcDbLine
 10
2438.53104739
 20
-1814.08263888
 30
0.0
 11
2438.19305085
 21
-1814.69149216
 31
0.0
  0
LINE
  5
61F
100
AcDbEntity
  8
Sc.1_5
 62
     9
  6
CONTINUOUS
370
    -2
100
AcDbLine
 10
2433.91224483
 20
-1816.74930582
 30
0.0
 11
2433.57424829
 21
-1817.35815911
 31
0.0
  0
LINE
  5
620
100
AcDbEntity
  8
Sc.1_5
 62
     9
  6
CONTINUOUS
370
    -2
100
AcDbLine
 10
2449.60187433
 20
-1807.69089339
 30
0.0
 11
2450.29815501
 21
-1807.70260649
 31
0.0
  0
LINE
  5
621
100
AcDbEntity
  8
Sc.1_5
 62
     9
  6
CONTINUOUS
370
    -2
100
AcDbLine
 10
2444.98307156
 20
-1810.35755997
 30
0.0
 11
2445.67935224
 21
-1810.36927306
 31
0.0
  0
LINE
  5
622
100
AcDbEntity
  8
Sc.1_5
 62
     9
  6
CONTINUOUS
370
    -2
100
AcDbLine
 10
2440.36426878
 20
-1813.02422654
 30
0.0
 11
2441.06054946
 21
-1813.03593964
 31
0.0
  0
LINE
  5
623
100
AcDbEntity
  8
Sc.1_5
 62
     9
  6
CONTINUOUS
370
    -2
100
AcDbLine
 10
2435.74546601
 20
-1815.69089312
 30
0.0
 11
2436.44174669
 21
-1815.70260621
 31
0.0
  0
LINE
  5
624
100
AcDbEntity
  8
Sc.1_5
 62
     9
  6
CONTINUOUS
370
    -2
100
AcDbLine
 10
2431.12666323
 20
-1818.35755969
 30
0.0
 11
2431.82294391
 21
-1818.36927279
 31
0.0
  0
LINE
  5
625
100
AcDbEntity
  8
Sc.1_5
 62
     9
  6
CONTINUOUS
370
    -2
100
AcDbLine
 10
2460.0551305
 20
-1819.27674063
 30
0.0
 11
2459.71713395
 21
-1819.88559391
 31
0.0
  0
LINE
  5
626
100
AcDbEntity
  8
Sc.1_5
 62
     9
  6
CONTINUOUS
370
    -2
100
AcDbLine
 10
2455.43632793
 20
-1821.94340757
 30
0.0
 11
2455.09833139
 21
-1822.55226085
 31
0.0
  0
LINE
  5
627
100
AcDbEntity
  8
Sc.1_5
 62
     9
  6
CONTINUOUS
370
    -2
100
AcDbLine
 10
2450.81752537
 20
-1824.61007451
 30
0.0
 11
2450.47952883
 21
-1825.2189278
 31
0.0
  0
LINE
  5
628
100
AcDbEntity
  8
Sc.1_5
 62
     9
  6
CONTINUOUS
370
    -2
100
AcDbLine
 10
2446.19872281
 20
-1827.27674146
 30
0.0
 11
2445.86072627
 21
-1827.88559474
 31
0.0
  0
LINE
  5
629
100
AcDbEntity
  8
Sc.1_5
 62
     9
  6
CONTINUOUS
370
    -2
100
AcDbLine
 10
2441.57992025
 20
-1829.9434084
 30
0.0
 11
2441.24192371
 21
-1830.55226169
 31
0.0
  0
LINE
  5
62A
100
AcDbEntity
  8
Sc.1_5
 62
     9
  6
CONTINUOUS
370
    -2
100
AcDbLine
 10
2439.41211876
 20
-1831.60870134
 30
0.0
 11
2438.71583808
 21
-1831.59698829
 31
0.0
  0
LINE
  5
62B
100
AcDbEntity
  8
Sc.1_5
 62
     9
  6
CONTINUOUS
370
    -2
100
AcDbLine
 10
2444.03092136
 20
-1828.94203446
 30
0.0
 11
2443.33464068
 21
-1828.93032141
 31
0.0
  0
LINE
  5
62C
100
AcDbEntity
  8
Sc.1_5
 62
     9
  6
CONTINUOUS
370
    -2
100
AcDbLine
 10
2448.64972396
 20
-1826.27536757
 30
0.0
 11
2447.95344327
 21
-1826.26365452
 31
0.0
  0
LINE
  5
62D
100
AcDbEntity
  8
Sc.1_5
 62
     9
  6
CONTINUOUS
370
    -2
100
AcDbLine
 10
2453.26852655
 20
-1823.60870069
 30
0.0
 11
2452.57224587
 21
-1823.59698764
 31
0.0
  0
LINE
  5
62E
100
AcDbEntity
  8
Sc.1_5
 62
     9
  6
CONTINUOUS
370
    -2
100
AcDbLine
 10
2457.88732915
 20
-1820.94203381
 30
0.0
 11
2457.19104847
 21
-1820.93032076
 31
0.0
  0
LINE
  5
62F
100
AcDbEntity
  8
Sc.1_5
 62
     9
  6
CONTINUOUS
370
    -2
100
AcDbLine
 10
2452.04945979
 20
-1806.69149139
 30
0.0
 11
2451.8961855
 21
-1807.26351884
 31
0.0
  0
LINE
  5
630
100
AcDbEntity
  8
Sc.1_5
 62
     9
  6
CONTINUOUS
370
    -2
100
AcDbLine
 10
2447.43065679
 20
-1809.35815854
 30
0.0
 11
2447.2773825
 21
-1809.93018599
 31
0.0
  0
LINE
  5
631
100
AcDbEntity
  8
Sc.1_5
 62
     9
  6
CONTINUOUS
370
    -2
100
AcDbLine
 10
2442.81185379
 20
-1812.0248257
 30
0.0
 11
2442.6585795
 21
-1812.59685315
 31
0.0
  0
LINE
  5
632
100
AcDbEntity
  8
Sc.1_5
 62
     9
  6
CONTINUOUS
370
    -2
100
AcDbLine
 10
2438.19305079
 20
-1814.69149285
 30
0.0
 11
2438.0397765
 21
-1815.2635203
 31
0.0
  0
LINE
  5
633
100
AcDbEntity
  8
Sc.1_5
 62
     9
  6
CONTINUOUS
370
    -2
100
AcDbLine
 10
2433.57424779
 20
-1817.35816001
 30
0.0
 11
2433.4209735
 21
-1817.93018746
 31
0.0
  0
LINE
  5
634
100
AcDbEntity
  8
Sc.1_5
 62
     9
  6
CONTINUOUS
370
    -2
100
AcDbLine
 10
2450.29473727
 20
-1807.7045809
 30
0.0
 11
2450.86676472
 21
-1807.8578552
 31
0.0
  0
LINE
  5
635
100
AcDbEntity
  8
Sc.1_5
 62
     9
  6
CONTINUOUS
370
    -2
100
AcDbLine
 10
2445.67593427
 20
-1810.37124806
 30
0.0
 11
2446.24796172
 21
-1810.52452235
 31
0.0
  0
LINE
  5
636
100
AcDbEntity
  8
Sc.1_5
 62
     9
  6
CONTINUOUS
370
    -2
100
AcDbLine
 10
2441.05713127
 20
-1813.03791522
 30
0.0
 11
2441.62915872
 21
-1813.19118951
 31
0.0
  0
LINE
  5
637
100
AcDbEntity
  8
Sc.1_5
 62
     9
  6
CONTINUOUS
370
    -2
100
AcDbLine
 10
2436.43832827
 20
-1815.70458237
 30
0.0
 11
2437.01035572
 21
-1815.85785666
 31
0.0
  0
LINE
  5
638
100
AcDbEntity
  8
Sc.1_5
 62
     9
  6
CONTINUOUS
370
    -2
100
AcDbLine
 10
2431.81952527
 20
-1818.37124953
 30
0.0
 11
2432.39155272
 21
-1818.52452382
 31
0.0
  0
LINE
  5
639
100
AcDbEntity
  8
Sc.1_5
 62
     9
  6
CONTINUOUS
370
    -2
100
AcDbLine
 10
2460.20840465
 20
-1818.70471513
 30
0.0
 11
2460.05513036
 21
-1819.27674258
 31
0.0
  0
LINE
  5
63A
100
AcDbEntity
  8
Sc.1_5
 62
     9
  6
CONTINUOUS
370
    -2
100
AcDbLine
 10
2455.58960165
 20
-1821.37138229
 30
0.0
 11
2455.43632736
 21
-1821.94340974
 31
0.0
  0
LINE
  5
63B
100
AcDbEntity
  8
Sc.1_5
 62
     9
  6
CONTINUOUS
370
    -2
100
AcDbLine
 10
2450.97079865
 20
-1824.03804944
 30
0.0
 11
2450.81752436
 21
-1824.61007689
 31
0.0
  0
LINE
  5
63C
100
AcDbEntity
  8
Sc.1_5
 62
     9
  6
CONTINUOUS
370
    -2
100
AcDbLine
 10
2446.35199565
 20
-1826.7047166
 30
0.0
 11
2446.19872136
 21
-1827.27674405
 31
0.0
  0
LINE
  5
63D
100
AcDbEntity
  8
Sc.1_5
 62
     9
  6
CONTINUOUS
370
    -2
100
AcDbLine
 10
2441.73319265
 20
-1829.37138376
 30
0.0
 11
2441.57991836
 21
-1829.9434112
 31
0.0
  0
LINE
  5
63E
100
AcDbEntity
  8
Sc.1_5
 62
     9
  6
CONTINUOUS
370
    -2
100
AcDbLine
 10
2438.71583653
 20
-1831.59698775
 30
0.0
 11
2438.14380908
 21
-1831.44371345
 31
0.0
  0
LINE
  5
63F
100
AcDbEntity
  8
Sc.1_5
 62
     9
  6
CONTINUOUS
370
    -2
100
AcDbLine
 10
2443.33463953
 20
-1828.93032059
 30
0.0
 11
2442.76261208
 21
-1828.7770463
 31
0.0
  0
LINE
  5
640
100
AcDbEntity
  8
Sc.1_5
 62
     9
  6
CONTINUOUS
370
    -2
100
AcDbLine
 10
2447.95344253
 20
-1826.26365343
 30
0.0
 11
2447.38141508
 21
-1826.11037914
 31
0.0
  0
LINE
  5
641
100
AcDbEntity
  8
Sc.1_5
 62
     9
  6
CONTINUOUS
370
    -2
100
AcDbLine
 10
2452.57224553
 20
-1823.59698628
 30
0.0
 11
2452.00021808
 21
-1823.44371199
 31
0.0
  0
LINE
  5
642
100
AcDbEntity
  8
Sc.1_5
 62
     9
  6
CONTINUOUS
370
    -2
100
AcDbLine
 10
2457.19104853
 20
-1820.93031912
 30
0.0
 11
2456.61902108
 21
-1820.77704483
 31
0.0
  0
LINE
  5
643
100
AcDbEntity
  8
Sc.1_5
 62
     9
  6
CONTINUOUS
370
    -2
100
AcDbLine
 10
2451.89618451
 20
-1807.26351808
 30
0.0
 11
2451.85620667
 21
-1807.8833967
 31
0.0
  0
LINE
  5
644
100
AcDbEntity
  8
Sc.1_5
 62
     9
  6
CONTINUOUS
370
    -2
100
AcDbLine
 10
2447.27738236
 20
-1809.93018544
 30
0.0
 11
2447.23740451
 21
-1810.55006407
 31
0.0
  0
LINE
  5
645
100
AcDbEntity
  8
Sc.1_5
 62
     9
  6
CONTINUOUS
370
    -2
100
AcDbLine
 10
2442.6585802
 20
-1812.59685281
 30
0.0
 11
2442.61860236
 21
-1813.21673143
 31
0.0
  0
LINE
  5
646
100
AcDbEntity
  8
Sc.1_5
 62
     9
  6
CONTINUOUS
370
    -2
100
AcDbLine
 10
2438.03977805
 20
-1815.26352017
 30
0.0
 11
2437.99980021
 21
-1815.88339879
 31
0.0
  0
LINE
  5
647
100
AcDbEntity
  8
Sc.1_5
 62
     9
  6
CONTINUOUS
370
    -2
100
AcDbLine
 10
2433.4209759
 20
-1817.93018754
 30
0.0
 11
2433.38099805
 21
-1818.55006616
 31
0.0
  0
LINE
  5
648
100
AcDbEntity
  8
Sc.1_5
 62
     9
  6
CONTINUOUS
370
    -2
100
AcDbLine
 10
2450.86676462
 20
-1807.85785282
 30
0.0
 11
2451.42358416
 21
-1808.13317034
 31
0.0
  0
LINE
  5
649
100
AcDbEntity
  8
Sc.1_5
 62
     9
  6
CONTINUOUS
370
    -2
100
AcDbLine
 10
2446.24796169
 20
-1810.52451883
 30
0.0
 11
2446.80478122
 21
-1810.79983635
 31
0.0
  0
LINE
  5
64A
100
AcDbEntity
  8
Sc.1_5
 62
     9
  6
CONTINUOUS
370
    -2
100
AcDbLine
 10
2441.62915875
 20
-1813.19118484
 30
0.0
 11
2442.18597829
 21
-1813.46650236
 31
0.0
  0
LINE
  5
64B
100
AcDbEntity
  8
Sc.1_5
 62
     9
  6
CONTINUOUS
370
    -2
100
AcDbLine
 10
2437.01035582
 20
-1815.85785085
 30
0.0
 11
2437.56717535
 21
-1816.13316837
 31
0.0
  0
LINE
  5
64C
100
AcDbEntity
  8
Sc.1_5
 62
     9
  6
CONTINUOUS
370
    -2
100
AcDbLine
 10
2432.39155288
 20
-1818.52451686
 30
0.0
 11
2432.94837242
 21
-1818.79983438
 31
0.0
  0
LINE
  5
64D
100
AcDbEntity
  8
Sc.1_5
 62
     9
  6
CONTINUOUS
370
    -2
100
AcDbLine
 10
2460.2483824
 20
-1818.08483547
 30
0.0
 11
2460.20840456
 21
-1818.70471409
 31
0.0
  0
LINE
  5
64E
100
AcDbEntity
  8
Sc.1_5
 62
     9
  6
CONTINUOUS
370
    -2
100
AcDbLine
 10
2455.62958025
 20
-1820.75150283
 30
0.0
 11
2455.58960241
 21
-1821.37138146
 31
0.0
  0
LINE
  5
64F
100
AcDbEntity
  8
Sc.1_5
 62
     9
  6
CONTINUOUS
370
    -2
100
AcDbLine
 10
2451.0107781
 20
-1823.4181702
 30
0.0
 11
2450.97080025
 21
-1824.03804882
 31
0.0
  0
LINE
  5
650
100
AcDbEntity
  8
Sc.1_5
 62
     9
  6
CONTINUOUS
370
    -2
100
AcDbLine
 10
2446.39197594
 20
-1826.08483756
 30
0.0
 11
2446.3519981
 21
-1826.70471618
 31
0.0
  0
LINE
  5
651
100
AcDbEntity
  8
Sc.1_5
 62
     9
  6
CONTINUOUS
370
    -2
100
AcDbLine
 10
2441.77317379
 20
-1828.75150493
 30
0.0
 11
2441.73319595
 21
-1829.37138355
 31
0.0
  0
LINE
  5
652
100
AcDbEntity
  8
Sc.1_5
 62
     9
  6
CONTINUOUS
370
    -2
100
AcDbLine
 10
2437.15437163
 20
-1831.41817229
 30
0.0
 11
2437.12530757
 21
-1831.86882675
 31
0.0
  0
LINE
  5
653
100
AcDbEntity
  8
Sc.1_5
 62
     9
  6
CONTINUOUS
370
    -2
100
AcDbLine
 10
2438.14381061
 20
-1831.44371165
 30
0.0
 11
2437.58699106
 21
-1831.16839417
 31
0.0
  0
LINE
  5
654
100
AcDbEntity
  8
Sc.1_5
 62
     9
  6
CONTINUOUS
370
    -2
100
AcDbLine
 10
2442.76261337
 20
-1828.77704533
 30
0.0
 11
2442.20579382
 21
-1828.50172785
 31
0.0
  0
LINE
  5
655
100
AcDbEntity
  8
Sc.1_5
 62
     9
  6
CONTINUOUS
370
    -2
100
AcDbLine
 10
2447.38141613
 20
-1826.11037902
 30
0.0
 11
2446.82459657
 21
-1825.83506153
 31
0.0
  0
LINE
  5
656
100
AcDbEntity
  8
Sc.1_5
 62
     9
  6
CONTINUOUS
370
    -2
100
AcDbLine
 10
2452.00021889
 20
-1823.4437127
 30
0.0
 11
2451.44339933
 21
-1823.16839521
 31
0.0
  0
LINE
  5
657
100
AcDbEntity
  8
Sc.1_5
 62
     9
  6
CONTINUOUS
370
    -2
100
AcDbLine
 10
2456.61902164
 20
-1820.77704638
 30
0.0
 11
2456.06220209
 21
-1820.5017289
 31
0.0
  0
LINE
  5
658
100
AcDbEntity
  8
Sc.1_5
 62
     9
  6
CONTINUOUS
370
    -2
100
AcDbLine
 10
2451.85620623
 20
-1807.88339684
 30
0.0
 11
2452.01455682
 21
-1808.65721698
 31
0.0
  0
LINE
  5
659
100
AcDbEntity
  8
Sc.1_5
 62
     9
  6
CONTINUOUS
370
    -2
100
AcDbLine
 10
2447.23740358
 20
-1810.5500641
 30
0.0
 11
2447.39575417
 21
-1811.32388424
 31
0.0
  0
LINE
  5
65A
100
AcDbEntity
  8
Sc.1_5
 62
     9
  6
CONTINUOUS
370
    -2
100
AcDbLine
 10
2442.61860093
 20
-1813.21673136
 30
0.0
 11
2442.77695152
 21
-1813.99055151
 31
0.0
  0
LINE
  5
65B
100
AcDbEntity
  8
Sc.1_5
 62
     9
  6
CONTINUOUS
370
    -2
100
AcDbLine
 10
2437.99979828
 20
-1815.88339862
 30
0.0
 11
2438.15814887
 21
-1816.65721877
 31
0.0
  0
LINE
  5
65C
100
AcDbEntity
  8
Sc.1_5
 62
     9
  6
CONTINUOUS
370
    -2
100
AcDbLine
 10
2433.38099563
 20
-1818.55006588
 30
0.0
 11
2433.53934622
 21
-1819.32388603
 31
0.0
  0
LINE
  5
65D
100
AcDbEntity
  8
Sc.1_5
 62
     9
  6
CONTINUOUS
370
    -2
100
AcDbLine
 10
2451.42358453
 20
-1808.13317078
 30
0.0
 11
2452.01455714
 21
-1808.65721649
 31
0.0
  0
LINE
  5
65E
100
AcDbEntity
  8
Sc.1_5
 62
     9
  6
CONTINUOUS
370
    -2
100
AcDbLine
 10
2446.80478161
 20
-1810.79983758
 30
0.0
 11
2447.39575422
 21
-1811.32388329
 31
0.0
  0
LINE
  5
65F
100
AcDbEntity
  8
Sc.1_5
 62
     9
  6
CONTINUOUS
370
    -2
100
AcDbLine
 10
2442.1859787
 20
-1813.46650438
 30
0.0
 11
2442.77695131
 21
-1813.99055008
 31
0.0
  0
LINE
  5
660
100
AcDbEntity
  8
Sc.1_5
 62
     9
  6
CONTINUOUS
370
    -2
100
AcDbLine
 10
2437.56717578
 20
-1816.13317118
 30
0.0
 11
2438.15814839
 21
-1816.65721688
 31
0.0
  0
LINE
  5
661
100
AcDbEntity
  8
Sc.1_5
 62
     9
  6
CONTINUOUS
370
    -2
100
AcDbLine
 10
2432.94837286
 20
-1818.79983798
 30
0.0
 11
2433.53934547
 21
-1819.32388368
 31
0.0
  0
LINE
  5
662
100
AcDbEntity
  8
Sc.1_5
 62
     9
  6
CONTINUOUS
370
    -2
100
AcDbLine
 10
2460.09003213
 20
-1817.31101593
 30
0.0
 11
2460.24838271
 21
-1818.08483607
 31
0.0
  0
LINE
  5
663
100
AcDbEntity
  8
Sc.1_5
 62
     9
  6
CONTINUOUS
370
    -2
100
AcDbLine
 10
2455.47122948
 20
-1819.97768319
 30
0.0
 11
2455.62958007
 21
-1820.75150333
 31
0.0
  0
LINE
  5
664
100
AcDbEntity
  8
Sc.1_5
 62
     9
  6
CONTINUOUS
370
    -2
100
AcDbLine
 10
2450.85242683
 20
-1822.64435045
 30
0.0
 11
2451.01077742
 21
-1823.4181706
 31
0.0
  0
LINE
  5
665
100
AcDbEntity
  8
Sc.1_5
 62
     9
  6
CONTINUOUS
370
    -2
100
AcDbLine
 10
2446.23362418
 20
-1825.31101771
 30
0.0
 11
2446.39197477
 21
-1826.08483786
 31
0.0
  0
LINE
  5
666
100
AcDbEntity
  8
Sc.1_5
 62
     9
  6
CONTINUOUS
370
    -2
100
AcDbLine
 10
2441.61482153
 20
-1827.97768497
 30
0.0
 11
2441.77317212
 21
-1828.75150512
 31
0.0
  0
LINE
  5
667
100
AcDbEntity
  8
Sc.1_5
 62
     9
  6
CONTINUOUS
370
    -2
100
AcDbLine
 10
2436.99601888
 20
-1830.64435223
 30
0.0
 11
2437.15436947
 21
-1831.41817238
 31
0.0
  0
LINE
  5
668
100
AcDbEntity
  8
Sc.1_5
 62
     9
  6
CONTINUOUS
370
    -2
100
AcDbLine
 10
2437.58699105
 20
-1831.16839463
 30
0.0
 11
2436.99601844
 21
-1830.64434893
 31
0.0
  0
LINE
  5
669
100
AcDbEntity
  8
Sc.1_5
 62
     9
  6
CONTINUOUS
370
    -2
100
AcDbLine
 10
2442.20579397
 20
-1828.50172784
 30
0.0
 11
2441.61482135
 21
-1827.97768213
 31
0.0
  0
LINE
  5
66A
100
AcDbEntity
  8
Sc.1_5
 62
     9
  6
CONTINUOUS
370
    -2
100
AcDbLine
 10
2446.82459688
 20
-1825.83506104
 30
0.0
 11
2446.23362427
 21
-1825.31101533
 31
0.0
  0
LINE
  5
66B
100
AcDbEntity
  8
Sc.1_5
 62
     9
  6
CONTINUOUS
370
    -2
100
AcDbLine
 10
2451.4433998
 20
-1823.16839424
 30
0.0
 11
2450.85242719
 21
-1822.64434853
 31
0.0
  0
LINE
  5
66C
100
AcDbEntity
  8
Sc.1_5
 62
     9
  6
CONTINUOUS
370
    -2
100
AcDbLine
 10
2456.06220272
 20
-1820.50172744
 30
0.0
 11
2455.47123011
 21
-1819.97768174
 31
0.0
  0
LINE
  5
66D
100
AcDbEntity
  8
Sc.1_5
 62
     9
  6
CONTINUOUS
370
    -2
100
AcDbLine
 10
2452.23092959
 20
-1809.03198588
 30
0.0
 11
2452.46190103
 21
-1809.55915803
 31
0.0
  0
LINE
  5
66E
100
AcDbEntity
  8
Sc.1_5
 62
     9
  6
CONTINUOUS
370
    -2
100
AcDbLine
 10
2447.61213089
 20
-1811.69865808
 30
0.0
 11
2447.84310233
 21
-1812.22583024
 31
0.0
  0
LINE
  5
66F
100
AcDbEntity
  8
Sc.1_5
 62
     9
  6
CONTINUOUS
370
    -2
100
AcDbLine
 10
2442.99333218
 20
-1814.36533028
 30
0.0
 11
2443.22430363
 21
-1814.89250244
 31
0.0
  0
LINE
  5
670
100
AcDbEntity
  8
Sc.1_5
 62
     9
  6
CONTINUOUS
370
    -2
100
AcDbLine
 10
2438.37453348
 20
-1817.03200248
 30
0.0
 11
2438.60550492
 21
-1817.55917464
 31
0.0
  0
LINE
  5
671
100
AcDbEntity
  8
Sc.1_5
 62
     9
  6
CONTINUOUS
370
    -2
100
AcDbLine
 10
2433.75573477
 20
-1819.69867468
 30
0.0
 11
2433.98670622
 21
-1820.22584684
 31
0.0
  0
LINE
  5
672
100
AcDbEntity
  8
Sc.1_5
 62
     9
  6
CONTINUOUS
370
    -2
100
AcDbLine
 10
2452.23092784
 20
-1809.03197937
 30
0.0
 11
2452.57198659
 21
-1809.49559258
 31
0.0
  0
LINE
  5
673
100
AcDbEntity
  8
Sc.1_5
 62
     9
  6
CONTINUOUS
370
    -2
100
AcDbLine
 10
2447.61212261
 20
-1811.69864028
 30
0.0
 11
2447.95318137
 21
-1812.16225349
 31
0.0
  0
LINE
  5
674
100
AcDbEntity
  8
Sc.1_5
 62
     9
  6
CONTINUOUS
370
    -2
100
AcDbLine
 10
2442.99331739
 20
-1814.36530119
 30
0.0
 11
2443.33437615
 21
-1814.82891441
 31
0.0
  0
LINE
  5
675
100
AcDbEntity
  8
Sc.1_5
 62
     9
  6
CONTINUOUS
370
    -2
100
AcDbLine
 10
2438.37451217
 20
-1817.0319621
 30
0.0
 11
2438.71557093
 21
-1817.49557532
 31
0.0
  0
LINE
  5
676
100
AcDbEntity
  8
Sc.1_5
 62
     9
  6
CONTINUOUS
370
    -2
100
AcDbLine
 10
2433.75570695
 20
-1819.69862302
 30
0.0
 11
2434.0967657
 21
-1820.16223623
 31
0.0
  0
LINE
  5
677
100
AcDbEntity
  8
Sc.1_5
 62
     9
  6
CONTINUOUS
370
    -2
100
AcDbLine
 10
2436.77967176
 20
-1830.26961856
 30
0.0
 11
2436.54870018
 21
-1829.74244647
 31
0.0
  0
LINE
  5
678
100
AcDbEntity
  8
Sc.1_5
 62
     9
  6
CONTINUOUS
370
    -2
100
AcDbLine
 10
2441.39846976
 20
-1827.60294513
 30
0.0
 11
2441.16749817
 21
-1827.07577304
 31
0.0
  0
LINE
  5
679
100
AcDbEntity
  8
Sc.1_5
 62
     9
  6
CONTINUOUS
370
    -2
100
AcDbLine
 10
2446.01726775
 20
-1824.9362717
 30
0.0
 11
2445.78629617
 21
-1824.40909961
 31
0.0
  0
LINE
  5
67A
100
AcDbEntity
  8
Sc.1_5
 62
     9
  6
CONTINUOUS
370
    -2
100
AcDbLine
 10
2450.63606574
 20
-1822.26959827
 30
0.0
 11
2450.40509416
 21
-1821.74242618
 31
0.0
  0
LINE
  5
67B
100
AcDbEntity
  8
Sc.1_5
 62
     9
  6
CONTINUOUS
370
    -2
100
AcDbLine
 10
2455.25486374
 20
-1819.60292484
 30
0.0
 11
2455.02389216
 21
-1819.07575275
 31
0.0
  0
LINE
  5
67C
100
AcDbEntity
  8
Sc.1_5
 62
     9
  6
CONTINUOUS
370
    -2
100
AcDbLine
 10
2436.77963562
 20
-1830.26955597
 30
0.0
 11
2436.43857687
 21
-1829.80594276
 31
0.0
  0
LINE
  5
67D
100
AcDbEntity
  8
Sc.1_5
 62
     9
  6
CONTINUOUS
370
    -2
100
AcDbLine
 10
2441.39844084
 20
-1827.60289506
 30
0.0
 11
2441.05738209
 21
-1827.13928184
 31
0.0
  0
LINE
  5
67E
100
AcDbEntity
  8
Sc.1_5
 62
     9
  6
CONTINUOUS
370
    -2
100
AcDbLine
 10
2446.01724607
 20
-1824.93623415
 30
0.0
 11
2445.67618731
 21
-1824.47262093
 31
0.0
  0
LINE
  5
67F
100
AcDbEntity
  8
Sc.1_5
 62
     9
  6
CONTINUOUS
370
    -2
100
AcDbLine
 10
2450.63605129
 20
-1822.26957323
 30
0.0
 11
2450.29499253
 21
-1821.80596002
 31
0.0
  0
LINE
  5
680
100
AcDbEntity
  8
Sc.1_5
 62
     9
  6
CONTINUOUS
370
    -2
100
AcDbLine
 10
2455.25485651
 20
-1819.60291232
 30
0.0
 11
2454.91379775
 21
-1819.13929911
 31
0.0
  0
LINE
  5
681
100
AcDbEntity
  8
Sc.1_5
 62
     9
  6
CONTINUOUS
370
    -2
100
AcDbLine
 10
2459.87366173
 20
-1816.93625141
 30
0.0
 11
2459.53260298
 21
-1816.47263819
 31
0.0
  0
ENDBLK
  5
682
100
AcDbEntity
100
AcDbBlockEnd
  0
ENDSEC
  0
SECTION
  2
ENTITIES
  0
3DFACE
  5
683
100
AcDbEntity
  8
Sc.1_5
 62
     9
  6
CONTINUOUS
370
    20
100
AcDbFace
 70
     0
 10
2421.88883694
 20
-1823.47848705
 30
914.4
 11
2360.14831781
 21
-1859.12439239
 31
914.4
 12
2368.14831866
 22
-1872.98079874
 32
914.4
 13
2429.88883771
 23
-1837.33489344
 33
914.4
  0
INSERT
  5
684
100
AcDbEntity
  8
Sc.1_5
 62
     0
370
    20
100
AcDbBlockReference
  2
*X2528
 10
0.0
 20
0.0
 30
0.0
  0
3DFACE
  5
685
100
AcDbEntity
  8
Sc.1_5
 62
     9
  6
CONTINUOUS
370
    20
100
AcDbFace
 70
     0
 10
2453.20699522
 20
-1805.38924629
 30
914.4
 11
2429.67973416
 21
-1818.9727168
 31
914.4
 12
2437.67973501
 22
-1832.82912314
 32
914.4
 13
2461.20699599
 23
-1819.24565268
 33
914.4
  0
INSERT
  5
686
100
AcDbEntity
  8
Sc.1_5
 62
     0
370
    20
100
AcDbBlockReference
  2
*X2529
 10
0.0
 20
0.0
 30
0.0
  0
3DFACE
  5
687
100
AcDbEntity
  8
Sc.1_5
 62
     9
  6
CONTINUOUS
370
    20
100
AcDbFace
 70
     0
 10
2417.45525398
 20
-1697.87449094
 30
914.4
 11
2355.71473485
 21
-1733.52039628
 31
914.4
 12
2363.7147357
 22
-1747.37680262
 32
914.4
 13
2425.45525475
 23
-1711.73089733
 33
914.4
  0
INSERT
  5
688
100
AcDbEntity
  8
Sc.1_5
 62
     0
370
    20
100
AcDbBlockReference
  2
*X2526
 10
0.0
 20
0.0
 30
0.0
  0
3DFACE
  5
689
100
AcDbEntity
  8
Sc.1_5
 62
     9
  6
CONTINUOUS
370
    20
100
AcDbFace
 70
     0
 10
2448.77341226
 20
-1679.78525018
 30
914.4
 11
2425.2461512
 21
-1693.36872068
 31
914.4
 12
2433.24615205
 22
-1707.22512702
 32
914.4
 13
2456.77341303
 23
-1693.64165657
 33
914.4
  0
INSERT
  5
68A
100
AcDbEntity
  8
Sc.1_5
 62
     0
370
    20
100
AcDbBlockReference
  2
*X2527
 10
0.0
 20
0.0
 30
0.0
  0
LINE
  5
68B
100
AcDbEntity
  8
Sc.1_5
 62
     7
  6
CONTINUOUS
370
    35
100
AcDbLine
 10
2399.88248841
 20
-1886.91125252
 30
0.0
 11
2399.88248841
 21
-1882.41122756
 31
0.0
  0
LINE
  5
68C
100
AcDbEntity
  8
Sc.1_5
 62
     7
  6
CONTINUOUS
370
    35
100
AcDbLine
 10
2399.88248841
 20
-1886.91125252
 30
0.0
 11
2427.88238872
 21
-1886.91125252
 31
0.0
  0
LINE
  5
68D
100
AcDbEntity
  8
Sc.1_5
 62
     7
  6
CONTINUOUS
370
    35
100
AcDbLine
 10
2427.88238872
 20
-1886.91125252
 30
0.0
 11
2427.88238872
 21
-1866.24547307
 31
0.0
  0
LINE
  5
68E
100
AcDbEntity
  8
Sc.1_5
 62
     9
  6
CONTINUOUS
100
AcDbLine
 10
2427.88238872
 20
-1886.91125252
 30
0.0
 11
2412.17192497
 21
-1875.31591608
 31
0.0
  0
LINE
  5
68F
100
AcDbEntity
  8
Sc.1_5
 62
     9
  6
CONTINUOUS
100
AcDbLine
 10
2399.88248841
 20
-1886.91125252
 30
0.0
 11
2427.88238872
 21
-1866.24547307
 31
0.0
  0
LINE
  5
690
100
AcDbEntity
  8
Sc.1_5
 62
     7
  6
CONTINUOUS
370
    25
100
AcDbLine
 10
2353.47578084
 20
-1729.91418931
 30
0.0
 11
2447.32482037
 21
-1675.73042108
 31
0.0
  0
LINE
  5
691
100
AcDbEntity
  8
Sc.1_5
 62
     7
  6
CONTINUOUS
100
AcDbLine
 10
2353.22965814
 20
-1729.47017221
 30
0.0
 11
2447.07869767
 21
-1675.28640397
 31
0.0
  0
LINE
  5
692
100
AcDbEntity
  8
Sc.1_5
 62
     7
  6
CONTINUOUS
100
AcDbLine
 10
2351.29012426
 20
-1725.97116046
 30
0.0
 11
2445.13916379
 21
-1671.78739223
 31
0.0
  0
LINE
  5
693
100
AcDbEntity
  8
Sc.1_5
 62
     7
  6
CONTINUOUS
370
    25
100
AcDbLine
 10
2359.70358607
 20
-1853.8892734
 30
0.0
 11
2451.50161927
 21
-1800.88965422
 31
0.0
  0
LINE
  5
694
100
AcDbEntity
  8
Sc.1_5
 62
     7
  6
CONTINUOUS
100
AcDbLine
 10
2359.45746337
 20
-1853.44525629
 30
0.0
 11
2451.25549657
 21
-1800.44563711
 31
0.0
  0
LINE
  5
695
100
AcDbEntity
  8
Sc.1_5
 62
     7
  6
CONTINUOUS
100
AcDbLine
 10
2357.51792948
 20
-1849.94624455
 30
0.0
 11
2449.31596269
 21
-1796.94662537
 31
0.0
  0
LINE
  5
696
100
AcDbEntity
  8
Sc.1_5
 62
     7
  6
CONTINUOUS
100
AcDbLine
 10
2455.21696098
 20
-1689.96821964
 30
0.0
 11
2460.52803151
 21
-1689.88534404
 31
0.0
  0
LINE
  5
697
100
AcDbEntity
  8
Sc.1_5
 62
     7
  6
CONTINUOUS
100
AcDbLine
 10
2460.52803151
 20
-1689.88534404
 30
0.0
 11
2454.2058825
 21
-1699.10653896
 31
0.0
  0
LINE
  5
698
100
AcDbEntity
  8
Sc.1_5
 62
     7
  6
CONTINUOUS
100
AcDbLine
 10
2454.2058825
 20
-1699.10653896
 30
0.0
 11
2459.79100517
 21
-1698.86904009
 31
0.0
  0
LINE
  5
699
100
AcDbEntity
  8
Sc.1_5
 62
     7
  6
CONTINUOUS
100
AcDbLine
 10
2459.79100517
 20
-1698.86904009
 30
0.0
 11
2470.17746557
 21
-1716.95768397
 31
0.0
  0
LINE
  5
69A
100
AcDbEntity
  8
Sc.1_5
 62
     7
  6
CONTINUOUS
100
AcDbLine
 10
2444.11149862
 20
-1669.93343548
 30
0.0
 11
2455.21696098
 21
-1689.96821964
 31
0.0
  0
LINE
  5
69B
100
AcDbEntity
  8
Sc.1_5
 62
     7
  6
CONTINUOUS
100
AcDbLine
 10
2367.20059068
 20
-1754.67440248
 30
0.0
 11
2361.61546799
 21
-1754.91190087
 31
0.0
  0
LINE
  5
69C
100
AcDbEntity
  8
Sc.1_5
 62
     7
  6
CONTINUOUS
100
AcDbLine
 10
2361.61546799
 20
-1754.91190087
 30
0.0
 11
2367.93761781
 21
-1745.6907065
 31
0.0
  0
LINE
  5
69D
100
AcDbEntity
  8
Sc.1_5
 62
     7
  6
CONTINUOUS
100
AcDbLine
 10
2367.93761781
 20
-1745.6907065
 30
0.0
 11
2362.35249512
 21
-1745.92820489
 31
0.0
  0
LINE
  5
69E
100
AcDbEntity
  8
Sc.1_5
 62
     7
  6
CONTINUOUS
100
AcDbLine
 10
2362.35249512
 20
-1745.92820489
 30
0.0
 11
2349.70105606
 21
-1723.10440027
 31
0.0
  0
LINE
  5
69F
100
AcDbEntity
  8
Sc.1_5
 62
     7
  6
CONTINUOUS
100
AcDbLine
 10
2376.34356199
 20
-1771.1687625
 30
0.0
 11
2367.20059068
 21
-1754.67440248
 31
0.0
  0
LINE
  5
6A0
100
AcDbEntity
  8
Sc.1_5
 62
     7
  6
CONTINUOUS
100
AcDbLine
 10
2367.12453294
 20
-1877.59034316
 30
0.0
 11
2373.44668275
 21
-1868.36914879
 31
0.0
  0
LINE
  5
6A1
100
AcDbEntity
  8
Sc.1_5
 62
     7
  6
CONTINUOUS
100
AcDbLine
 10
2373.44668275
 20
-1868.36914879
 30
0.0
 11
2367.86156006
 21
-1868.60664718
 31
0.0
  0
LINE
  5
6A2
100
AcDbEntity
  8
Sc.1_5
 62
     7
  6
CONTINUOUS
100
AcDbLine
 10
2367.86156006
 20
-1868.60664718
 30
0.0
 11
2356.33440529
 21
-1847.81110551
 31
0.0
  0
LINE
  5
6A3
100
AcDbEntity
  8
Sc.1_5
 62
     7
  6
CONTINUOUS
100
AcDbLine
 10
2383.18358095
 20
-1896.24830987
 30
0.0
 11
2372.70965562
 21
-1877.35284477
 31
0.0
  0
LINE
  5
6A4
100
AcDbEntity
  8
Sc.1_5
 62
     7
  6
CONTINUOUS
100
AcDbLine
 10
2460.0879161
 20
-1816.37974375
 30
0.0
 11
2465.67303877
 21
-1816.14224488
 31
0.0
  0
LINE
  5
6A5
100
AcDbEntity
  8
Sc.1_5
 62
     7
  6
CONTINUOUS
100
AcDbLine
 10
2465.67303877
 20
-1816.14224488
 30
0.0
 11
2459.35088976
 21
-1825.3634398
 31
0.0
  0
LINE
  5
6A6
100
AcDbEntity
  8
Sc.1_5
 62
     7
  6
CONTINUOUS
100
AcDbLine
 10
2459.35088976
 20
-1825.3634398
 30
0.0
 11
2464.93601243
 21
-1825.12594092
 31
0.0
  0
LINE
  5
6A7
100
AcDbEntity
  8
Sc.1_5
 62
     7
  6
CONTINUOUS
100
AcDbLine
 10
2464.93601243
 20
-1825.12594092
 30
0.0
 11
2474.43957766
 21
-1842.2708262
 31
0.0
  0
LINE
  5
6A8
100
AcDbEntity
  8
Sc.1_5
 62
     7
  6
CONTINUOUS
100
AcDbLine
 10
2448.576581
 20
-1795.6127458
 30
0.0
 11
2460.0879161
 21
-1816.37974375
 31
0.0
  0
LINE
  5
6A9
100
AcDbEntity
  8
Sc.1_5
 62
     7
  6
CONTINUOUS
100
AcDbLine
 10
2372.70965562
 20
-1877.35284477
 30
0.0
 11
2367.12453294
 21
-1877.59034316
 31
0.0
  0
LWPOLYLINE
  5
6AA
102
{ACAD_REACTORS
330
6AB
102
}
100
AcDbEntity
  8
Sc.1_5
 62
     7
  6
CONTINUOUS
100
AcDbPolyline
 90
       16
 70
     1
 43
0.0
 10
2411.33830926
 20
-1888.18125249
 10
2398.64257877
 20
-1888.18125249
 10
2398.64257877
 20
-1886.91124914
 10
2429.12229584
 20
-1886.91124914
 10
2429.12229584
 20
-1888.18125249
 10
2416.41829119
 20
-1888.18125249
 42
0.41357743
 10
2414.51743631
 20
-1890.08624122
 10
2414.51742536
 20
-1914.21615314
 42
0.41420983
 10
2416.42242953
 20
-1916.12114852
 10
2429.12229584
 20
-1916.12115362
 10
2429.12229584
 20
-1917.39114789
 10
2398.64257877
 20
-1917.39114789
 10
2398.64257877
 20
-1916.12115362
 10
2411.34244761
 20
-1916.12114852
 42
0.41421356
 10
2413.24744083
 20
-1914.2161553
 10
2413.24744083
 20
-1890.08624122
 42
0.41484998
  0
HATCH
  5
6AB
100
AcDbEntity
  8
Sc.1_5
 62
     9
  6
CONTINUOUS
100
AcDbHatch
 10
0.0
 20
0.0
 30
0.0
210
0.0
220
0.0
230
1.0
  2
STEEL
 70
     0
 71
     1
 91
        1
 92
        7
 72
     1
 73
     1
 93
       16
 10
2411.33830926
 20
-1888.18125249
 42
0.0
 10
2398.64257877
 20
-1888.18125249
 42
0.0
 10
2398.64257877
 20
-1886.91124914
 42
0.0
 10
2429.12229584
 20
-1886.91124914
 42
0.0
 10
2429.12229584
 20
-1888.18125249
 42
0.0
 10
2416.41829119
 20
-1888.18125249
 42
0.41357743
 10
2414.51743631
 20
-1890.08624122
 42
0.0
 10
2414.51742536
 20
-1914.21615314
 42
0.41420983
 10
2416.42242953
 20
-1916.12114852
 42
0.0
 10
2429.12229584
 20
-1916.12115362
 42
0.0
 10
2429.12229584
 20
-1917.39114789
 42
0.0
 10
2398.64257877
 20
-1917.39114789
 42
0.0
 10
2398.64257877
 20
-1916.12115362
 42
0.0
 10
2411.34244761
 20
-1916.12114852
 42
0.41421356
 10
2413.24744083
 20
-1914.2161553
 42
0.0
 10
2413.24744083
 20
-1890.08624122
 42
0.41484998
 97
        1
330
6AA
 75
     0
 76
     2
 52
0.0
 41
1.0
 77
     0
 78
     2
 53
45.0
 43
0.0
 44
0.0
 45
-2.82842712
 46
2.82842712
 79
     2
 49
320.0
 49
0.0
 53
45.0
 43
0.0
 44
2.0
 45
-2.82842712
 46
2.82842712
 79
     2
 49
320.0
 49
0.0
 47
0.775229
 98
        1
 10
0.0
 20
0.0
  0
LWPOLYLINE
  5
6AC
100
AcDbEntity
  8
Sc.1_5
 62
     9
  6
CONTINUOUS
370
    20
100
AcDbPolyline
 90
        5
 70
     1
 43
0.0
 38
548.63999023
 39
-548.63999023
 10
2421.87569228
 20
-1886.58128227
 10
2421.87569228
 20
-1880.14627129
 10
2422.41569228
 20
-1878.13096385
 10
2422.95569228
 20
-1880.14627129
 10
2422.95569228
 20
-1886.58128227
  0
LINE
  5
6AD
100
AcDbEntity
  8
Sc.1_5
 62
     7
  6
CONTINUOUS
 48
0.5
370
    -3
100
AcDbLine
 10
2447.96747648
 20
-1746.2313564
 30
500.0
 11
2417.41000609
 21
-1726.69844288
 31
500.0
  0
INSERT
  5
6AE
100
AcDbEntity
  8
Sc.1_5
 62
     7
  6
CONTINUOUS
370
    -3
100
AcDbBlockReference
  2
CDWK_EXTR_2
 10
2417.41000609
 20
-1726.69844288
 30
500.0
 41
1.0
 42
1.0
 43
1.0
 50
327.41251622
  0
LINE
  5
6AF
100
AcDbEntity
  8
Sc.1_5
 62
     7
  6
CONTINUOUS
 48
0.5
370
    -3
100
AcDbLine
 10
2455.93022882
 20
-1872.86895691
 30
500.0
 11
2417.41000609
 21
-1853.15084559
 31
500.0
  0
INSERT
  5
6B0
100
AcDbEntity
  8
Sc.1_5
 62
     7
  6
CONTINUOUS
370
    -3
100
AcDbBlockReference
  2
CDWK_EXTR_2
 10
2417.41000609
 20
-1853.15084559
 30
500.0
 41
1.0
 42
1.0
 43
1.0
 50
332.89255378
  0
LINE
  5
6B1
100
AcDbEntity
  8
Sc.1_5
 62
     7
  6
CONTINUOUS
 48
0.5
370
    -3
100
AcDbLine
 10
2447.96747648
 20
-1775.0142532
 30
500.0
 11
2417.41000609
 21
-1775.0142532
 31
500.0
  0
INSERT
  5
6B2
100
AcDbEntity
  8
Sc.1_5
 62
     7
  6
CONTINUOUS
370
    -3
100
AcDbBlockReference
  2
CDWK_EXTR_2
 10
2417.41000609
 20
-1775.0142532
 30
500.0
 41
1.0
 42
1.0
 43
1.0
  0
LINE
  5
6B3
100
AcDbEntity
  8
Sc.1_5
 62
     7
  6
CONTINUOUS
 48
0.5
370
    -3
100
AcDbLine
 10
2456.5261619
 20
-1903.31822384
 30
500.0
 11
2417.41000609
 21
-1903.31822384
 31
500.0
  0
INSERT
  5
6B4
100
AcDbEntity
  8
Sc.1_5
 62
     7
  6
CONTINUOUS
370
    -3
100
AcDbBlockReference
  2
CDWK_EXTR_2
 10
2417.41000609
 20
-1903.31822384
 30
500.0
 41
1.0
 42
1.0
 43
1.0
  0
LINE
  5
6B5
100
AcDbEntity
  8
Sc.1_5
 62
     7
  6
CONTINUOUS
 48
0.5
370
    -3
100
AcDbLine
 10
2456.45167104
 20
-1884.21635693
 30
500.0
 11
2425.6386959
 21
-1876.11662339
 31
500.0
  0
INSERT
  5
6B6
100
AcDbEntity
  8
Sc.1_5
 62
     7
  6
CONTINUOUS
370
    -3
100
AcDbBlockReference
  2
CDWK_EXTR_2
 10
2425.6386959
 20
-1876.11662339
 30
500.0
 41
1.0
 42
1.0
 43
1.0
 50
345.27199244
  0
LINE
  5
6B7
100
AcDbEntity
  8
Sc.1_5
 62
     7
  6
DASHED
370
    25
100
AcDbLine
 10
2458.85566165
 20
-1692.43505628
 30
0.0
 11
2363.26978427
 21
-1747.6216037
 31
0.0
  0
LINE
  5
6B8
100
AcDbEntity
  8
Sc.1_5
 62
     7
  6
DASHED
370
    25
100
AcDbLine
 10
2464.92573289
 20
-1817.10429139
 30
0.0
 11
2371.69137387
 21
-1870.93318868
 31
0.0
  0
LINE
  5
6B9
100
AcDbEntity
  8
Sc.1_5
 62
     7
  6
DASHED
370
    25
100
AcDbLine
 10
2353.34469362
 20
-1729.6776977
 30
0.0
 11
2447.21210554
 21
-1675.48332215
 31
0.0
  0
LINE
  5
6BA
100
AcDbEntity
  8
Sc.1_5
 62
     7
  6
DASHED
370
    25
100
AcDbLine
 10
2359.58618658
 20
-1853.67747536
 30
0.0
 11
2451.3693543
 21
-1800.68643876
 31
0.0
  0
LINE
  5
6BB
100
AcDbEntity
  8
Sc.1_5
 62
     9
  6
CONTINUOUS
370
    -3
100
AcDbLine
 10
2432.97604176
 20
-1707.38107204
 30
548.63999023
 11
2429.40533258
 21
-1709.44262194
 31
548.63999023
  0
LINE
  5
6BC
100
AcDbEntity
  8
Sc.1_5
 62
     7
  6
CONTINUOUS
100
AcDbLine
 10
2416.54658037
 20
-1696.30062284
 30
0.0
 11
2415.34291635
 21
-1694.21581592
 31
0.0
  0
LINE
  5
6BD
100
AcDbEntity
  8
Sc.1_5
 62
     7
  6
CONTINUOUS
100
AcDbLine
 10
2424.34080901
 20
-1691.80062284
 30
0.0
 11
2423.13714498
 21
-1689.71581592
 31
0.0
  0
LINE
  5
6BE
100
AcDbEntity
  8
Sc.1_5
 62
     7
  6
CONTINUOUS
100
AcDbLine
 10
2415.34291643
 20
-1694.21581633
 30
0.0
 11
2416.54658045
 21
-1696.30062324
 31
0.0
  0
LINE
  5
6BF
100
AcDbEntity
  8
Sc.1_5
 62
     7
  6
CONTINUOUS
100
AcDbLine
 10
2416.54658045
 20
-1696.30062324
 30
0.0
 11
2424.34080901
 21
-1691.80062284
 31
0.0
  0
LINE
  5
6C0
100
AcDbEntity
  8
Sc.1_5
 62
     9
  6
CONTINUOUS
100
AcDbLine
 10
2424.34080901
 20
-1691.80062284
 30
0.0
 11
2415.34291635
 21
-1694.21581592
 31
0.0
  0
LINE
  5
6C1
100
AcDbEntity
  8
Sc.1_5
 62
     7
  6
CONTINUOUS
100
AcDbLine
 10
2423.13714498
 20
-1689.71581592
 30
0.0
 11
2415.34291643
 21
-1694.21581633
 31
0.0
  0
LINE
  5
6C2
100
AcDbEntity
  8
Sc.1_5
 62
     7
  6
CONTINUOUS
100
AcDbLine
 10
2433.24615205
 20
-1707.22512702
 30
0.0
 11
2432.34158055
 21
-1705.65836347
 31
0.0
  0
LINE
  5
6C3
100
AcDbEntity
  8
Sc.1_5
 62
     7
  6
CONTINUOUS
100
AcDbLine
 10
2424.54735199
 20
-1710.15836388
 30
0.0
 11
2425.4519235
 21
-1711.72512743
 31
0.0
  0
LINE
  5
6C4
100
AcDbEntity
  8
Sc.1_5
 62
     7
  6
CONTINUOUS
100
AcDbLine
 10
2425.4519235
 20
-1711.72512743
 30
0.0
 11
2433.24615205
 21
-1707.22512702
 31
0.0
  0
LINE
  5
6C5
100
AcDbEntity
  8
Sc.1_5
 62
     9
  6
CONTINUOUS
100
AcDbLine
 10
2433.24615205
 20
-1707.22512702
 30
0.0
 11
2424.54735191
 21
-1710.15836347
 31
0.0
  0
LINE
  5
6C6
100
AcDbEntity
  8
Sc.1_5
 62
     7
  6
CONTINUOUS
100
AcDbLine
 10
2432.34158055
 20
-1705.65836347
 30
0.0
 11
2424.54735199
 21
-1710.15836388
 31
0.0
  0
LINE
  5
6C7
100
AcDbEntity
  8
Sc.1_5
 62
     7
  6
CONTINUOUS
 48
0.5
370
    -3
100
AcDbLine
 10
2399.10129346
 20
-1684.06237953
 30
500.0
 11
2417.20188093
 21
-1694.69463565
 31
500.0
  0
INSERT
  5
6C8
100
AcDbEntity
  8
Sc.1_5
 62
     7
  6
CONTINUOUS
370
    -3
100
AcDbBlockReference
  2
CDWK_EXTR_2
 10
2417.20188093
 20
-1694.69463565
 30
500.0
 41
1.0
 42
1.0
 43
1.0
 50
149.570092
  0
LINE
  5
6C9
100
AcDbEntity
  8
Sc.1_5
 62
     7
  6
CONTINUOUS
100
AcDbLine
 10
2420.72337927
 20
-1821.45985598
 30
0.0
 11
2419.51971525
 21
-1819.37504906
 31
0.0
  0
LINE
  5
6CA
100
AcDbEntity
  8
Sc.1_5
 62
     7
  6
CONTINUOUS
100
AcDbLine
 10
2428.5176079
 20
-1816.95985598
 30
0.0
 11
2427.31394388
 21
-1814.87504906
 31
0.0
  0
LINE
  5
6CB
100
AcDbEntity
  8
Sc.1_5
 62
     7
  6
CONTINUOUS
100
AcDbLine
 10
2419.51971533
 20
-1819.37504947
 30
0.0
 11
2420.72337935
 21
-1821.45985639
 31
0.0
  0
LINE
  5
6CC
100
AcDbEntity
  8
Sc.1_5
 62
     7
  6
CONTINUOUS
100
AcDbLine
 10
2420.72337935
 20
-1821.45985639
 30
0.0
 11
2428.5176079
 21
-1816.95985598
 31
0.0
  0
LINE
  5
6CD
100
AcDbEntity
  8
Sc.1_5
 62
     9
  6
CONTINUOUS
100
AcDbLine
 10
2428.5176079
 20
-1816.95985598
 30
0.0
 11
2419.51971525
 21
-1819.37504906
 31
0.0
  0
LINE
  5
6CE
100
AcDbEntity
  8
Sc.1_5
 62
     7
  6
CONTINUOUS
100
AcDbLine
 10
2437.68306626
 20
-1832.83489304
 30
0.0
 11
2436.77849476
 21
-1831.26812948
 31
0.0
  0
LINE
  5
6CF
100
AcDbEntity
  8
Sc.1_5
 62
     7
  6
CONTINUOUS
100
AcDbLine
 10
2428.98426621
 20
-1835.76812989
 30
0.0
 11
2429.88883771
 21
-1837.33489344
 31
0.0
  0
LINE
  5
6D0
100
AcDbEntity
  8
Sc.1_5
 62
     7
  6
CONTINUOUS
100
AcDbLine
 10
2429.88883771
 20
-1837.33489344
 30
0.0
 11
2437.68306626
 21
-1832.83489304
 31
0.0
  0
LINE
  5
6D1
100
AcDbEntity
  8
Sc.1_5
 62
     9
  6
CONTINUOUS
100
AcDbLine
 10
2437.68306626
 20
-1832.83489304
 30
0.0
 11
2428.98426613
 21
-1835.76812948
 31
0.0
  0
LINE
  5
6D2
100
AcDbEntity
  8
Sc.1_5
 62
     7
  6
CONTINUOUS
100
AcDbLine
 10
2436.77849476
 20
-1831.26812948
 30
0.0
 11
2428.98426621
 21
-1835.76812989
 31
0.0
  0
LINE
  5
6D3
100
AcDbEntity
  8
Sc.1_5
 62
     7
  6
CONTINUOUS
 48
0.5
370
    -3
100
AcDbLine
 10
2456.49529253
 20
-1859.07665914
 30
500.0
 11
2435.05208553
 21
-1831.22230864
 31
500.0
  0
INSERT
  5
6D4
100
AcDbEntity
  8
Sc.1_5
 62
     7
  6
CONTINUOUS
370
    -3
100
AcDbBlockReference
  2
CDWK_EXTR_2
 10
2435.05208553
 20
-1831.22230864
 30
500.0
 41
1.0
 42
1.0
 43
1.0
 50
307.59027512
  0
LWPOLYLINE
  5
6D5
100
AcDbEntity
  8
Sc.1_1
 62
     7
  6
DASHDOT
370
     5
100
AcDbPolyline
 90
        4
 70
     1
 43
0.0
 10
2322.28090931
 20
-1941.58736414
 10
2354.18398141
 20
-1941.58736414
 10
2354.18398141
 20
-1925.59035714
 10
2322.28090931
 20
-1925.59035714
  0
LWPOLYLINE
  5
6D6
100
AcDbEntity
  8
LEGEND
 62
     5
  6
CONTINUOUS
370
    -3
100
AcDbPolyline
 90
        4
 70
     1
 43
0.0
 10
2353.86620578
 20
-1942.22101287
 10
2411.68156001
 20
-1942.22101287
 10
2411.68156001
 20
-1924.95865138
 10
2353.86620578
 20
-1924.95865138
  0
LWPOLYLINE
  5
6D7
100
AcDbEntity
  8
LEGEND
 62
     5
  6
CONTINUOUS
370
    -3
100
AcDbPolyline
 90
        4
 70
     1
 43
0.0
 10
2411.68156001
 20
-1942.22101287
 10
2485.07371156
 20
-1942.22101287
 10
2485.07371156
 20
-1924.95865138
 10
2411.68156001
 20
-1924.95865138
  0
LWPOLYLINE
  5
6D8
100
AcDbEntity
  8
LEGEND
 62
     5
  6
CONTINUOUS
370
    -3
100
AcDbPolyline
 90
        4
 70
     1
 43
0.0
 10
2485.07371156
 20
-1942.22101287
 10
2519.59771069
 20
-1942.22101287
 10
2519.59771069
 20
-1933.58983213
 10
2485.07371156
 20
-1933.58983213
  0
LWPOLYLINE
  5
6D9
100
AcDbEntity
  8
LEGEND
 62
     5
  6
CONTINUOUS
370
    -3
100
AcDbPolyline
 90
        4
 70
     1
 43
0.0
 10
2485.07371156
 20
-1933.58983213
 10
2499.98196024
 20
-1933.58983213
 10
2499.98196024
 20
-1924.95865138
 10
2485.07371156
 20
-1924.95865138
  0
LWPOLYLINE
  5
6DA
100
AcDbEntity
  8
LEGEND
 62
     5
  6
CONTINUOUS
370
    -3
100
AcDbPolyline
 90
        4
 70
     1
 43
0.0
 10
2322.59771069
 20
-1942.22101287
 10
2519.59771069
 20
-1942.22101287
 10
2519.59771069
 20
-1671.22101287
 10
2322.59771069
 20
-1671.22101287
  0
LWPOLYLINE
  5
6DB
100
AcDbEntity
  8
LEGEND
 62
     5
  6
CONTINUOUS
370
    -3
100
AcDbPolyline
 90
        4
 70
     1
 43
0.0
 10
2499.98196024
 20
-1933.58983213
 10
2519.59771069
 20
-1933.58983213
 10
2519.59771069
 20
-1924.95865138
 10
2499.98196024
 20
-1924.95865138
  0
LWPOLYLINE
  5
6DC
100
AcDbEntity
  8
LEGEND
 62
     5
  6
CONTINUOUS
370
    -3
100
AcDbPolyline
 90
        4
 70
     1
 43
0.0
 10
2322.59771069
 20
-1942.22101287
 10
2353.86620578
 20
-1942.22101287
 10
2353.86620578
 20
-1924.95865138
 10
2322.59771069
 20
-1924.95865138
  0
3DFACE
  5
6DD
100
AcDbEntity
  8
Sc.1_5
 62
     7
  6
CONTINUOUS
370
    20
100
AcDbFace
 70
     0
 10
2428.51760799
 20
-1816.95985639
 30
548.63999023
 11
2420.72337935
 21
-1821.45985639
 31
548.63999023
 12
2428.98426621
 22
-1835.76812989
 32
548.63999023
 13
2436.77849476
 23
-1831.26812948
 33
548.63999023
  0
INSERT
  5
6DE
100
AcDbEntity
  8
Sc.1_5
 62
     0
370
    20
100
AcDbBlockReference
  2
*X2304
 10
0.0
 20
0.0
 30
0.0
  0
3DFACE
  5
6DF
100
AcDbEntity
  8
Sc.1_5
 62
     7
  6
CONTINUOUS
370
    20
100
AcDbFace
 70
     0
 10
2416.54658053
 20
-1696.30062365
 30
548.63999023
 11
2424.54735191
 21
-1710.15836347
 31
548.63999023
 12
2432.34158055
 22
-1705.65836347
 32
548.63999023
 13
2424.34080909
 23
-1691.80062324
 33
548.63999023
  0
INSERT
  5
6E0
100
AcDbEntity
  8
Sc.1_5
 62
     0
370
    20
100
AcDbBlockReference
  2
*X2305
 10
0.0
 20
0.0
 30
0.0
  0
3DFACE
  5
6E1
100
AcDbEntity
  8
Sc.1_5
 62
     7
  6
CONTINUOUS
370
    20
100
AcDbFace
 70
     0
 10
2405.38240058
 20
-1751.07493541
 30
548.63999023
 11
2405.38240058
 21
-1803.68262766
 31
548.63999023
 12
2423.38240058
 22
-1803.68262766
 32
548.63999023
 13
2423.38240058
 23
-1740.68262766
 33
548.63999023
  0
INSERT
  5
6E2
100
AcDbEntity
  8
Sc.1_5
 62
     0
370
    20
100
AcDbBlockReference
  2
*X2306
 10
0.0
 20
0.0
 30
0.0
  0
3DFACE
  5
6E3
102
{ACAD_REACTORS
330
6E4
102
}
100
AcDbEntity
  8
Sc.1_5
 62
     7
  6
CONTINUOUS
100
AcDbFace
 70
     0
 10
2381.42160915
 20
-1893.06962414
 30
975.35996094
 11
2473.21963615
 21
-1840.06999377
 31
975.35996094
 12
2461.21969376
 22
-1819.28548966
 32
975.35996094
 13
2369.69326858
 23
-1872.12831062
 33
975.35996094
  0
HATCH
  5
6E4
100
AcDbEntity
  8
Sc.1_5
 62
     9
  6
CONTINUOUS
100
AcDbHatch
 10
0.0
 20
0.0
 30
0.0
210
0.0
220
0.0
230
1.0
  2
Wood
 70
     0
 71
     1
 91
        1
 92
        7
 72
     0
 73
     1
 93
        4
 10
2381.42160915
 20
-1893.06962414
 10
2473.21963615
 20
-1840.06999377
 10
2461.21969376
 20
-1819.28548966
 10
2369.69326858
 20
-1872.12831062
 97
        1
330
6E3
 75
     0
 76
     2
 52
29.84139633
 41
1.0
 77
     0
 78
    66
 53
29.84139633
 43
0.0
 44
0.0
 45
-20.51662718
 46
35.76410863
 79
     4
 49
8.24619961
 49
-12.36929989
 49
4.1230998
 49
-16.49239922
 53
29.84139633
 43
24.52188959
 44
15.25572712
 45
-20.51662718
 46
35.76410863
 79
     2
 49
8.24619961
 49
-32.98479843
 53
29.84139633
 43
19.91968298
 44
14.99222691
 45
-20.51662718
 46
35.76410863
 79
     2
 49
4.1230998
 49
-37.10800171
 53
29.84139633
 43
-0.26341322
 44
4.60225596
 45
-20.51662718
 46
35.76410863
 79
     4
 49
2.06159997
 49
-28.86170006
 49
2.06159997
 49
-8.24619961
 53
29.84139633
 43
11.22809707
 44
13.57127784
 45
-20.51662718
 46
35.76410863
 79
     4
 49
8.24619961
 49
-12.36929989
 49
2.06159997
 49
-18.55400085
 53
29.84139633
 43
1.77425802
 44
9.33619425
 45
-20.51662718
 46
35.76410863
 79
     2
 49
6.18470001
 49
-35.04639816
 53
29.84139633
 43
10.20229324
 44
15.35943529
 45
-20.51662718
 46
35.76410863
 79
     2
 49
12.36929989
 49
-28.86170006
 53
29.84139633
 43
-1.0398406
 44
10.09858507
 45
-20.51662718
 46
35.76410863
 79
     2
 49
8.24619961
 49
-32.98479843
 53
29.84139633
 43
12.75284169
 44
19.19933841
 45
-20.51662718
 46
35.76410863
 79
     2
 49
20.6154995
 49
-20.6154995
 53
29.84139633
 43
0.99783091
 44
14.83252241
 45
-20.51662718
 46
35.76410863
 79
     4
 49
4.1230998
 49
-12.36929989
 49
8.24619961
 49
-16.49239922
 53
29.84139633
 43
25.51980907
 44
30.08830021
 45
-20.51662718
 46
35.76410863
 79
     2
 49
8.24619961
 49
-32.98479843
 53
29.84139633
 43
17.85398937
 44
26.87905611
 45
-20.51662718
 46
35.76410863
 79
     2
 49
4.1230998
 49
-37.10800171
 53
29.84139633
 43
10.18830671
 44
23.66977629
 45
-20.51662718
 46
35.76410863
 79
     2
 49
4.1230998
 49
-37.10800171
 53
29.84139633
 43
-8.20663094
 44
14.30560871
 45
-20.51662718
 46
35.76410863
 79
     2
 49
8.24619961
 49
-32.98479843
 53
29.84139633
 43
9.16245353
 44
25.45801978
 45
-20.51662718
 46
35.76410863
 79
     2
 49
8.24619961
 49
-32.98479843
 53
29.84139633
 43
8.13659891
 44
27.24626574
 45
-20.51662718
 46
35.76410863
 79
     4
 49
8.24619961
 49
-8.24619961
 49
8.24619961
 49
-16.49239922
 53
29.84139633
 43
-0.0420088
 44
24.9311069
 45
-20.51662718
 46
35.76410863
 79
     4
 49
4.1230998
 49
-20.6154995
 49
8.24619961
 49
-8.24619961
 53
29.84139633
 43
6.59786872
 44
29.92854452
 45
-20.51662718
 46
35.76410863
 79
     2
 49
12.36929989
 49
-28.86170006
 53
29.84139633
 43
5.57206441
 44
31.7167028
 45
-20.51662718
 46
35.76410863
 79
     2
 49
8.24619961
 49
-32.98479843
 53
29.84139633
 43
-9.24647154
 44
24.40419378
 45
-20.51662718
 46
35.76410863
 79
     4
 49
12.36929989
 49
-16.49239922
 49
4.1230998
 49
-8.24619961
 53
29.84139633
 43
-10.2723252
 44
26.19243809
 45
-20.51662718
 46
35.76410863
 79
     2
 49
20.6154995
 49
-20.6154995
 53
29.84139633
 43
10.67321162
 44
39.39642134
 45
-20.51662718
 46
35.76410863
 79
     2
 49
4.1230998
 49
-37.10800171
 53
29.84139633
 43
-0.56892298
 44
34.13556958
 45
-20.51662718
 46
35.76410863
 79
     2
 49
8.24619961
 49
-32.98479843
 53
29.84139633
 43
-8.23465417
 44
30.92637626
 45
-20.51662718
 46
35.76410863
 79
     4
 49
4.1230998
 49
-16.49239922
 49
4.1230998
 49
-16.49239922
 53
29.84139633
 43
-12.32398318
 44
29.76884068
 45
-20.51662718
 46
35.76410863
 79
     4
 49
4.1230998
 49
-12.36929989
 49
8.24619961
 49
-16.49239922
 53
29.84139633
 43
-5.68405494
 44
34.76619086
 45
-20.51662718
 46
35.76410863
 79
     4
 49
4.1230998
 49
-20.6154995
 49
4.1230998
 49
-12.36929989
 53
29.84139633
 43
0.95582258
 44
39.76362848
 45
-20.51662718
 46
35.76410863
 79
     2
 49
12.36929989
 49
-28.86170006
 53
29.84139633
 43
-14.3756421
 44
33.34524492
 45
-20.51662718
 46
35.76410863
 79
     2
 49
8.24619961
 49
-32.98479843
 53
29.84139633
 43
2.99344278
 44
44.49765623
 45
-20.51662718
 46
35.76410863
 79
     2
 49
4.1230998
 49
-37.10800171
 53
29.84139633
 43
9.63337073
 44
49.49500404
 45
-20.51662718
 46
35.76410863
 79
     2
 49
4.1230998
 49
-37.10800171
 53
43.8775959
 43
23.49608557
 44
17.04388488
 45
-35.76408799
 46
-20.51657892
 79
     2
 49
4.24679995
 49
-165.75320435
 53
43.8775959
 43
22.45624397
 44
27.14246883
 45
-35.76408799
 46
-20.51657892
 79
     2
 49
4.24679995
 49
-165.75320435
 53
43.8775959
 43
6.56984537
 44
46.5493142
 45
-35.76408799
 46
-20.51657892
 79
     2
 49
4.24679995
 49
-165.75320435
 53
43.8775959
 43
3.53439296
 44
26.98276439
 45
-35.76408799
 46
-20.51657892
 79
     2
 49
4.24679995
 49
-165.75320435
 53
43.8775959
 43
7.60968651
 44
36.45072724
 45
-35.76408799
 46
-20.51657892
 79
     2
 49
4.24679995
 49
-165.75320435
 53
43.8775959
 43
12.72486959
 44
35.82001875
 45
-35.76408799
 46
-20.51657892
 79
     2
 49
4.24679995
 49
-165.75320435
 53
43.8775959
 43
-8.747581
 44
31.82049842
 45
-35.76408799
 46
-20.51657892
 79
     2
 49
4.24679995
 49
-165.75320435
 53
43.8775959
 43
6.5838822
 44
38.23888552
 45
-35.76408799
 46
-20.51657892
 79
     2
 49
4.24679995
 49
-165.75320435
 53
43.8775959
 43
21.43039031
 44
28.93071314
 45
-35.76408799
 46
-20.51657892
 79
     2
 49
8.49359989
 49
-161.50639343
 53
43.8775959
 43
16.31525871
 44
29.56133572
 45
-35.76408799
 46
-20.51657892
 79
     2
 49
8.49359989
 49
-161.50639343
 53
43.8775959
 43
15.28940409
 44
31.34958169
 45
-35.76408799
 46
-20.51657892
 79
     2
 49
8.49359989
 49
-161.50639343
 53
195.80520248
 43
11.22809707
 44
13.57127784
 45
-35.7640545
 46
-20.51663729
 79
     4
 49
4.24679995
 49
-8.49359989
 49
4.24679995
 49
-153.01280212
 53
195.80520248
 43
0.99783091
 44
14.83252241
 45
-35.7640545
 46
-20.51663729
 79
     2
 49
4.24679995
 49
-165.75320435
 53
195.80520248
 43
-8.23465417
 44
30.92637626
 45
-35.7640545
 46
-20.51663729
 79
     2
 49
8.49359989
 49
-161.50639343
 53
223.87759018
 43
24.52188959
 44
15.25572712
 45
35.76409003
 46
20.51657535
 79
     2
 49
4.24679995
 49
-165.75320435
 53
375.80511093
 43
31.67478245
 44
19.35909337
 45
35.76408728
 46
20.51658015
 79
     2
 49
4.24679995
 49
-165.75320435
 53
375.80511093
 43
13.7647093
 44
25.72143427
 45
35.76408728
 46
20.51658015
 79
     2
 49
4.24679995
 49
-165.75320435
 53
375.80511093
 43
17.32707484
 44
36.08351749
 45
35.76408728
 46
20.51658015
 79
     2
 49
4.24679995
 49
-165.75320435
 53
375.80511093
 43
1.48273499
 44
30.55916698
 45
35.76408728
 46
20.51658015
 79
     2
 49
4.24679995
 49
-165.75320435
 53
375.80511093
 43
-4.65825158
 44
32.97803423
 45
35.76408728
 46
20.51658015
 79
     2
 49
4.24679995
 49
-165.75320435
 53
375.80511093
 43
-2.10765318
 44
36.81784836
 45
35.76408728
 46
20.51658015
 79
     2
 49
4.24679995
 49
-165.75320435
 53
375.80511093
 43
1.48273499
 44
30.55916698
 45
35.76408728
 46
20.51658015
 79
     2
 49
4.24679995
 49
-165.75320435
 53
375.80511093
 43
9.13443113
 44
42.0787878
 45
35.76408728
 46
20.51658015
 79
     2
 49
16.98719978
 49
-153.01280212
 53
375.80511093
 43
1.52474444
 44
5.62805991
 45
35.76408728
 46
20.51658015
 79
     2
 49
16.98719978
 49
-153.01280212
 53
375.80511093
 43
3.56241548
 44
10.36199808
 45
35.76408728
 46
20.51658015
 79
     2
 49
16.98719978
 49
-153.01280212
 53
375.80511093
 43
6.11296417
 44
14.20190078
 45
35.76408728
 46
20.51658015
 79
     4
 49
4.24679995
 49
-8.49359989
 49
8.49359989
 49
-148.76600647
 53
375.80511093
 43
4.5742335
 44
16.88418039
 45
35.76408728
 46
20.51658015
 79
     4
 49
8.49359989
 49
-8.49359989
 49
8.49359989
 49
-144.51919556
 53
375.80511093
 43
-1.05382659
 44
18.40892418
 45
35.76408728
 46
20.51658015
 79
     2
 49
16.98719978
 49
-153.01280212
 53
375.80511093
 43
-6.16901021
 44
19.03963456
 45
35.76408728
 46
20.51658015
 79
     2
 49
16.98719978
 49
-153.01280212
 53
375.80511093
 43
-7.19481357
 44
20.82779119
 45
35.76408728
 46
20.51658015
 79
     2
 49
16.98719978
 49
-153.01280212
 53
375.80511093
 43
11.6850287
 44
45.91860145
 45
35.76408728
 46
20.51658015
 79
     2
 49
4.24679995
 49
-165.75320435
 53
375.80520248
 43
13.20986266
 44
51.54671327
 45
35.7640545
 46
20.51663729
 79
     2
 49
8.49359989
 49
-161.50639343
 53
375.80520248
 43
-7.22283733
 44
37.44856063
 45
35.7640545
 46
20.51663729
 79
     2
 49
8.49359989
 49
-161.50639343
 53
375.80511093
 43
7.15280435
 44
4.10331547
 45
35.76408728
 46
20.51658015
 79
     2
 49
16.98719978
 49
-153.01280212
 53
375.80511093
 43
14.24961256
 44
41.44807836
 45
35.76408728
 46
20.51658015
 79
     2
 49
12.74040031
 49
-157.25959778
 53
375.80511093
 43
19.36483563
 44
40.81750715
 45
35.76408728
 46
20.51658015
 79
     2
 49
25.48080063
 49
-144.51919556
 47
0.775229
 98
        1
 10
0.0
 20
0.0
  0
3DFACE
  5
6E5
102
{ACAD_REACTORS
330
6E6
102
}
100
AcDbEntity
  8
Sc.1_5
 62
     7
  6
CONTINUOUS
100
AcDbFace
 70
     0
 10
2375.00666105
 20
-1768.61238169
 30
975.35996094
 11
2468.79499726
 21
-1714.46364544
 31
975.35996094
 12
2456.79505487
 22
-1693.67914133
 32
975.35996094
 13
2363.27832048
 23
-1747.67106816
 33
975.35996094
  0
HATCH
  5
6E6
100
AcDbEntity
  8
Sc.1_5
 62
     9
  6
CONTINUOUS
100
AcDbHatch
 10
0.0
 20
0.0
 30
0.0
210
0.0
220
0.0
230
1.0
  2
Wood
 70
     0
 71
     1
 91
        1
 92
        7
 72
     0
 73
     1
 93
        4
 10
2375.00666105
 20
-1768.61238169
 10
2468.79499726
 20
-1714.46364544
 10
2456.79505487
 20
-1693.67914133
 10
2363.27832048
 20
-1747.67106816
 97
        1
330
6E5
 75
     0
 76
     2
 52
29.84139633
 41
1.0
 77
     0
 78
    66
 53
29.84139633
 43
0.0
 44
0.0
 45
-20.51662718
 46
35.76410863
 79
     4
 49
8.24619961
 49
-12.36929989
 49
4.1230998
 49
-16.49239922
 53
29.84139633
 43
24.52188959
 44
15.25572712
 45
-20.51662718
 46
35.76410863
 79
     2
 49
8.24619961
 49
-32.98479843
 53
29.84139633
 43
19.91968298
 44
14.99222691
 45
-20.51662718
 46
35.76410863
 79
     2
 49
4.1230998
 49
-37.10800171
 53
29.84139633
 43
-0.26341322
 44
4.60225596
 45
-20.51662718
 46
35.76410863
 79
     4
 49
2.06159997
 49
-28.86170006
 49
2.06159997
 49
-8.24619961
 53
29.84139633
 43
11.22809707
 44
13.57127784
 45
-20.51662718
 46
35.76410863
 79
     4
 49
8.24619961
 49
-12.36929989
 49
2.06159997
 49
-18.55400085
 53
29.84139633
 43
1.77425802
 44
9.33619425
 45
-20.51662718
 46
35.76410863
 79
     2
 49
6.18470001
 49
-35.04639816
 53
29.84139633
 43
10.20229324
 44
15.35943529
 45
-20.51662718
 46
35.76410863
 79
     2
 49
12.36929989
 49
-28.86170006
 53
29.84139633
 43
-1.0398406
 44
10.09858507
 45
-20.51662718
 46
35.76410863
 79
     2
 49
8.24619961
 49
-32.98479843
 53
29.84139633
 43
12.75284169
 44
19.19933841
 45
-20.51662718
 46
35.76410863
 79
     2
 49
20.6154995
 49
-20.6154995
 53
29.84139633
 43
0.99783091
 44
14.83252241
 45
-20.51662718
 46
35.76410863
 79
     4
 49
4.1230998
 49
-12.36929989
 49
8.24619961
 49
-16.49239922
 53
29.84139633
 43
25.51980907
 44
30.08830021
 45
-20.51662718
 46
35.76410863
 79
     2
 49
8.24619961
 49
-32.98479843
 53
29.84139633
 43
17.85398937
 44
26.87905611
 45
-20.51662718
 46
35.76410863
 79
     2
 49
4.1230998
 49
-37.10800171
 53
29.84139633
 43
10.18830671
 44
23.66977629
 45
-20.51662718
 46
35.76410863
 79
     2
 49
4.1230998
 49
-37.10800171
 53
29.84139633
 43
-8.20663094
 44
14.30560871
 45
-20.51662718
 46
35.76410863
 79
     2
 49
8.24619961
 49
-32.98479843
 53
29.84139633
 43
9.16245353
 44
25.45801978
 45
-20.51662718
 46
35.76410863
 79
     2
 49
8.24619961
 49
-32.98479843
 53
29.84139633
 43
8.13659891
 44
27.24626574
 45
-20.51662718
 46
35.76410863
 79
     4
 49
8.24619961
 49
-8.24619961
 49
8.24619961
 49
-16.49239922
 53
29.84139633
 43
-0.0420088
 44
24.9311069
 45
-20.51662718
 46
35.76410863
 79
     4
 49
4.1230998
 49
-20.6154995
 49
8.24619961
 49
-8.24619961
 53
29.84139633
 43
6.59786872
 44
29.92854452
 45
-20.51662718
 46
35.76410863
 79
     2
 49
12.36929989
 49
-28.86170006
 53
29.84139633
 43
5.57206441
 44
31.7167028
 45
-20.51662718
 46
35.76410863
 79
     2
 49
8.24619961
 49
-32.98479843
 53
29.84139633
 43
-9.24647154
 44
24.40419378
 45
-20.51662718
 46
35.76410863
 79
     4
 49
12.36929989
 49
-16.49239922
 49
4.1230998
 49
-8.24619961
 53
29.84139633
 43
-10.2723252
 44
26.19243809
 45
-20.51662718
 46
35.76410863
 79
     2
 49
20.6154995
 49
-20.6154995
 53
29.84139633
 43
10.67321162
 44
39.39642134
 45
-20.51662718
 46
35.76410863
 79
     2
 49
4.1230998
 49
-37.10800171
 53
29.84139633
 43
-0.56892298
 44
34.13556958
 45
-20.51662718
 46
35.76410863
 79
     2
 49
8.24619961
 49
-32.98479843
 53
29.84139633
 43
-8.23465417
 44
30.92637626
 45
-20.51662718
 46
35.76410863
 79
     4
 49
4.1230998
 49
-16.49239922
 49
4.1230998
 49
-16.49239922
 53
29.84139633
 43
-12.32398318
 44
29.76884068
 45
-20.51662718
 46
35.76410863
 79
     4
 49
4.1230998
 49
-12.36929989
 49
8.24619961
 49
-16.49239922
 53
29.84139633
 43
-5.68405494
 44
34.76619086
 45
-20.51662718
 46
35.76410863
 79
     4
 49
4.1230998
 49
-20.6154995
 49
4.1230998
 49
-12.36929989
 53
29.84139633
 43
0.95582258
 44
39.76362848
 45
-20.51662718
 46
35.76410863
 79
     2
 49
12.36929989
 49
-28.86170006
 53
29.84139633
 43
-14.3756421
 44
33.34524492
 45
-20.51662718
 46
35.76410863
 79
     2
 49
8.24619961
 49
-32.98479843
 53
29.84139633
 43
2.99344278
 44
44.49765623
 45
-20.51662718
 46
35.76410863
 79
     2
 49
4.1230998
 49
-37.10800171
 53
29.84139633
 43
9.63337073
 44
49.49500404
 45
-20.51662718
 46
35.76410863
 79
     2
 49
4.1230998
 49
-37.10800171
 53
43.8775959
 43
23.49608557
 44
17.04388488
 45
-35.76408799
 46
-20.51657892
 79
     2
 49
4.24679995
 49
-165.75320435
 53
43.8775959
 43
22.45624397
 44
27.14246883
 45
-35.76408799
 46
-20.51657892
 79
     2
 49
4.24679995
 49
-165.75320435
 53
43.8775959
 43
6.56984537
 44
46.5493142
 45
-35.76408799
 46
-20.51657892
 79
     2
 49
4.24679995
 49
-165.75320435
 53
43.8775959
 43
3.53439296
 44
26.98276439
 45
-35.76408799
 46
-20.51657892
 79
     2
 49
4.24679995
 49
-165.75320435
 53
43.8775959
 43
7.60968651
 44
36.45072724
 45
-35.76408799
 46
-20.51657892
 79
     2
 49
4.24679995
 49
-165.75320435
 53
43.8775959
 43
12.72486959
 44
35.82001875
 45
-35.76408799
 46
-20.51657892
 79
     2
 49
4.24679995
 49
-165.75320435
 53
43.8775959
 43
-8.747581
 44
31.82049842
 45
-35.76408799
 46
-20.51657892
 79
     2
 49
4.24679995
 49
-165.75320435
 53
43.8775959
 43
6.5838822
 44
38.23888552
 45
-35.76408799
 46
-20.51657892
 79
     2
 49
4.24679995
 49
-165.75320435
 53
43.8775959
 43
21.43039031
 44
28.93071314
 45
-35.76408799
 46
-20.51657892
 79
     2
 49
8.49359989
 49
-161.50639343
 53
43.8775959
 43
16.31525871
 44
29.56133572
 45
-35.76408799
 46
-20.51657892
 79
     2
 49
8.49359989
 49
-161.50639343
 53
43.8775959
 43
15.28940409
 44
31.34958169
 45
-35.76408799
 46
-20.51657892
 79
     2
 49
8.49359989
 49
-161.50639343
 53
195.80520248
 43
11.22809707
 44
13.57127784
 45
-35.7640545
 46
-20.51663729
 79
     4
 49
4.24679995
 49
-8.49359989
 49
4.24679995
 49
-153.01280212
 53
195.80520248
 43
0.99783091
 44
14.83252241
 45
-35.7640545
 46
-20.51663729
 79
     2
 49
4.24679995
 49
-165.75320435
 53
195.80520248
 43
-8.23465417
 44
30.92637626
 45
-35.7640545
 46
-20.51663729
 79
     2
 49
8.49359989
 49
-161.50639343
 53
223.87759018
 43
24.52188959
 44
15.25572712
 45
35.76409003
 46
20.51657535
 79
     2
 49
4.24679995
 49
-165.75320435
 53
375.80511093
 43
31.67478245
 44
19.35909337
 45
35.76408728
 46
20.51658015
 79
     2
 49
4.24679995
 49
-165.75320435
 53
375.80511093
 43
13.7647093
 44
25.72143427
 45
35.76408728
 46
20.51658015
 79
     2
 49
4.24679995
 49
-165.75320435
 53
375.80511093
 43
17.32707484
 44
36.08351749
 45
35.76408728
 46
20.51658015
 79
     2
 49
4.24679995
 49
-165.75320435
 53
375.80511093
 43
1.48273499
 44
30.55916698
 45
35.76408728
 46
20.51658015
 79
     2
 49
4.24679995
 49
-165.75320435
 53
375.80511093
 43
-4.65825158
 44
32.97803423
 45
35.76408728
 46
20.51658015
 79
     2
 49
4.24679995
 49
-165.75320435
 53
375.80511093
 43
-2.10765318
 44
36.81784836
 45
35.76408728
 46
20.51658015
 79
     2
 49
4.24679995
 49
-165.75320435
 53
375.80511093
 43
1.48273499
 44
30.55916698
 45
35.76408728
 46
20.51658015
 79
     2
 49
4.24679995
 49
-165.75320435
 53
375.80511093
 43
9.13443113
 44
42.0787878
 45
35.76408728
 46
20.51658015
 79
     2
 49
16.98719978
 49
-153.01280212
 53
375.80511093
 43
1.52474444
 44
5.62805991
 45
35.76408728
 46
20.51658015
 79
     2
 49
16.98719978
 49
-153.01280212
 53
375.80511093
 43
3.56241548
 44
10.36199808
 45
35.76408728
 46
20.51658015
 79
     2
 49
16.98719978
 49
-153.01280212
 53
375.80511093
 43
6.11296417
 44
14.20190078
 45
35.76408728
 46
20.51658015
 79
     4
 49
4.24679995
 49
-8.49359989
 49
8.49359989
 49
-148.76600647
 53
375.80511093
 43
4.5742335
 44
16.88418039
 45
35.76408728
 46
20.51658015
 79
     4
 49
8.49359989
 49
-8.49359989
 49
8.49359989
 49
-144.51919556
 53
375.80511093
 43
-1.05382659
 44
18.40892418
 45
35.76408728
 46
20.51658015
 79
     2
 49
16.98719978
 49
-153.01280212
 53
375.80511093
 43
-6.16901021
 44
19.03963456
 45
35.76408728
 46
20.51658015
 79
     2
 49
16.98719978
 49
-153.01280212
 53
375.80511093
 43
-7.19481357
 44
20.82779119
 45
35.76408728
 46
20.51658015
 79
     2
 49
16.98719978
 49
-153.01280212
 53
375.80511093
 43
11.6850287
 44
45.91860145
 45
35.76408728
 46
20.51658015
 79
     2
 49
4.24679995
 49
-165.75320435
 53
375.80520248
 43
13.20986266
 44
51.54671327
 45
35.7640545
 46
20.51663729
 79
     2
 49
8.49359989
 49
-161.50639343
 53
375.80520248
 43
-7.22283733
 44
37.44856063
 45
35.7640545
 46
20.51663729
 79
     2
 49
8.49359989
 49
-161.50639343
 53
375.80511093
 43
7.15280435
 44
4.10331547
 45
35.76408728
 46
20.51658015
 79
     2
 49
16.98719978
 49
-153.01280212
 53
375.80511093
 43
14.24961256
 44
41.44807836
 45
35.76408728
 46
20.51658015
 79
     2
 49
12.74040031
 49
-157.25959778
 53
375.80511093
 43
19.36483563
 44
40.81750715
 45
35.76408728
 46
20.51658015
 79
     2
 49
25.48080063
 49
-144.51919556
 47
0.775229
 98
        1
 10
0.0
 20
0.0
  0
LWPOLYLINE
  5
6E7
100
AcDbEntity
  8
Sc.1_5
 62
     9
  6
CONTINUOUS
370
    20
100
AcDbPolyline
 90
       11
 70
     1
 43
0.0
 38
548.63999023
 39
-548.63999023
 10
2403.2167994
 20
-1726.28092103
 10
2416.97883044
 20
-1768.07320285
 10
2417.06457548
 20
-1768.3335918
 10
2417.37455129
 20
-1769.01409887
 10
2417.47777334
 20
-1769.18231481
 10
2418.11011412
 20
-1769.91006784
 10
2418.14771185
 20
-1768.778158
 10
2418.12315756
 20
-1768.62517589
 10
2417.93150927
 20
-1767.76908747
 10
2417.86742497
 20
-1767.57447746
 10
2404.16639975
 20
-1725.96745702
  0
LWPOLYLINE
  5
6E8
100
AcDbEntity
  8
Sc.1_5
 62
     9
  6
CONTINUOUS
370
    20
100
AcDbPolyline
 90
        8
 70
     1
 43
0.0
 38
548.63999023
 39
-548.63999023
 10
2417.99120048
 20
-1766.35176024
 10
2417.62045579
 20
-1766.82448601
 10
2416.75227049
 20
-1767.38518979
 10
2416.29706186
 20
-1767.60141705
 10
2416.66780656
 20
-1767.12869128
 10
2417.53599185
 20
-1766.5679875
 10
2417.99120048
 20
-1766.35176024
 10
2416.29706186
 20
-1767.60141705
  0
LWPOLYLINE
  5
6E9
100
AcDbEntity
  8
Sc.1_5
 62
     9
  6
CONTINUOUS
370
    20
100
AcDbPolyline
 90
        8
 70
     1
 43
0.0
 38
548.63999023
 39
-548.63999023
 10
2417.60422426
 20
-1765.17659799
 10
2417.23347957
 20
-1765.64932376
 10
2416.36529427
 20
-1766.21002754
 10
2415.91008564
 20
-1766.4262548
 10
2416.28083034
 20
-1765.95352903
 10
2417.14901563
 20
-1765.39282525
 10
2417.60422426
 20
-1765.17659799
 10
2415.91008564
 20
-1766.4262548
  0
3DFACE
  5
6EA
100
AcDbEntity
  8
Sc.1_5
 62
     9
  6
CONTINUOUS
370
    20
100
AcDbFace
 70
     0
 10
2401.57496284
 20
-1725.45137279
 30
548.63999023
 11
2403.21726199
 21
-1726.28000434
 31
548.63999023
 12
2404.16571013
 22
-1725.96768411
 32
548.63999023
 13
2404.99434167
 23
-1724.32538503
 33
548.63999023
  0
3DFACE
  5
6EB
100
AcDbEntity
  8
Sc.1_5
 62
     9
  6
CONTINUOUS
370
    20
100
AcDbFace
 70
     0
 10
2401.57496284
 20
-1725.45137279
 30
548.63999023
 11
2401.51240796
 21
-1725.2614073
 31
548.63999023
 12
2404.93178679
 22
-1724.13541954
 32
548.63999023
 13
2404.99434167
 23
-1724.32538503
 33
548.63999023
  0
LWPOLYLINE
  5
6EC
100
AcDbEntity
  8
Sc.1_5
 62
     9
  6
CADWORK_13
370
    -3
100
AcDbPolyline
 90
        4
 70
     0
 43
0.0
 38
510.0
 10
2403.6970111
 20
-1724.54202623
 10
2403.76614636
 20
-1725.39141346
 10
2403.19624988
 20
-1725.57907808
 10
2402.74718365
 20
-1724.85480061
  0
LINE
  5
6ED
100
AcDbEntity
  8
Sc.1_5
 62
     9
  6
CADWORK_13
370
    -3
100
AcDbLine
 10
2403.48119812
 20
-1725.48524577
 30
510.0
 11
2403.22209738
 21
-1724.69841342
 31
510.0
  0
LWPOLYLINE
  5
6EE
100
AcDbEntity
  8
Sc.1_5
 62
     9
  6
CONTINUOUS
370
    20
100
AcDbPolyline
 90
        8
 70
     1
 43
0.0
 38
548.63999023
 39
-548.63999023
 10
2417.21724804
 20
-1764.00143574
 10
2416.84650334
 20
-1764.47416152
 10
2415.97831805
 20
-1765.03486529
 10
2415.52310942
 20
-1765.25109255
 10
2415.89385412
 20
-1764.77836678
 10
2416.76203941
 20
-1764.217663
 10
2417.21724804
 20
-1764.00143574
 10
2415.52310942
 20
-1765.25109255
  0
LWPOLYLINE
  5
6EF
100
AcDbEntity
  8
Sc.1_5
 62
     9
  6
CONTINUOUS
370
    20
100
AcDbPolyline
 90
        8
 70
     1
 43
0.0
 38
548.63999023
 39
-548.63999023
 10
2416.83027182
 20
-1762.82627349
 10
2416.45952712
 20
-1763.29899927
 10
2415.59134183
 20
-1763.85970304
 10
2415.1361332
 20
-1764.0759303
 10
2415.50687789
 20
-1763.60320453
 10
2416.37506319
 20
-1763.04250075
 10
2416.83027182
 20
-1762.82627349
 10
2415.1361332
 20
-1764.0759303
  0
LWPOLYLINE
  5
6F0
100
AcDbEntity
  8
Sc.1_5
 62
     9
  6
CONTINUOUS
370
    20
100
AcDbPolyline
 90
        8
 70
     1
 43
0.0
 38
548.63999023
 39
-548.63999023
 10
2416.44329559
 20
-1761.65111124
 10
2416.0725509
 20
-1762.12383702
 10
2415.2043656
 20
-1762.6845408
 10
2414.74915697
 20
-1762.90076806
 10
2415.11990167
 20
-1762.42804228
 10
2415.98808696
 20
-1761.8673385
 10
2416.44329559
 20
-1761.65111124
 10
2414.74915697
 20
-1762.90076806
  0
LWPOLYLINE
  5
6F1
100
AcDbEntity
  8
Sc.1_5
 62
     9
  6
CONTINUOUS
370
    20
100
AcDbPolyline
 90
        8
 70
     1
 43
0.0
 38
548.63999023
 39
-548.63999023
 10
2416.05631937
 20
-1760.47594899
 10
2415.68557468
 20
-1760.94867477
 10
2414.81738938
 20
-1761.50937855
 10
2414.36218075
 20
-1761.72560581
 10
2414.73292545
 20
-1761.25288003
 10
2415.60111074
 20
-1760.69217625
 10
2416.05631937
 20
-1760.47594899
 10
2414.36218075
 20
-1761.72560581
  0
LWPOLYLINE
  5
6F2
100
AcDbEntity
  8
Sc.1_5
 62
     9
  6
CONTINUOUS
370
    20
100
AcDbPolyline
 90
        8
 70
     1
 43
0.0
 38
548.63999023
 39
-548.63999023
 10
2415.66934315
 20
-1759.30078674
 10
2415.29859845
 20
-1759.77351252
 10
2414.43041316
 20
-1760.3342163
 10
2413.97520453
 20
-1760.55044356
 10
2414.34594923
 20
-1760.07771778
 10
2415.21413452
 20
-1759.517014
 10
2415.66934315
 20
-1759.30078674
 10
2413.97520453
 20
-1760.55044356
  0
LWPOLYLINE
  5
6F3
100
AcDbEntity
  8
Sc.1_5
 62
     9
  6
CONTINUOUS
370
    20
100
AcDbPolyline
 90
        8
 70
     1
 43
0.0
 38
548.63999023
 39
-548.63999023
 10
2415.28236693
 20
-1758.1256245
 10
2414.91162223
 20
-1758.59835027
 10
2414.04343694
 20
-1759.15905405
 10
2413.58822831
 20
-1759.37528131
 10
2413.958973
 20
-1758.90255553
 10
2414.8271583
 20
-1758.34185176
 10
2415.28236693
 20
-1758.1256245
 10
2413.58822831
 20
-1759.37528131
  0
LWPOLYLINE
  5
6F4
100
AcDbEntity
  8
Sc.1_5
 62
     9
  6
CONTINUOUS
370
    20
100
AcDbPolyline
 90
        8
 70
     1
 43
0.0
 38
548.63999023
 39
-548.63999023
 10
2414.8953907
 20
-1756.95046225
 10
2414.52464601
 20
-1757.42318802
 10
2413.65646071
 20
-1757.9838918
 10
2413.20125208
 20
-1758.20011906
 10
2413.57199678
 20
-1757.72739328
 10
2414.44018207
 20
-1757.16668951
 10
2414.8953907
 20
-1756.95046225
 10
2413.20125208
 20
-1758.20011906
  0
LWPOLYLINE
  5
6F5
100
AcDbEntity
  8
Sc.1_5
 62
     9
  6
CONTINUOUS
370
    20
100
AcDbPolyline
 90
        8
 70
     1
 43
0.0
 38
548.63999023
 39
-548.63999023
 10
2414.50841448
 20
-1755.7753
 10
2414.13766979
 20
-1756.24802577
 10
2413.26948449
 20
-1756.80872955
 10
2412.81427586
 20
-1757.02495681
 10
2413.18502056
 20
-1756.55223104
 10
2414.05320585
 20
-1755.99152726
 10
2414.50841448
 20
-1755.7753
 10
2412.81427586
 20
-1757.02495681
  0
LWPOLYLINE
  5
6F6
100
AcDbEntity
  8
Sc.1_5
 62
     9
  6
CONTINUOUS
370
    20
100
AcDbPolyline
 90
        8
 70
     1
 43
0.0
 38
548.63999023
 39
-548.63999023
 10
2414.12143826
 20
-1754.60013775
 10
2413.75069356
 20
-1755.07286352
 10
2412.88250827
 20
-1755.6335673
 10
2412.42729964
 20
-1755.84979456
 10
2412.79804434
 20
-1755.37706879
 10
2413.66622963
 20
-1754.81636501
 10
2414.12143826
 20
-1754.60013775
 10
2412.42729964
 20
-1755.84979456
  0
LWPOLYLINE
  5
6F7
100
AcDbEntity
  8
Sc.1_5
 62
     9
  6
CONTINUOUS
370
    20
100
AcDbPolyline
 90
        8
 70
     1
 43
0.0
 38
548.63999023
 39
-548.63999023
 10
2413.73446204
 20
-1753.4249755
 10
2413.36371734
 20
-1753.89770128
 10
2412.49553205
 20
-1754.45840505
 10
2412.04032342
 20
-1754.67463231
 10
2412.41106811
 20
-1754.20190654
 10
2413.27925341
 20
-1753.64120276
 10
2413.73446204
 20
-1753.4249755
 10
2412.04032342
 20
-1754.67463231
  0
LWPOLYLINE
  5
6F8
100
AcDbEntity
  8
Sc.1_5
 62
     9
  6
CONTINUOUS
370
    20
100
AcDbPolyline
 90
        8
 70
     1
 43
0.0
 38
548.63999023
 39
-548.63999023
 10
2413.34748581
 20
-1752.24981325
 10
2412.97674112
 20
-1752.72253903
 10
2412.10855582
 20
-1753.2832428
 10
2411.65334719
 20
-1753.49947006
 10
2412.02409189
 20
-1753.02674429
 10
2412.89227718
 20
-1752.46604051
 10
2413.34748581
 20
-1752.24981325
 10
2411.65334719
 20
-1753.49947006
  0
LWPOLYLINE
  5
6F9
100
AcDbEntity
  8
Sc.1_5
 62
     9
  6
CONTINUOUS
370
    20
100
AcDbPolyline
 90
        8
 70
     1
 43
0.0
 38
548.63999023
 39
-548.63999023
 10
2412.96050959
 20
-1751.074651
 10
2412.5897649
 20
-1751.54737678
 10
2411.7215796
 20
-1752.10808056
 10
2411.26637097
 20
-1752.32430782
 10
2411.63711567
 20
-1751.85158204
 10
2412.50530096
 20
-1751.29087826
 10
2412.96050959
 20
-1751.074651
 10
2411.26637097
 20
-1752.32430782
  0
LWPOLYLINE
  5
6FA
100
AcDbEntity
  8
Sc.1_5
 62
     9
  6
CONTINUOUS
370
    20
100
AcDbPolyline
 90
        8
 70
     1
 43
0.0
 38
548.63999023
 39
-548.63999023
 10
2412.57353337
 20
-1749.89948875
 10
2412.20278867
 20
-1750.37221453
 10
2411.33460338
 20
-1750.93291831
 10
2410.87939475
 20
-1751.14914557
 10
2411.25013945
 20
-1750.67641979
 10
2412.11832474
 20
-1750.11571601
 10
2412.57353337
 20
-1749.89948875
 10
2410.87939475
 20
-1751.14914557
  0
LWPOLYLINE
  5
6FB
100
AcDbEntity
  8
Sc.1_5
 62
     9
  6
CONTINUOUS
370
    20
100
AcDbPolyline
 90
        8
 70
     1
 43
0.0
 38
548.63999023
 39
-548.63999023
 10
2412.18655715
 20
-1748.72432651
 10
2411.81581245
 20
-1749.19705228
 10
2410.94762716
 20
-1749.75775606
 10
2410.49241853
 20
-1749.97398332
 10
2410.86316322
 20
-1749.50125754
 10
2411.73134852
 20
-1748.94055377
 10
2412.18655715
 20
-1748.72432651
 10
2410.49241853
 20
-1749.97398332
  0
LWPOLYLINE
  5
6FC
100
AcDbEntity
  8
Sc.1_5
 62
     9
  6
CONTINUOUS
370
    20
100
AcDbPolyline
 90
        8
 70
     1
 43
0.0
 38
548.63999023
 39
-548.63999023
 10
2411.79958092
 20
-1747.54916426
 10
2411.42883623
 20
-1748.02189003
 10
2410.56065093
 20
-1748.58259381
 10
2410.1054423
 20
-1748.79882107
 10
2410.476187
 20
-1748.32609529
 10
2411.34437229
 20
-1747.76539152
 10
2411.79958092
 20
-1747.54916426
 10
2410.1054423
 20
-1748.79882107
  0
LWPOLYLINE
  5
6FD
100
AcDbEntity
  8
Sc.1_5
 62
     9
  6
CONTINUOUS
370
    20
100
AcDbPolyline
 90
        8
 70
     1
 43
0.0
 38
548.63999023
 39
-548.63999023
 10
2411.4126047
 20
-1746.37400201
 10
2411.04186001
 20
-1746.84672778
 10
2410.17367471
 20
-1747.40743156
 10
2409.71846608
 20
-1747.62365882
 10
2410.08921078
 20
-1747.15093305
 10
2410.95739607
 20
-1746.59022927
 10
2411.4126047
 20
-1746.37400201
 10
2409.71846608
 20
-1747.62365882
  0
LWPOLYLINE
  5
6FE
100
AcDbEntity
  8
Sc.1_5
 62
     9
  6
CONTINUOUS
370
    20
100
AcDbPolyline
 90
        8
 70
     1
 43
0.0
 38
548.63999023
 39
-548.63999023
 10
2411.02562848
 20
-1745.19883976
 10
2410.65488378
 20
-1745.67156553
 10
2409.78669849
 20
-1746.23226931
 10
2409.33148986
 20
-1746.44849657
 10
2409.70223455
 20
-1745.9757708
 10
2410.57041985
 20
-1745.41506702
 10
2411.02562848
 20
-1745.19883976
 10
2409.33148986
 20
-1746.44849657
  0
LWPOLYLINE
  5
6FF
100
AcDbEntity
  8
Sc.1_5
 62
     9
  6
CONTINUOUS
370
    20
100
AcDbPolyline
 90
        8
 70
     1
 43
0.0
 38
548.63999023
 39
-548.63999023
 10
2410.63865226
 20
-1744.02367751
 10
2410.26790756
 20
-1744.49640329
 10
2409.39972227
 20
-1745.05710706
 10
2408.94451364
 20
-1745.27333432
 10
2409.31525833
 20
-1744.80060855
 10
2410.18344363
 20
-1744.23990477
 10
2410.63865226
 20
-1744.02367751
 10
2408.94451364
 20
-1745.27333432
  0
LWPOLYLINE
  5
700
100
AcDbEntity
  8
Sc.1_5
 62
     9
  6
CONTINUOUS
370
    20
100
AcDbPolyline
 90
        8
 70
     1
 43
0.0
 38
548.63999023
 39
-548.63999023
 10
2410.25167603
 20
-1742.84851526
 10
2409.88093134
 20
-1743.32124104
 10
2409.01274604
 20
-1743.88194481
 10
2408.55753741
 20
-1744.09817207
 10
2408.92828211
 20
-1743.6254463
 10
2409.7964674
 20
-1743.06474252
 10
2410.25167603
 20
-1742.84851526
 10
2408.55753741
 20
-1744.09817207
  0
LWPOLYLINE
  5
701
100
AcDbEntity
  8
Sc.1_5
 62
     9
  6
CONTINUOUS
370
    20
100
AcDbPolyline
 90
        8
 70
     1
 43
0.0
 38
548.63999023
 39
-548.63999023
 10
2409.86469981
 20
-1741.67335301
 10
2409.49395511
 20
-1742.14607879
 10
2408.62576982
 20
-1742.70678257
 10
2408.17056119
 20
-1742.92300983
 10
2408.54130589
 20
-1742.45028405
 10
2409.40949118
 20
-1741.88958027
 10
2409.86469981
 20
-1741.67335301
 10
2408.17056119
 20
-1742.92300983
  0
LWPOLYLINE
  5
702
100
AcDbEntity
  8
Sc.1_5
 62
     9
  6
CONTINUOUS
370
    20
100
AcDbPolyline
 90
        8
 70
     1
 43
0.0
 38
548.63999023
 39
-548.63999023
 10
2409.47772359
 20
-1740.49819076
 10
2409.10697889
 20
-1740.97091654
 10
2408.2387936
 20
-1741.53162032
 10
2407.78358497
 20
-1741.74784758
 10
2408.15432966
 20
-1741.2751218
 10
2409.02251496
 20
-1740.71441802
 10
2409.47772359
 20
-1740.49819076
 10
2407.78358497
 20
-1741.74784758
  0
LWPOLYLINE
  5
703
100
AcDbEntity
  8
Sc.1_5
 62
     9
  6
CONTINUOUS
370
    20
100
AcDbPolyline
 90
        8
 70
     1
 43
0.0
 38
548.63999023
 39
-548.63999023
 10
2409.09074737
 20
-1739.32302852
 10
2408.72000267
 20
-1739.79575429
 10
2407.85181738
 20
-1740.35645807
 10
2407.39660875
 20
-1740.57268533
 10
2407.76735344
 20
-1740.09995955
 10
2408.63553874
 20
-1739.53925578
 10
2409.09074737
 20
-1739.32302852
 10
2407.39660875
 20
-1740.57268533
  0
LWPOLYLINE
  5
704
100
AcDbEntity
  8
Sc.1_5
 62
     9
  6
CONTINUOUS
370
    20
100
AcDbPolyline
 90
        8
 70
     1
 43
0.0
 38
548.63999023
 39
-548.63999023
 10
2408.70377114
 20
-1738.14786627
 10
2408.33302645
 20
-1738.62059204
 10
2407.46484115
 20
-1739.18129582
 10
2407.00963252
 20
-1739.39752308
 10
2407.38037722
 20
-1738.9247973
 10
2408.24856251
 20
-1738.36409353
 10
2408.70377114
 20
-1738.14786627
 10
2407.00963252
 20
-1739.39752308
  0
LWPOLYLINE
  5
705
100
AcDbEntity
  8
Sc.1_5
 62
     9
  6
CONTINUOUS
370
    20
100
AcDbPolyline
 90
        8
 70
     1
 43
0.0
 38
548.63999023
 39
-548.63999023
 10
2408.31679492
 20
-1736.97270402
 10
2407.94605022
 20
-1737.44542979
 10
2407.07786493
 20
-1738.00613357
 10
2406.6226563
 20
-1738.22236083
 10
2406.993401
 20
-1737.74963505
 10
2407.86158629
 20
-1737.18893128
 10
2408.31679492
 20
-1736.97270402
 10
2406.6226563
 20
-1738.22236083
  0
LWPOLYLINE
  5
706
100
AcDbEntity
  8
Sc.1_5
 62
     9
  6
CONTINUOUS
370
    20
100
AcDbPolyline
 90
        8
 70
     1
 43
0.0
 38
548.63999023
 39
-548.63999023
 10
2407.9298187
 20
-1735.79754177
 10
2407.559074
 20
-1736.27026754
 10
2406.69088871
 20
-1736.83097132
 10
2406.23568008
 20
-1737.04719858
 10
2406.60642477
 20
-1736.57447281
 10
2407.47461007
 20
-1736.01376903
 10
2407.9298187
 20
-1735.79754177
 10
2406.23568008
 20
-1737.04719858
  0
LWPOLYLINE
  5
707
100
AcDbEntity
  8
Sc.1_5
 62
     9
  6
CONTINUOUS
370
    20
100
AcDbPolyline
 90
        8
 70
     1
 43
0.0
 38
548.63999023
 39
-548.63999023
 10
2407.54284248
 20
-1734.62237952
 10
2407.17209778
 20
-1735.0951053
 10
2406.30391249
 20
-1735.65580907
 10
2405.84870386
 20
-1735.87203633
 10
2406.21944855
 20
-1735.39931056
 10
2407.08763385
 20
-1734.83860678
 10
2407.54284248
 20
-1734.62237952
 10
2405.84870386
 20
-1735.87203633
  0
LWPOLYLINE
  5
708
100
AcDbEntity
  8
Sc.1_5
 62
     9
  6
CONTINUOUS
370
    20
100
AcDbPolyline
 90
        8
 70
     1
 43
0.0
 38
548.63999023
 39
-548.63999023
 10
2407.15586625
 20
-1733.44721727
 10
2406.78512156
 20
-1733.91994305
 10
2405.91693626
 20
-1734.48064682
 10
2405.46172763
 20
-1734.69687408
 10
2405.83247233
 20
-1734.22414831
 10
2406.70065762
 20
-1733.66344453
 10
2407.15586625
 20
-1733.44721727
 10
2405.46172763
 20
-1734.69687408
  0
LWPOLYLINE
  5
709
100
AcDbEntity
  8
Sc.1_5
 62
     9
  6
CONTINUOUS
370
    20
100
AcDbPolyline
 90
        8
 70
     1
 43
0.0
 38
548.63999023
 39
-548.63999023
 10
2406.76889003
 20
-1732.27205502
 10
2406.39814533
 20
-1732.7447808
 10
2405.52996004
 20
-1733.30548458
 10
2405.07475141
 20
-1733.52171184
 10
2405.44549611
 20
-1733.04898606
 10
2406.3136814
 20
-1732.48828228
 10
2406.76889003
 20
-1732.27205502
 10
2405.07475141
 20
-1733.52171184
  0
LWPOLYLINE
  5
70A
100
AcDbEntity
  8
Sc.1_5
 62
     9
  6
CONTINUOUS
370
    20
100
AcDbPolyline
 90
        8
 70
     1
 43
0.0
 38
548.63999023
 39
-548.63999023
 10
2406.38191381
 20
-1731.09689277
 10
2406.01116911
 20
-1731.56961855
 10
2405.14298382
 20
-1732.13032233
 10
2404.68777519
 20
-1732.34654959
 10
2405.05851988
 20
-1731.87382381
 10
2405.92670518
 20
-1731.31312003
 10
2406.38191381
 20
-1731.09689277
 10
2404.68777519
 20
-1732.34654959
  0
LWPOLYLINE
  5
70B
100
AcDbEntity
  8
Sc.1_5
 62
     9
  6
CONTINUOUS
370
    20
100
AcDbPolyline
 90
        8
 70
     1
 43
0.0
 38
548.63999023
 39
-548.63999023
 10
2405.99493759
 20
-1729.92173052
 10
2405.62419289
 20
-1730.3944563
 10
2404.7560076
 20
-1730.95516008
 10
2404.30079897
 20
-1731.17138734
 10
2404.67154366
 20
-1730.69866156
 10
2405.53972896
 20
-1730.13795778
 10
2405.99493759
 20
-1729.92173052
 10
2404.30079897
 20
-1731.17138734
  0
LWPOLYLINE
  5
70C
100
AcDbEntity
  8
Sc.1_5
 62
     9
  6
CONTINUOUS
370
    20
100
AcDbPolyline
 90
        8
 70
     1
 43
0.0
 38
548.63999023
 39
-548.63999023
 10
2405.60796136
 20
-1728.74656828
 10
2405.23721667
 20
-1729.21929405
 10
2404.36903137
 20
-1729.77999783
 10
2403.91382274
 20
-1729.99622509
 10
2404.28456744
 20
-1729.52349931
 10
2405.15275273
 20
-1728.96279554
 10
2405.60796136
 20
-1728.74656828
 10
2403.91382274
 20
-1729.99622509
  0
LWPOLYLINE
  5
70D
100
AcDbEntity
  8
Sc.1_5
 62
     9
  6
CONTINUOUS
370
    20
100
AcDbPolyline
 90
        8
 70
     1
 43
0.0
 38
548.63999023
 39
-548.63999023
 10
2405.22098514
 20
-1727.57140603
 10
2404.85024044
 20
-1728.0441318
 10
2403.98205515
 20
-1728.60483558
 10
2403.52684652
 20
-1728.82106284
 10
2403.89759122
 20
-1728.34833706
 10
2404.76577651
 20
-1727.78763329
 10
2405.22098514
 20
-1727.57140603
 10
2403.52684652
 20
-1728.82106284
  0
LWPOLYLINE
  5
70E
100
AcDbEntity
  8
Sc.1_5
 62
     9
  6
CONTINUOUS
370
    20
100
AcDbPolyline
 90
        8
 70
     1
 43
0.0
 38
548.63999023
 39
-548.63999023
 10
2404.83400892
 20
-1726.39624378
 10
2404.46326422
 20
-1726.86896955
 10
2403.59507893
 20
-1727.42967333
 10
2403.1398703
 20
-1727.64590059
 10
2403.51061499
 20
-1727.17317482
 10
2404.37880029
 20
-1726.61247104
 10
2404.83400892
 20
-1726.39624378
 10
2403.1398703
 20
-1727.64590059
  0
LWPOLYLINE
  5
70F
100
AcDbEntity
  8
Sc.1_5
 62
     9
  6
CONTINUOUS
370
    20
100
AcDbPolyline
 90
        6
 70
     1
 43
0.0
 38
548.63999023
 39
-548.63999023
 10
2416.69573467
 20
-1768.38391748
 10
2416.97883044
 20
-1768.07320285
 10
2417.86742497
 20
-1767.57447746
 10
2418.21023344
 20
-1767.45836992
 10
2417.93150927
 20
-1767.76908747
 10
2417.06457548
 20
-1768.3335918
  0
LINE
  5
710
100
AcDbEntity
  8
Sc.1_5
 62
     9
  6
CONTINUOUS
 48
0.25
370
    20
100
AcDbLine
 10
2416.69573467
 20
-1768.38391748
 30
548.63999023
 11
2418.21023344
 21
-1767.45836992
 31
548.63999023
  0
LWPOLYLINE
  5
711
100
AcDbEntity
  8
Sc.1_5
 62
     9
  6
CONTINUOUS
370
    20
100
AcDbPolyline
 90
        6
 70
     1
 43
0.0
 38
548.63999023
 39
-548.63999023
 10
2417.15606923
 20
-1769.22827197
 10
2417.37455129
 20
-1769.01409887
 10
2418.12315756
 20
-1768.62517589
 10
2418.3838929
 20
-1768.53931678
 10
2418.14771185
 20
-1768.778158
 10
2417.47777334
 20
-1769.18231481
  0
LINE
  5
712
100
AcDbEntity
  8
Sc.1_5
 62
     9
  6
CONTINUOUS
 48
0.25
370
    20
100
AcDbLine
 10
2417.15606923
 20
-1769.22827197
 30
548.63999023
 11
2418.3838929
 21
-1768.53931678
 31
548.63999023
  0
LWPOLYLINE
  5
713
100
AcDbEntity
  8
Sc.1_5
 62
     9
  6
CONTINUOUS
370
    20
100
AcDbPolyline
 90
        2
 70
     1
 43
0.0
 38
548.63999023
 39
-548.63999023
 10
2421.01778598
 20
-1888.35014138
 42
0.20538652
 10
2423.81359858
 20
-1888.35014138
  0
3DFACE
  5
714
100
AcDbEntity
  8
Sc.1_5
 62
     9
  6
CONTINUOUS
370
    20
100
AcDbFace
 70
     0
 10
2420.51569228
 20
-1888.35014138
 30
548.63999023
 11
2424.31569228
 21
-1888.35014138
 31
548.63999023
 12
2424.31569228
 22
-1888.18125249
 32
548.63999023
 13
2420.51569228
 23
-1888.18125249
 33
548.63999023
  0
LWPOLYLINE
  5
715
100
AcDbEntity
  8
Sc.1_5
 62
     9
  6
CONTINUOUS
370
    20
100
AcDbPolyline
 90
        6
 70
     1
 43
0.0
 38
548.63999023
 39
-548.63999023
 10
2421.83569228
 20
-1887.24517526
 10
2421.65569228
 20
-1887.7066835
 10
2421.65569228
 20
-1888.18125249
 10
2423.17569228
 20
-1888.18125249
 10
2423.17569228
 20
-1887.7066835
 10
2422.99569228
 20
-1887.24517526
  0
3DFACE
  5
716
100
AcDbEntity
  8
Sc.1_5
 62
     9
  6
CONTINUOUS
370
    20
100
AcDbFace
 70
     0
 10
2421.83569228
 20
-1886.58128227
 30
548.63999023
 11
2421.83569228
 21
-1887.24517526
 31
548.63999023
 12
2422.99569228
 22
-1887.24517526
 32
548.63999023
 13
2422.99569228
 23
-1886.58128227
 33
548.63999023
  0
LWPOLYLINE
  5
717
100
AcDbEntity
  8
Sc.1_5
 62
     9
  6
CONTINUOUS
370
    20
100
AcDbPolyline
 90
        8
 70
     1
 43
0.0
 38
548.63999023
 39
-548.63999023
 10
2423.21569228
 20
-1886.21123373
 10
2423.21569228
 20
-1886.21826669
 10
2422.89268866
 20
-1886.41952167
 10
2421.98694478
 20
-1886.58128227
 10
2421.61569228
 20
-1886.49774976
 10
2421.61569228
 20
-1886.49071679
 10
2422.00446269
 20
-1886.28988737
 10
2422.78610463
 20
-1886.15029066
  0
LWPOLYLINE
  5
718
100
AcDbEntity
  8
Sc.1_5
 62
     9
  6
CONTINUOUS
370
    20
100
AcDbPolyline
 90
        8
 70
     1
 43
0.0
 38
548.63999023
 39
-548.63999023
 10
2423.21569228
 20
-1885.22661834
 10
2423.21569228
 20
-1885.23365131
 10
2422.89268866
 20
-1885.43490629
 10
2421.98694478
 20
-1885.59666688
 10
2421.61569228
 20
-1885.51313437
 10
2421.61569228
 20
-1885.50610141
 10
2422.00446269
 20
-1885.30527199
 10
2422.78610463
 20
-1885.16567527
  0
LWPOLYLINE
  5
719
100
AcDbEntity
  8
Sc.1_5
 62
     9
  6
CONTINUOUS
370
    20
100
AcDbPolyline
 90
        8
 70
     1
 43
0.0
 38
548.63999023
 39
-548.63999023
 10
2423.21569228
 20
-1884.24200296
 10
2423.21569228
 20
-1884.24903592
 10
2422.89268866
 20
-1884.4502909
 10
2421.98694478
 20
-1884.6120515
 10
2421.61569228
 20
-1884.52851899
 10
2421.61569228
 20
-1884.52148602
 10
2422.00446269
 20
-1884.3206566
 10
2422.78610463
 20
-1884.18105989
  0
LWPOLYLINE
  5
71A
100
AcDbEntity
  8
Sc.1_5
 62
     9
  6
CONTINUOUS
370
    20
100
AcDbPolyline
 90
        8
 70
     1
 43
0.0
 38
548.63999023
 39
-548.63999023
 10
2423.21569228
 20
-1883.26442054
 10
2423.21569228
 20
-1883.27145351
 10
2422.89268866
 20
-1883.47270848
 10
2421.98694478
 20
-1883.63446908
 10
2421.61569228
 20
-1883.55093657
 10
2421.61569228
 20
-1883.5439036
 10
2422.00446269
 20
-1883.34307419
 10
2422.78610463
 20
-1883.20347747
  0
LWPOLYLINE
  5
71B
100
AcDbEntity
  8
Sc.1_5
 62
     9
  6
CONTINUOUS
370
    20
100
AcDbPolyline
 90
        8
 70
     1
 43
0.0
 38
548.63999023
 39
-548.63999023
 10
2423.21569228
 20
-1882.27980515
 10
2423.21569228
 20
-1882.28683812
 10
2422.89268866
 20
-1882.4880931
 10
2421.98694478
 20
-1882.6498537
 10
2421.61569228
 20
-1882.56632119
 10
2421.61569228
 20
-1882.55928822
 10
2422.00446269
 20
-1882.3584588
 10
2422.78610463
 20
-1882.21886209
  0
LWPOLYLINE
  5
71C
100
AcDbEntity
  8
Sc.1_5
 62
     9
  6
CONTINUOUS
370
    20
100
AcDbPolyline
 90
        8
 70
     1
 43
0.0
 38
548.63999023
 39
-548.63999023
 10
2423.21569228
 20
-1881.29518977
 10
2423.21569228
 20
-1881.30222274
 10
2422.89268866
 20
-1881.50347771
 10
2421.98694478
 20
-1881.66523831
 10
2421.61569228
 20
-1881.5817058
 10
2421.61569228
 20
-1881.57467283
 10
2422.00446269
 20
-1881.37384342
 10
2422.78610463
 20
-1881.2342467
  0
LWPOLYLINE
  5
71D
100
AcDbEntity
  8
Sc.1_5
 62
     9
  6
CONTINUOUS
370
    20
100
AcDbPolyline
 90
        8
 70
     1
 43
0.0
 38
548.63999023
 39
-548.63999023
 10
2423.21569228
 20
-1880.31057439
 10
2423.21569228
 20
-1880.31760735
 10
2422.89268866
 20
-1880.51886233
 10
2421.98694478
 20
-1880.68062293
 10
2421.61569228
 20
-1880.59709042
 10
2421.61569228
 20
-1880.59005745
 10
2422.00446269
 20
-1880.38922803
 10
2422.78610463
 20
-1880.24963132
  0
LWPOLYLINE
  5
71E
100
AcDbEntity
  8
Sc.1_5
 62
     9
  6
CONTINUOUS
370
    20
100
AcDbPolyline
 90
        2
 70
     1
 43
0.0
 38
548.63999023
 39
-548.63999023
 10
2422.41569228
 20
-1879.46722759
 42
-0.25717285
 10
2422.41569228
 20
-1882.98371111
  0
LWPOLYLINE
  5
71F
100
AcDbEntity
  8
Sc.1_5
 62
     9
  6
CONTINUOUS
370
    20
100
AcDbPolyline
 90
        8
 70
     1
 43
0.0
 38
548.63999023
 39
-548.63999023
 10
2421.67000385
 20
-1879.44484531
 10
2421.67000385
 20
-1879.43781235
 10
2422.05877425
 20
-1879.23698293
 10
2422.64934417
 20
-1879.13151057
 10
2423.07893183
 20
-1879.19245364
 10
2423.07893183
 20
-1879.1994866
 10
2422.7559282
 20
-1879.40074158
 10
2422.04125634
 20
-1879.52837783
  0
LWPOLYLINE
  5
720
100
AcDbEntity
  8
Sc.1_5
 62
     9
  6
CONTINUOUS
370
    20
100
AcDbPolyline
 90
        5
 70
     1
 43
0.0
 38
548.63999023
 39
-548.63999023
 10
2405.97834001
 20
-1886.58128227
 10
2405.97834001
 20
-1880.14627129
 10
2406.51834001
 20
-1878.13096385
 10
2407.05834001
 20
-1880.14627129
 10
2407.05834001
 20
-1886.58128227
  0
LWPOLYLINE
  5
721
100
AcDbEntity
  8
Sc.1_5
 62
     9
  6
CONTINUOUS
370
    20
100
AcDbPolyline
 90
        2
 70
     1
 43
0.0
 38
548.63999023
 39
-548.63999023
 10
2405.12043371
 20
-1888.35014138
 42
0.20538652
 10
2407.91624631
 20
-1888.35014138
  0
3DFACE
  5
722
100
AcDbEntity
  8
Sc.1_5
 62
     9
  6
CONTINUOUS
370
    20
100
AcDbFace
 70
     0
 10
2404.61834001
 20
-1888.35014138
 30
548.63999023
 11
2408.41834001
 21
-1888.35014138
 31
548.63999023
 12
2408.41834001
 22
-1888.18125249
 32
548.63999023
 13
2404.61834001
 23
-1888.18125249
 33
548.63999023
  0
LWPOLYLINE
  5
723
100
AcDbEntity
  8
Sc.1_5
 62
     9
  6
CONTINUOUS
370
    20
100
AcDbPolyline
 90
        6
 70
     1
 43
0.0
 38
548.63999023
 39
-548.63999023
 10
2405.93834001
 20
-1887.24517526
 10
2405.75834001
 20
-1887.7066835
 10
2405.75834001
 20
-1888.18125249
 10
2407.27834001
 20
-1888.18125249
 10
2407.27834001
 20
-1887.7066835
 10
2407.09834001
 20
-1887.24517526
  0
3DFACE
  5
724
100
AcDbEntity
  8
Sc.1_5
 62
     9
  6
CONTINUOUS
370
    20
100
AcDbFace
 70
     0
 10
2405.93834001
 20
-1886.58128227
 30
548.63999023
 11
2405.93834001
 21
-1887.24517526
 31
548.63999023
 12
2407.09834001
 22
-1887.24517526
 32
548.63999023
 13
2407.09834001
 23
-1886.58128227
 33
548.63999023
  0
LWPOLYLINE
  5
725
100
AcDbEntity
  8
Sc.1_5
 62
     9
  6
CONTINUOUS
370
    20
100
AcDbPolyline
 90
        8
 70
     1
 43
0.0
 38
548.63999023
 39
-548.63999023
 10
2407.31834001
 20
-1886.21123373
 10
2407.31834001
 20
-1886.21826669
 10
2406.99533638
 20
-1886.41952167
 10
2406.0895925
 20
-1886.58128227
 10
2405.71834001
 20
-1886.49774976
 10
2405.71834001
 20
-1886.49071679
 10
2406.10711041
 20
-1886.28988737
 10
2406.88875236
 20
-1886.15029066
  0
LWPOLYLINE
  5
726
100
AcDbEntity
  8
Sc.1_5
 62
     9
  6
CONTINUOUS
370
    20
100
AcDbPolyline
 90
        8
 70
     1
 43
0.0
 38
548.63999023
 39
-548.63999023
 10
2407.31834001
 20
-1885.22661834
 10
2407.31834001
 20
-1885.23365131
 10
2406.99533638
 20
-1885.43490629
 10
2406.0895925
 20
-1885.59666688
 10
2405.71834001
 20
-1885.51313437
 10
2405.71834001
 20
-1885.50610141
 10
2406.10711041
 20
-1885.30527199
 10
2406.88875236
 20
-1885.16567527
  0
LWPOLYLINE
  5
727
100
AcDbEntity
  8
Sc.1_5
 62
     9
  6
CONTINUOUS
370
    20
100
AcDbPolyline
 90
        8
 70
     1
 43
0.0
 38
548.63999023
 39
-548.63999023
 10
2407.31834001
 20
-1884.24200296
 10
2407.31834001
 20
-1884.24903592
 10
2406.99533638
 20
-1884.4502909
 10
2406.0895925
 20
-1884.6120515
 10
2405.71834001
 20
-1884.52851899
 10
2405.71834001
 20
-1884.52148602
 10
2406.10711041
 20
-1884.3206566
 10
2406.88875236
 20
-1884.18105989
  0
LWPOLYLINE
  5
728
100
AcDbEntity
  8
Sc.1_5
 62
     9
  6
CONTINUOUS
370
    20
100
AcDbPolyline
 90
        8
 70
     1
 43
0.0
 38
548.63999023
 39
-548.63999023
 10
2407.31834001
 20
-1883.26442054
 10
2407.31834001
 20
-1883.27145351
 10
2406.99533638
 20
-1883.47270848
 10
2406.0895925
 20
-1883.63446908
 10
2405.71834001
 20
-1883.55093657
 10
2405.71834001
 20
-1883.5439036
 10
2406.10711041
 20
-1883.34307419
 10
2406.88875236
 20
-1883.20347747
  0
LWPOLYLINE
  5
729
100
AcDbEntity
  8
Sc.1_5
 62
     9
  6
CONTINUOUS
370
    20
100
AcDbPolyline
 90
        8
 70
     1
 43
0.0
 38
548.63999023
 39
-548.63999023
 10
2407.31834001
 20
-1882.27980515
 10
2407.31834001
 20
-1882.28683812
 10
2406.99533638
 20
-1882.4880931
 10
2406.0895925
 20
-1882.6498537
 10
2405.71834001
 20
-1882.56632119
 10
2405.71834001
 20
-1882.55928822
 10
2406.10711041
 20
-1882.3584588
 10
2406.88875236
 20
-1882.21886209
  0
LWPOLYLINE
  5
72A
100
AcDbEntity
  8
Sc.1_5
 62
     9
  6
CONTINUOUS
370
    20
100
AcDbPolyline
 90
        8
 70
     1
 43
0.0
 38
548.63999023
 39
-548.63999023
 10
2407.31834001
 20
-1881.29518977
 10
2407.31834001
 20
-1881.30222274
 10
2406.99533638
 20
-1881.50347771
 10
2406.0895925
 20
-1881.66523831
 10
2405.71834001
 20
-1881.5817058
 10
2405.71834001
 20
-1881.57467283
 10
2406.10711041
 20
-1881.37384342
 10
2406.88875236
 20
-1881.2342467
  0
LWPOLYLINE
  5
72B
100
AcDbEntity
  8
Sc.1_5
 62
     9
  6
CONTINUOUS
370
    20
100
AcDbPolyline
 90
        8
 70
     1
 43
0.0
 38
548.63999023
 39
-548.63999023
 10
2407.31834001
 20
-1880.31057439
 10
2407.31834001
 20
-1880.31760735
 10
2406.99533638
 20
-1880.51886233
 10
2406.0895925
 20
-1880.68062293
 10
2405.71834001
 20
-1880.59709042
 10
2405.71834001
 20
-1880.59005745
 10
2406.10711041
 20
-1880.38922803
 10
2406.88875236
 20
-1880.24963132
  0
LWPOLYLINE
  5
72C
100
AcDbEntity
  8
Sc.1_5
 62
     9
  6
CONTINUOUS
370
    20
100
AcDbPolyline
 90
        2
 70
     1
 43
0.0
 38
548.63999023
 39
-548.63999023
 10
2406.51834001
 20
-1879.46722759
 42
-0.25717285
 10
2406.51834001
 20
-1882.98371111
  0
LWPOLYLINE
  5
72D
100
AcDbEntity
  8
Sc.1_5
 62
     9
  6
CONTINUOUS
370
    20
100
AcDbPolyline
 90
        8
 70
     1
 43
0.0
 38
548.63999023
 39
-548.63999023
 10
2405.77265157
 20
-1879.44484531
 10
2405.77265157
 20
-1879.43781235
 10
2406.16142198
 20
-1879.23698293
 10
2406.7519919
 20
-1879.13151057
 10
2407.18157955
 20
-1879.19245364
 10
2407.18157955
 20
-1879.1994866
 10
2406.85857593
 20
-1879.40074158
 10
2406.14390407
 20
-1879.52837783
  0
LWPOLYLINE
  5
72E
100
AcDbEntity
  8
Sc.1_5
 62
     9
  6
CONTINUOUS
370
    20
100
AcDbPolyline
 90
       11
 70
     1
 43
0.0
 38
548.63999023
 39
-548.63999023
 10
2402.64559802
 20
-1854.85589048
 10
2419.51262166
 20
-1883.31607769
 10
2419.65239123
 20
-1883.55191468
 10
2420.10154393
 20
-1884.14977479
 10
2420.23854625
 20
-1884.29183731
 10
2421.01267846
 20
-1884.86646645
 10
2420.80581851
 20
-1883.75298434
 10
2420.74891909
 20
-1883.60887016
 10
2420.3775382
 20
-1882.81407919
 10
2420.27307694
 20
-1882.63781888
 10
2403.50586665
 20
-1854.34604944
  0
LWPOLYLINE
  5
72F
100
AcDbEntity
  8
Sc.1_5
 62
     9
  6
CONTINUOUS
370
    20
100
AcDbPolyline
 90
        8
 70
     1
 43
0.0
 38
548.63999023
 39
-548.63999023
 10
2420.13083487
 20
-1881.41711212
 10
2419.87050233
 20
-1881.9585438
 10
2419.14331533
 20
-1882.69293708
 10
2418.7453015
 20
-1883.00205538
 10
2419.00563404
 20
-1882.4606237
 10
2419.73282104
 20
-1881.72623042
 10
2420.13083487
 20
-1881.41711212
 10
2418.7453015
 20
-1883.00205538
  0
LWPOLYLINE
  5
730
100
AcDbEntity
  8
Sc.1_5
 62
     9
  6
CONTINUOUS
370
    20
100
AcDbPolyline
 90
        8
 70
     1
 43
0.0
 38
548.63999023
 39
-548.63999023
 10
2419.50004036
 20
-1880.35275542
 10
2419.23970783
 20
-1880.89418709
 10
2418.51252082
 20
-1881.62858037
 10
2418.114507
 20
-1881.93769867
 10
2418.37483953
 20
-1881.39626699
 10
2419.10202654
 20
-1880.66187371
 10
2419.50004036
 20
-1880.35275542
 10
2418.114507
 20
-1881.93769867
  0
3DFACE
  5
731
100
AcDbEntity
  8
Sc.1_5
 62
     9
  6
CONTINUOUS
370
    20
100
AcDbFace
 70
     0
 10
2400.86371511
 20
-1854.39908541
 30
548.63999023
 11
2402.64585251
 21
-1854.85489572
 31
548.63999023
 12
2403.50487187
 22
-1854.345795
 32
548.63999023
 13
2403.96068218
 23
-1852.56365768
 33
548.63999023
  0
3DFACE
  5
732
100
AcDbEntity
  8
Sc.1_5
 62
     9
  6
CONTINUOUS
370
    20
100
AcDbFace
 70
     0
 10
2400.86371511
 20
-1854.39908541
 30
548.63999023
 11
2400.7617469
 21
-1854.22703169
 31
548.63999023
 12
2403.85871397
 22
-1852.39160396
 32
548.63999023
 13
2403.96068218
 23
-1852.56365768
 33
548.63999023
  0
LWPOLYLINE
  5
733
100
AcDbEntity
  8
Sc.1_5
 62
     9
  6
CADWORK_13
370
    -3
100
AcDbPolyline
 90
        4
 70
     0
 43
0.0
 38
510.0
 10
2402.74036475
 20
-1853.0543973
 10
2402.99066081
 20
-1853.86900778
 10
2402.47449963
 20
-1854.1749124
 10
2401.88009612
 20
-1853.56423834
  0
LINE
  5
734
100
AcDbEntity
  8
Sc.1_5
 62
     9
  6
CADWORK_13
370
    -3
100
AcDbLine
 10
2402.73258022
 20
-1854.02196009
 30
510.0
 11
2402.31023044
 21
-1853.30931782
 31
510.0
  0
LWPOLYLINE
  5
735
100
AcDbEntity
  8
Sc.1_5
 62
     9
  6
CONTINUOUS
370
    20
100
AcDbPolyline
 90
        8
 70
     1
 43
0.0
 38
548.63999023
 39
-548.63999023
 10
2418.86924585
 20
-1879.28839871
 10
2418.60891332
 20
-1879.82983039
 10
2417.88172631
 20
-1880.56422367
 10
2417.48371249
 20
-1880.87334196
 10
2417.74404502
 20
-1880.33191029
 10
2418.47123203
 20
-1879.59751701
 10
2418.86924585
 20
-1879.28839871
 10
2417.48371249
 20
-1880.87334196
  0
LWPOLYLINE
  5
736
100
AcDbEntity
  8
Sc.1_5
 62
     9
  6
CONTINUOUS
370
    20
100
AcDbPolyline
 90
        8
 70
     1
 43
0.0
 38
548.63999023
 39
-548.63999023
 10
2418.23845135
 20
-1878.224042
 10
2417.97811881
 20
-1878.76547368
 10
2417.25093181
 20
-1879.49986696
 10
2416.85291798
 20
-1879.80898526
 10
2417.11325052
 20
-1879.26755358
 10
2417.84043752
 20
-1878.5331603
 10
2418.23845135
 20
-1878.224042
 10
2416.85291798
 20
-1879.80898526
  0
LWPOLYLINE
  5
737
100
AcDbEntity
  8
Sc.1_5
 62
     9
  6
CONTINUOUS
370
    20
100
AcDbPolyline
 90
        8
 70
     1
 43
0.0
 38
548.63999023
 39
-548.63999023
 10
2417.60765684
 20
-1877.1596853
 10
2417.34732431
 20
-1877.70111697
 10
2416.6201373
 20
-1878.43551025
 10
2416.22212348
 20
-1878.74462855
 10
2416.48245601
 20
-1878.20319687
 10
2417.20964302
 20
-1877.46880359
 10
2417.60765684
 20
-1877.1596853
 10
2416.22212348
 20
-1878.74462855
  0
LWPOLYLINE
  5
738
100
AcDbEntity
  8
Sc.1_5
 62
     9
  6
CONTINUOUS
370
    20
100
AcDbPolyline
 90
        8
 70
     1
 43
0.0
 38
548.63999023
 39
-548.63999023
 10
2416.97686234
 20
-1876.09532859
 10
2416.7165298
 20
-1876.63676027
 10
2415.9893428
 20
-1877.37115355
 10
2415.59132897
 20
-1877.68027184
 10
2415.85166151
 20
-1877.13884017
 10
2416.57884851
 20
-1876.40444689
 10
2416.97686234
 20
-1876.09532859
 10
2415.59132897
 20
-1877.68027184
  0
LWPOLYLINE
  5
739
100
AcDbEntity
  8
Sc.1_5
 62
     9
  6
CONTINUOUS
370
    20
100
AcDbPolyline
 90
        8
 70
     1
 43
0.0
 38
548.63999023
 39
-548.63999023
 10
2416.34606783
 20
-1875.03097188
 10
2416.08573529
 20
-1875.57240356
 10
2415.35854829
 20
-1876.30679684
 10
2414.96053447
 20
-1876.61591514
 10
2415.220867
 20
-1876.07448346
 10
2415.948054
 20
-1875.34009018
 10
2416.34606783
 20
-1875.03097188
 10
2414.96053447
 20
-1876.61591514
  0
LWPOLYLINE
  5
73A
100
AcDbEntity
  8
Sc.1_5
 62
     9
  6
CONTINUOUS
370
    20
100
AcDbPolyline
 90
        8
 70
     1
 43
0.0
 38
548.63999023
 39
-548.63999023
 10
2415.71527332
 20
-1873.96661518
 10
2415.45494079
 20
-1874.50804685
 10
2414.72775378
 20
-1875.24244013
 10
2414.32973996
 20
-1875.55155843
 10
2414.59007249
 20
-1875.01012675
 10
2415.3172595
 20
-1874.27573347
 10
2415.71527332
 20
-1873.96661518
 10
2414.32973996
 20
-1875.55155843
  0
LWPOLYLINE
  5
73B
100
AcDbEntity
  8
Sc.1_5
 62
     9
  6
CONTINUOUS
370
    20
100
AcDbPolyline
 90
        8
 70
     1
 43
0.0
 38
548.63999023
 39
-548.63999023
 10
2415.08447882
 20
-1872.90225847
 10
2414.82414628
 20
-1873.44369015
 10
2414.09695928
 20
-1874.17808343
 10
2413.69894545
 20
-1874.48720172
 10
2413.95927799
 20
-1873.94577005
 10
2414.68646499
 20
-1873.21137677
 10
2415.08447882
 20
-1872.90225847
 10
2413.69894545
 20
-1874.48720172
  0
LWPOLYLINE
  5
73C
100
AcDbEntity
  8
Sc.1_5
 62
     9
  6
CONTINUOUS
370
    20
100
AcDbPolyline
 90
        8
 70
     1
 43
0.0
 38
548.63999023
 39
-548.63999023
 10
2414.45368431
 20
-1871.83790176
 10
2414.19335178
 20
-1872.37933344
 10
2413.46616477
 20
-1873.11372672
 10
2413.06815095
 20
-1873.42284502
 10
2413.32848348
 20
-1872.88141334
 10
2414.05567049
 20
-1872.14702006
 10
2414.45368431
 20
-1871.83790176
 10
2413.06815095
 20
-1873.42284502
  0
LWPOLYLINE
  5
73D
100
AcDbEntity
  8
Sc.1_5
 62
     9
  6
CONTINUOUS
370
    20
100
AcDbPolyline
 90
        8
 70
     1
 43
0.0
 38
548.63999023
 39
-548.63999023
 10
2413.8228898
 20
-1870.77354506
 10
2413.56255727
 20
-1871.31497673
 10
2412.83537027
 20
-1872.04937001
 10
2412.43735644
 20
-1872.35848831
 10
2412.69768898
 20
-1871.81705663
 10
2413.42487598
 20
-1871.08266335
 10
2413.8228898
 20
-1870.77354506
 10
2412.43735644
 20
-1872.35848831
  0
LWPOLYLINE
  5
73E
100
AcDbEntity
  8
Sc.1_5
 62
     9
  6
CONTINUOUS
370
    20
100
AcDbPolyline
 90
        8
 70
     1
 43
0.0
 38
548.63999023
 39
-548.63999023
 10
2413.1920953
 20
-1869.70918835
 10
2412.93176276
 20
-1870.25062003
 10
2412.20457576
 20
-1870.98501331
 10
2411.80656193
 20
-1871.2941316
 10
2412.06689447
 20
-1870.75269993
 10
2412.79408147
 20
-1870.01830665
 10
2413.1920953
 20
-1869.70918835
 10
2411.80656193
 20
-1871.2941316
  0
LWPOLYLINE
  5
73F
100
AcDbEntity
  8
Sc.1_5
 62
     9
  6
CONTINUOUS
370
    20
100
AcDbPolyline
 90
        8
 70
     1
 43
0.0
 38
548.63999023
 39
-548.63999023
 10
2412.56130079
 20
-1868.64483164
 10
2412.30096826
 20
-1869.18626332
 10
2411.57378125
 20
-1869.9206566
 10
2411.17576743
 20
-1870.2297749
 10
2411.43609996
 20
-1869.68834322
 10
2412.16328697
 20
-1868.95394994
 10
2412.56130079
 20
-1868.64483164
 10
2411.17576743
 20
-1870.2297749
  0
LWPOLYLINE
  5
740
100
AcDbEntity
  8
Sc.1_5
 62
     9
  6
CONTINUOUS
370
    20
100
AcDbPolyline
 90
        8
 70
     1
 43
0.0
 38
548.63999023
 39
-548.63999023
 10
2411.93050629
 20
-1867.58047494
 10
2411.67017375
 20
-1868.12190661
 10
2410.94298675
 20
-1868.8562999
 10
2410.54497292
 20
-1869.16541819
 10
2410.80530546
 20
-1868.62398651
 10
2411.53249246
 20
-1867.88959323
 10
2411.93050629
 20
-1867.58047494
 10
2410.54497292
 20
-1869.16541819
  0
LWPOLYLINE
  5
741
100
AcDbEntity
  8
Sc.1_5
 62
     9
  6
CONTINUOUS
370
    20
100
AcDbPolyline
 90
        8
 70
     1
 43
0.0
 38
548.63999023
 39
-548.63999023
 10
2411.29971178
 20
-1866.51611823
 10
2411.03937925
 20
-1867.05754991
 10
2410.31219224
 20
-1867.79194319
 10
2409.91417842
 20
-1868.10106148
 10
2410.17451095
 20
-1867.55962981
 10
2410.90169796
 20
-1866.82523653
 10
2411.29971178
 20
-1866.51611823
 10
2409.91417842
 20
-1868.10106148
  0
LWPOLYLINE
  5
742
100
AcDbEntity
  8
Sc.1_5
 62
     9
  6
CONTINUOUS
370
    20
100
AcDbPolyline
 90
        8
 70
     1
 43
0.0
 38
548.63999023
 39
-548.63999023
 10
2410.66891727
 20
-1865.45176153
 10
2410.40858474
 20
-1865.9931932
 10
2409.68139773
 20
-1866.72758648
 10
2409.28338391
 20
-1867.03670478
 10
2409.54371644
 20
-1866.4952731
 10
2410.27090345
 20
-1865.76087982
 10
2410.66891727
 20
-1865.45176153
 10
2409.28338391
 20
-1867.03670478
  0
LWPOLYLINE
  5
743
100
AcDbEntity
  8
Sc.1_5
 62
     9
  6
CONTINUOUS
370
    20
100
AcDbPolyline
 90
        8
 70
     1
 43
0.0
 38
548.63999023
 39
-548.63999023
 10
2410.03812277
 20
-1864.38740482
 10
2409.77779023
 20
-1864.92883649
 10
2409.05060323
 20
-1865.66322978
 10
2408.6525894
 20
-1865.97234807
 10
2408.91292194
 20
-1865.43091639
 10
2409.64010894
 20
-1864.69652311
 10
2410.03812277
 20
-1864.38740482
 10
2408.6525894
 20
-1865.97234807
  0
LWPOLYLINE
  5
744
100
AcDbEntity
  8
Sc.1_5
 62
     9
  6
CONTINUOUS
370
    20
100
AcDbPolyline
 90
        8
 70
     1
 43
0.0
 38
548.63999023
 39
-548.63999023
 10
2409.40732826
 20
-1863.32304811
 10
2409.14699573
 20
-1863.86447979
 10
2408.41980872
 20
-1864.59887307
 10
2408.0217949
 20
-1864.90799136
 10
2408.28212743
 20
-1864.36655969
 10
2409.00931444
 20
-1863.63216641
 10
2409.40732826
 20
-1863.32304811
 10
2408.0217949
 20
-1864.90799136
  0
LWPOLYLINE
  5
745
100
AcDbEntity
  8
Sc.1_5
 62
     9
  6
CONTINUOUS
370
    20
100
AcDbPolyline
 90
        8
 70
     1
 43
0.0
 38
548.63999023
 39
-548.63999023
 10
2408.77653375
 20
-1862.25869141
 10
2408.51620122
 20
-1862.80012308
 10
2407.78901422
 20
-1863.53451636
 10
2407.39100039
 20
-1863.84363466
 10
2407.65133293
 20
-1863.30220298
 10
2408.37851993
 20
-1862.5678097
 10
2408.77653375
 20
-1862.25869141
 10
2407.39100039
 20
-1863.84363466
  0
LWPOLYLINE
  5
746
100
AcDbEntity
  8
Sc.1_5
 62
     9
  6
CONTINUOUS
370
    20
100
AcDbPolyline
 90
        8
 70
     1
 43
0.0
 38
548.63999023
 39
-548.63999023
 10
2408.14573925
 20
-1861.1943347
 10
2407.88540671
 20
-1861.73576637
 10
2407.15821971
 20
-1862.47015966
 10
2406.76020589
 20
-1862.77927795
 10
2407.02053842
 20
-1862.23784627
 10
2407.74772542
 20
-1861.50345299
 10
2408.14573925
 20
-1861.1943347
 10
2406.76020589
 20
-1862.77927795
  0
LWPOLYLINE
  5
747
100
AcDbEntity
  8
Sc.1_5
 62
     9
  6
CONTINUOUS
370
    20
100
AcDbPolyline
 90
        8
 70
     1
 43
0.0
 38
548.63999023
 39
-548.63999023
 10
2407.51494474
 20
-1860.12997799
 10
2407.25461221
 20
-1860.67140967
 10
2406.5274252
 20
-1861.40580295
 10
2406.12941138
 20
-1861.71492124
 10
2406.38974391
 20
-1861.17348957
 10
2407.11693092
 20
-1860.43909629
 10
2407.51494474
 20
-1860.12997799
 10
2406.12941138
 20
-1861.71492124
  0
LWPOLYLINE
  5
748
100
AcDbEntity
  8
Sc.1_5
 62
     9
  6
CONTINUOUS
370
    20
100
AcDbPolyline
 90
        8
 70
     1
 43
0.0
 38
548.63999023
 39
-548.63999023
 10
2406.88415024
 20
-1859.06562129
 10
2406.6238177
 20
-1859.60705296
 10
2405.8966307
 20
-1860.34144624
 10
2405.49861687
 20
-1860.65056454
 10
2405.75894941
 20
-1860.10913286
 10
2406.48613641
 20
-1859.37473958
 10
2406.88415024
 20
-1859.06562129
 10
2405.49861687
 20
-1860.65056454
  0
LWPOLYLINE
  5
749
100
AcDbEntity
  8
Sc.1_5
 62
     9
  6
CONTINUOUS
370
    20
100
AcDbPolyline
 90
        8
 70
     1
 43
0.0
 38
548.63999023
 39
-548.63999023
 10
2406.25335573
 20
-1858.00126458
 10
2405.9930232
 20
-1858.54269626
 10
2405.26583619
 20
-1859.27708954
 10
2404.86782237
 20
-1859.58620783
 10
2405.1281549
 20
-1859.04477616
 10
2405.85534191
 20
-1858.31038287
 10
2406.25335573
 20
-1858.00126458
 10
2404.86782237
 20
-1859.58620783
  0
LWPOLYLINE
  5
74A
100
AcDbEntity
  8
Sc.1_5
 62
     9
  6
CONTINUOUS
370
    20
100
AcDbPolyline
 90
        8
 70
     1
 43
0.0
 38
548.63999023
 39
-548.63999023
 10
2405.62256122
 20
-1856.93690787
 10
2405.36222869
 20
-1857.47833955
 10
2404.63504169
 20
-1858.21273283
 10
2404.23702786
 20
-1858.52185112
 10
2404.4973604
 20
-1857.98041945
 10
2405.2245474
 20
-1857.24602617
 10
2405.62256122
 20
-1856.93690787
 10
2404.23702786
 20
-1858.52185112
  0
LWPOLYLINE
  5
74B
100
AcDbEntity
  8
Sc.1_5
 62
     9
  6
CONTINUOUS
370
    20
100
AcDbPolyline
 90
        8
 70
     1
 43
0.0
 38
548.63999023
 39
-548.63999023
 10
2404.99176672
 20
-1855.87255117
 10
2404.73143418
 20
-1856.41398284
 10
2404.00424718
 20
-1857.14837612
 10
2403.60623335
 20
-1857.45749442
 10
2403.86656589
 20
-1856.91606274
 10
2404.59375289
 20
-1856.18166946
 10
2404.99176672
 20
-1855.87255117
 10
2403.60623335
 20
-1857.45749442
  0
LWPOLYLINE
  5
74C
100
AcDbEntity
  8
Sc.1_5
 62
     9
  6
CONTINUOUS
370
    20
100
AcDbPolyline
 90
        8
 70
     1
 43
0.0
 38
548.63999023
 39
-548.63999023
 10
2404.36097221
 20
-1854.80819446
 10
2404.10063968
 20
-1855.34962614
 10
2403.37345267
 20
-1856.08401942
 10
2402.97543885
 20
-1856.39313771
 10
2403.23577138
 20
-1855.85170604
 10
2403.96295839
 20
-1855.11731275
 10
2404.36097221
 20
-1854.80819446
 10
2402.97543885
 20
-1856.39313771
  0
LWPOLYLINE
  5
74D
100
AcDbEntity
  8
Sc.1_5
 62
     9
  6
CONTINUOUS
370
    20
100
AcDbPolyline
 90
        8
 70
     1
 43
0.0
 38
548.63999023
 39
-548.63999023
 10
2419.30302126
 20
-1883.68043256
 10
2419.65239123
 20
-1883.55191468
 10
2420.3775382
 20
-1882.81407919
 10
2420.58286879
 20
-1882.4506622
 10
2419.30302126
 20
-1883.68043256
 10
2419.51262166
 20
-1883.31607769
 10
2420.27307694
 20
-1882.63781888
 10
2420.58286879
 20
-1882.4506622
  0
LWPOLYLINE
  5
74E
100
AcDbEntity
  8
Sc.1_5
 62
     9
  6
CONTINUOUS
370
    20
100
AcDbPolyline
 90
        8
 70
     1
 43
0.0
 38
548.63999023
 39
-548.63999023
 10
2419.9342686
 20
-1884.40594562
 10
2420.23854625
 20
-1884.29183731
 10
2420.80581851
 20
-1883.75298434
 10
2420.98506982
 20
-1883.46891465
 10
2420.74891909
 20
-1883.60887016
 10
2420.10154393
 20
-1884.14977479
 10
2419.9342686
 20
-1884.40594562
 10
2420.98506982
 20
-1883.46891465
  0
TEXT
  5
74F
100
AcDbEntity
  8
Sc.1_5
 62
     7
370
    35
100
AcDbText
 10
2448.96924514
 20
-1747.4813564
 30
0.0
 40
2.5
  1
Woodspan PLT roof panel
  7
TAHOMA
 50
0.0
 41
0.8
 51
0.0
100
AcDbText
  0
TEXT
  5
750
100
AcDbEntity
  8
Sc.1_5
 62
     7
370
    18
100
AcDbText
 10
2448.96924514
 20
-1751.7313564
 30
0.0
 40
2.5
  1
fixings per engineer's details
  7
TAHOMA
 50
0.0
 41
0.8
 51
0.0
100
AcDbText
  0
TEXT
  5
751
100
AcDbEntity
  8
Sc.1_5
 62
     7
370
    35
100
AcDbText
 10
2457.02583007
 20
-1873.93375911
 30
0.0
 40
2.5
  1
Woodspan PLT roof panel
  7
TAHOMA
 50
0.0
 41
0.8
 51
0.0
100
AcDbText
  0
TEXT
  5
752
100
AcDbEntity
  8
Sc.1_5
 62
     7
370
    18
100
AcDbText
 10
2457.02583007
 20
-1878.18375911
 30
0.0
 40
2.5
  1
fixings per engineer's details
  7
TAHOMA
 50
0.0
 41
0.8
 51
0.0
100
AcDbText
  0
TEXT
  5
753
100
AcDbEntity
  8
Sc.1_5
 62
     7
370
    18
100
AcDbText
 10
2448.96924514
 20
-1776.2642532
 30
0.0
 40
2.5
  1
Timber beam
  7
TAHOMA
 50
0.0
 41
0.8
 51
0.0
100
AcDbText
  0
TEXT
  5
754
100
AcDbEntity
  8
Sc.1_5
 62
     7
370
    18
100
AcDbText
 10
2457.02583007
 20
-1904.56822384
 30
0.0
 40
2.5
  1
Steel beam
  7
TAHOMA
 50
0.0
 41
0.8
 51
0.0
100
AcDbText
  0
TEXT
  5
755
100
AcDbEntity
  8
Sc.1_5
 62
     7
370
    18
100
AcDbText
 10
2457.02583007
 20
-1885.01136827
 30
0.0
 40
2.5
  1
shaped timber packer
  7
TAHOMA
 50
0.0
 41
0.8
 51
0.0
100
AcDbText
  0
TEXT
  5
756
100
AcDbEntity
  8
Sc.1_5
 62
     7
370
    18
100
AcDbText
 10
2364.89259901
 20
-1684.06237953
 30
0.0
 40
2.5
  1
Castellated spacer over purlin
  7
TAHOMA
 50
0.0
 41
0.8
 51
0.0
100
AcDbText
  0
TEXT
  5
757
100
AcDbEntity
  8
Sc.1_5
 62
     7
370
    18
100
AcDbText
 10
2369.98707187
 20
-1687.62452964
 30
0.0
 40
2.5
  1
Purlin on spaced packers
  7
TAHOMA
 50
0.0
 41
0.8
 51
0.0
100
AcDbText
  0
TEXT
  5
758
100
AcDbEntity
  8
Sc.1_5
 62
     7
370
    18
100
AcDbText
 10
2457.02583007
 20
-1860.22072861
 30
0.0
 40
2.5
  1
Castellated spacer over purlin
  7
TAHOMA
 50
0.0
 41
0.8
 51
0.0
100
AcDbText
  0
TEXT
  5
759
100
AcDbEntity
  8
Sc.1_5
 62
     7
370
    18
100
AcDbText
 10
2457.02583007
 20
-1863.78287872
 30
0.0
 40
2.5
  1
Purlin on spaced packers
  7
TAHOMA
 50
0.0
 41
0.8
 51
0.0
100
AcDbText
  0
TEXT
  5
75A
100
AcDbEntity
  8
LEGEND
 62
     7
370
    -3
100
AcDbText
 10
2500.98196024
 20
-1927.55865138
 30
0.0
 40
1.60000002
  1
Date
  7
TAHOMA
 50
0.0
 41
1.0
 51
0.0
100
AcDbText
  0
TEXT
  5
75B
100
AcDbEntity
  8
LEGEND
 62
     7
370
    -3
100
AcDbText
 10
2486.07371156
 20
-1936.18983213
 30
0.0
 40
1.60000002
  1
Detail
  7
TAHOMA
 50
0.0
 41
1.0
 51
0.0
100
AcDbText
  0
TEXT
  5
75C
100
AcDbEntity
  8
LEGEND
 62
     7
370
    18
100
AcDbText
 10
2489.5013268
 20
-1931.99980399
 30
0.0
 40
2.79999995
  1
1.0
  7
TAHOMA
 50
0.0
 41
1.0
 51
0.0
100
AcDbText
  0
TEXT
  5
75D
100
AcDbEntity
  8
LEGEND
 62
     7
370
    -3
100
AcDbText
 10
2486.07371156
 20
-1927.55865138
 30
0.0
 40
1.60000002
  1
Version
  7
TAHOMA
 50
0.0
 41
1.0
 51
0.0
100
AcDbText
  0
TEXT
  5
75E
100
AcDbEntity
  8
LEGEND
 62
     7
370
    -3
100
AcDbText
 10
2355.13292026
 20
-1927.55865138
 30
0.0
 40
1.60000002
  1
Phone:
  7
TAHOMA
 50
0.0
 41
1.0
 51
0.0
100
AcDbText
  0
TEXT
  5
75F
100
AcDbEntity
  8
LEGEND
 62
     7
370
    -3
100
AcDbText
 10
2355.13292026
 20
-1931.67943855
 30
0.0
 40
1.60000002
  1
Email:
  7
TAHOMA
 50
0.0
 41
1.0
 51
0.0
100
AcDbText
  0
TEXT
  5
760
100
AcDbEntity
  8
LEGEND
 62
     7
370
    -3
100
AcDbText
 10
2355.13292026
 20
-1935.80022571
 30
0.0
 40
1.60000002
  1
Web:
  7
TAHOMA
 50
0.0
 41
1.0
 51
0.0
100
AcDbText
  0
TEXT
  5
761
100
AcDbEntity
  8
LEGEND
 62
     7
370
    18
100
AcDbText
 10
2365.03490122
 20
-1928.35865138
 30
0.0
 40
2.4000001
  1
06 755 9000
  7
TAHOMA
 50
0.0
 41
1.0
 51
0.0
100
AcDbText
  0
TEXT
  5
762
100
AcDbEntity
  8
LEGEND
 62
     7
370
    18
100
AcDbText
 10
2365.03490122
 20
-1932.47943855
 30
0.0
 40
2.4000001
  1
info@woodspan.co.nz
  7
TAHOMA
 50
0.0
 41
1.0
 51
0.0
100
AcDbText
  0
TEXT
  5
763
100
AcDbEntity
  8
LEGEND
 62
     7
370
    18
100
AcDbText
 10
2365.03490122
 20
-1936.60022571
 30
0.0
 40
2.4000001
  1
www.woodspan.co.nz
  7
TAHOMA
 50
0.0
 41
1.0
 51
0.0
100
AcDbText
  0
TEXT
  5
764
100
AcDbEntity
  8
LEGEND
 62
     7
370
    18
100
AcDbText
 10
2355.08528597
 20
-1940.72101287
 30
0.0
 40
2.4000001
  1
Connett Road, Bell Block, New Plymouth
  7
TAHOMA
 50
0.0
 41
1.0
 51
0.0
100
AcDbText
  0
TEXT
  5
765
100
AcDbEntity
  8
LEGEND
 62
     7
370
    18
100
AcDbText
 10
2502.06760971
 20
-1931.79980399
 30
0.0
 40
2.4000001
  1
11.07.2019
  7
TAHOMA
 50
0.0
 41
1.0
 51
0.0
100
AcDbText
  0
TEXT
  5
766
100
AcDbEntity
  8
LEGEND
 62
     7
370
    18
100
AcDbText
 10
2494.10098794
 20
-1939.73315868
 30
0.0
 40
4.0
  1

  7
TAHOMA
 50
0.0
 41
0.95
 51
0.0
100
AcDbText
  0
TEXT
  5
767
100
AcDbEntity
  8
LEGEND
 62
     7
370
    18
100
AcDbText
 10
2494.86669116
 20
-1940.05624061
 30
0.0
 40
4.0
  1
PLT 4.4
  7
TAHOMA
 50
0.0
 41
0.95
 51
0.0
100
AcDbText
  0
TEXT
  5
768
100
AcDbEntity
  8
LEGEND
 62
     7
370
    18
100
AcDbText
 10
2414.07678479
 20
-1932.13297832
 30
0.0
 40
4.0
  1
PLT roof to beam
  7
TAHOMA
 50
0.0
 41
0.95
 51
0.0
100
AcDbText
  0
TEXT
  5
769
100
AcDbEntity
  8
LEGEND
 62
     7
370
    18
100
AcDbText
 10
2406.70814522
 20
-1922.5982645
 30
0.0
 40
2.4000001
  1
Indicative details only
  7
TAHOMA
 50
0.0
 41
1.0
 51
0.0
100
AcDbText
  0
ENDSEC
  0
SECTION
  2
OBJECTS
  0
DICTIONARY
  5
1
100
AcDbDictionary
  3
ACAD_GROUP
350
2
  3
ACAD_MLINESTYLE
350
3
  0
DICTIONARY
  5
2
102
{CDWK_REACTORS
330
1
102
}
100
AcDbDictionary
  0
DICTIONARY
  5
3
102
{CDWK_REACTORS
330
1
102
}
100
AcDbDictionary
  3
STANDARD
350
4
  0
MLINESTYLE
  5
4
102
{CDWK_REACTORS
330
3
102
}
100
AcDbMlineStyle
  2
STANDARD
 70
     0
  3

 62
     0
 51
90.0
 52
90.0
 71
     2
 49
0.5
 62
   256
  6
BYLAYER
 49
-0.5
 62
   256
  6
BYLAYER
  0
ENDSEC
  0
EOF
