  0
SECTION
  2
HEADER
  9
$ACADVER
  1
AC1014
  9
$DWGCODEPAGE
  3
ANSI_1252
  9
$INSBASE
 10
0.0
 20
0.0
 30
0.0
  9
$EXTMIN
 10
2559.55250533
 20
-1942.22101287
  9
$EXTMAX
 10
2756.86930672
 20
-1671.22101287
  9
$LIMMIN
 10
2559.55250533
 20
-1942.22101287
  9
$LIMMAX
 10
2756.86930672
 20
-1671.22101287
  9
$ORTHOMODE
 70
     0
  9
$REGENMODE
 70
     1
  9
$FILLMODE
 70
     1
  9
$QTEXTMODE
 70
     0
  9
$MIRRTEXT
 70
     1
  9
$DRAGMODE
 70
     2
  9
$LTSCALE
 40
1.0
  9
$OSMODE
 70
     0
  9
$ATTMODE
 70
     1
  9
$TEXTSIZE
 40
3.5
  9
$TRACEWID
 40
1.0
  9
$TEXTSTYLE
  7
STANDARD
  9
$CLAYER
  8
0
  9
$CELTYPE
  6
BYLAYER
  9
$CECOLOR
 62
   256
  9
$DIMSCALE
 40
1.0
  9
$DIMASZ
 40
2.0
  9
$DIMEXO
 40
5.0
  9
$DIMDLI
 40
10.0
  9
$DIMRND
 40
0.0
  9
$DIMDLE
 40
2.0
  9
$DIMEXE
 40
2.0
  9
$DIMTP
 40
0.0
  9
$DIMTM
 40
0.0
  9
$DIMTXT
 40
2.1
  9
$DIMCEN
 40
1.5
  9
$DIMTSZ
 40
0.0
  9
$DIMTOL
 70
     0
  9
$DIMLIM
 70
     0
  9
$DIMTIH
 70
     1
  9
$DIMTOH
 70
     0
  9
$DIMSE1
 70
     0
  9
$DIMSE2
 70
     0
  9
$DIMTAD
 70
     1
  9
$DIMZIN
 70
     8
  9
$DIMBLK
  1

  9
$DIMASO
 70
     1
  9
$DIMSHO
 70
     1
  9
$DIMPOST
  1

  9
$DIMAPOST
  1

  9
$DIMALT
 70
     0
  9
$DIMALTD
 70
     2
  9
$DIMALTF
 40
25.4
  9
$DIMLFAC
 40
1.0
  9
$DIMTOFL
 70
     0
  9
$DIMTVP
 40
0.0
  9
$DIMTIX
 70
     0
  9
$DIMSOXD
 70
     0
  9
$DIMSAH
 70
     0
  9
$DIMBLK1
  1

  9
$DIMBLK2
  1

  9
$DIMSTYLE
  2
*UNNAMED
  9
$DIMCLRD
 70
     5
  9
$DIMCLRE
 70
     5
  9
$DIMCLRT
 70
     5
  9
$DIMTFAC
 40
1.0
  9
$DIMGAP
 40
0.09
  9
$DIMUNIT
 70
     2
  9
$LUNITS
 70
     2
  9
$LUPREC
 70
     6
  9
$AXISMODE
 70
     0
  9
$AXISUNIT
 10
0.0
 20
0.0
  9
$SKETCHINC
 40
0.1
  9
$FILLETRAD
 40
0.0
  9
$AUNITS
 70
     0
  9
$AUPREC
 70
     0
  9
$MENU
  1
ACAD
  9
$ELEVATION
 40
0.0
  9
$PELEVATION
 40
0.0
  9
$THICKNESS
 40
0.0
  9
$LIMCHECK
 70
     0
  9
$BLIPMODE
 70
     1
  9
$CHAMFERA
 40
0.0
  9
$CHAMFERB
 40
0.0
  9
$SKPOLY
 70
     1
  9
$TDCREATE
 40
2458675.0000000000
  9
$TDUPDATE
 40
2458675.0000000000
  9
$TDINDWG
 40
0.0
  9
$TDUSRTIMER
 40
0.0
  9
$USRTIMER
 70
     1
  9
$ANGBASE
 50
0.0
  9
$ANGDIR
 70
     0
  9
$PDMODE
 70
     0
  9
$PDSIZE
 40
0.0
  9
$PLINEWID
 40
0.0
  9
$COORDS
 70
     2
  9
$SPLFRAME
 70
     0
  9
$SPLINETYPE
 70
     6
  9
$SPLINESEGS
 70
     8
  9
$ATTDIA
 70
     1
  9
$ATTREQ
 70
     1
  9
$HANDLING
 70
     1
  9
$HANDSEED
  5
     66F
  9
$SURFTAB1
 70
     6
  9
$SURFTAB2
 70
     6
  9
$SURFTYPE
 70
     6
  9
$SURFU
 70
     6
  9
$SURFV
 70
     6
  9
$UCSNAME
  2

  9
$UCSORG
 10
0.0
 20
0.0
 30
0.0
  9
$UCSXDIR
 10
1.0
 20
0.0
 30
0.0
  9
$UCSYDIR
 10
0.0
 20
1.0
 30
0.0
  9
$PUCSNAME
  2

  9
$PUCSORG
 10
0.0
 20
0.0
 30
0.0
  9
$PUCSXDIR
 10
1.0
 20
0.0
 30
0.0
  9
$PUCSYDIR
 10
0.0
 20
1.0
 30
0.0
  9
$USERI1
 70
     0
  9
$USERI2
 70
     0
  9
$USERI3
 70
     0
  9
$USERI4
 70
     0
  9
$USERI5
 70
     0
  9
$USERR1
 40
0.0
  9
$USERR2
 40
0.0
  9
$USERR3
 40
0.0
  9
$USERR4
 40
0.0
  9
$USERR5
 40
0.0
  9
$WORLDVIEW
 70
     1
  9
$SHADEDGE
 70
     3
  9
$SHADEDIF
 70
    70
  9
$TILEMODE
 70
     1
  9
$MAXACTVP
 70
    16
  9
$PINSBASE
 10
0.0
 20
0.0
 30
0.0
  9
$PLIMCHECK
 70
     0
  9
$PEXTMIN
 10
1.0000000000000E+20
 20
1.0000000000000E+20
 30
1.0000000000000E+20
  9
$PEXTMAX
 10
-1.0000000000000E+20
 20
-1.0000000000000E+20
 30
-1.0000000000000E+20
  9
$PLIMMIN
 10
0.0
 20
0.0
  9
$UNITMODE
 70
     0
  9
$VISRETAIN
 70
     0
  9
$MEASUREMENT
 70
     1
  0
ENDSEC
  0
SECTION
  2
TABLES
  0
TABLE
  2
VPORT
  5
1B2
100
AcDbSymbolTable
 70
     1
  0
ENDTAB
  0
TABLE
  2
STYLE
  5
1B3
100
AcDbSymbolTable
 70
     3
  0
STYLE
  5
1B4
100
AcDbSymbolTableRecord
100
AcDbTextStyleTableRecord
  2
STANDARD
 70
     0
 40
0.0
 41
1.0
 50
0.0
 71
     0
 42
3.5
  3
MONOTXT
  4

  0
STYLE
  5
1B5
100
AcDbSymbolTableRecord
100
AcDbTextStyleTableRecord
  2
SYMAP
 70
     0
 40
0.0
 41
1.0
 50
0.0
 71
     0
 42
3.5
  3
SYMAP
  4

  0
STYLE
  5
1B6
100
AcDbSymbolTableRecord
100
AcDbTextStyleTableRecord
  2
CADWORK1
 70
     0
 40
0.0
 41
1.0
 50
0.0
 71
     0
 42
3.5
  3
MONOTXT
  4

  0
STYLE
  5
1B7
100
AcDbSymbolTableRecord
100
AcDbTextStyleTableRecord
  2
MONOTXT
 70
     0
 40
0.0
 41
1.0
 50
0.0
 71
     0
 42
3.5
  3
MONOTXT
  4

  0
STYLE
  5
1B8
100
AcDbSymbolTableRecord
100
AcDbTextStyleTableRecord
  2
TAHOMA
 70
     0
 40
0.0
 41
1.0
 50
0.0
 71
     0
 42
3.5
  3

  4

1001
ACAD
1000
Tahoma
1071
        0
  0
ENDTAB
  0
TABLE
  2
LTYPE
  5
1B9
100
AcDbSymbolTable
 70
    15
  0
LTYPE
  5
1BA
100
AcDbSymbolTableRecord
100
AcDbLinetypeTableRecord
  2
BYBLOCK
 70
    64
  3

 72
    65
 73
     0
 40
0.0
  0
LTYPE
  5
1BB
100
AcDbSymbolTableRecord
100
AcDbLinetypeTableRecord
  2
BYLAYER
 70
    64
  3

 72
    65
 73
     0
 40
0.0
  0
LTYPE
  5
1BC
100
AcDbSymbolTableRecord
100
AcDbLinetypeTableRecord
  2
CONTINUOUS
 70
    64
  3
Solid line
 72
    65
 73
     0
 40
0.0
  0
LTYPE
  5
1BD
100
AcDbSymbolTableRecord
100
AcDbLinetypeTableRecord
  2
DOT2
 70
    64
  3
...............................................
 72
    65
 73
     2
 40
1.25
 49
0.0
 74
     0
 49
-1.25
 74
     0
  0
LTYPE
  5
1BE
100
AcDbSymbolTableRecord
100
AcDbLinetypeTableRecord
  2
CADWORK_13
 70
    64
  3
13 =======================================
 72
    65
 73
     2
 40
4.0
 49
2.0
 74
     0
 49
-2.0
 74
     0
  0
LTYPE
  5
1BF
100
AcDbSymbolTableRecord
100
AcDbLinetypeTableRecord
  2
DASHED
 70
    64
  3
__ __ __ __ __ __ __ __ __ __ __ __ __ __ __ __
 72
    65
 73
     2
 40
7.5
 49
5.0
 74
     0
 49
-2.5
 74
     0
  0
LTYPE
  5
1C0
100
AcDbSymbolTableRecord
100
AcDbLinetypeTableRecord
  2
DASHDOT
 70
    64
  3
 __ . __ . __ . __ . __ . __ . __ . __ . __ . __
 72
    65
 73
     4
 40
10.0
 49
5.0
 74
     0
 49
-2.5
 74
     0
 49
0.0
 74
     0
 49
-2.5
 74
     0
  0
LTYPE
  5
1C1
100
AcDbSymbolTableRecord
100
AcDbLinetypeTableRecord
  2
CADWORK_16
 70
    64
  3
--´\,----´\,----´\,----´\,----´\,----´\,----´\,--
 72
    65
 73
     5
 40
17.0
 49
2.0
 74
     0
 49
0.0
 74
     2
 75
     0
340
1B4
 46
6.0
 50
170.0
 44
3.01999998
 45
5.57999992
  9
|
 49
-2.0999999
 74
     2
 75
     0
340
1B4
 46
12.0
 50
10.0
 44
-2.9000001
 45
-6.5999999
  9
|
 49
-2.0999999
 74
     2
 75
     0
340
1B4
 46
6.0
 50
170.0
 44
1.96000004
 45
-0.36000001
  9
|
 49
10.80000019
 74
     0
  0
LTYPE
  5
1C2
100
AcDbSymbolTableRecord
100
AcDbLinetypeTableRecord
  2
CADWORK_15
 70
    64
  3
15 =======================================
 72
    65
 73
     0
 40
0.0
  0
LTYPE
  5
1C3
100
AcDbSymbolTableRecord
100
AcDbLinetypeTableRecord
  2
DAL
 70
    64
  3
Solid line (for MAPS)
 72
    65
 73
     0
 40
0.0
  0
LTYPE
  5
1C4
100
AcDbSymbolTableRecord
100
AcDbLinetypeTableRecord
  2
MUR
 70
    64
  3
Solid line (for MAPS)
 72
    65
 73
     0
 40
0.0
  0
LTYPE
  5
1C5
100
AcDbSymbolTableRecord
100
AcDbLinetypeTableRecord
  2
SOM
 70
    64
  3
Solid line (for MAPS)
 72
    65
 73
     0
 40
0.0
  0
LTYPE
  5
1C6
100
AcDbSymbolTableRecord
100
AcDbLinetypeTableRecord
  2
COL
 70
    64
  3
Solid line (for MAPS)
 72
    65
 73
     0
 40
0.0
  0
LTYPE
  5
1C7
100
AcDbSymbolTableRecord
100
AcDbLinetypeTableRecord
  2
LGN
 70
    64
  3
Solid line (for MAPS)
 72
    65
 73
     0
 40
0.0
  0
LTYPE
  5
1C8
100
AcDbSymbolTableRecord
100
AcDbLinetypeTableRecord
  2
PNT
 70
    64
  3
Solid line (for MAPS)
 72
    65
 73
     0
 40
0.0
  0
ENDTAB
  0
TABLE
  2
LAYER
  5
1C9
100
AcDbSymbolTable
 70
    16
  0
LAYER
  5
1CA
100
AcDbSymbolTableRecord
100
AcDbLayerTableRecord
  2
0
 70
     0
 62
     1
  6
CONTINUOUS
370
    -3
  0
LAYER
  5
1CB
100
AcDbSymbolTableRecord
100
AcDbLayerTableRecord
  2
Standard
 70
     0
 62
     7
  6
CONTINUOUS
370
    -3
  0
LAYER
  5
1CC
100
AcDbSymbolTableRecord
100
AcDbLayerTableRecord
  2
Sc.1_1
 70
     0
 62
     7
  6
CONTINUOUS
370
    -3
  0
LAYER
  5
1CD
100
AcDbSymbolTableRecord
100
AcDbLayerTableRecord
  2
Sc.1_2
 70
     0
 62
     7
  6
CONTINUOUS
370
    -3
  0
LAYER
  5
1CE
100
AcDbSymbolTableRecord
100
AcDbLayerTableRecord
  2
Sc.1_5
 70
     0
 62
     7
  6
CONTINUOUS
370
    -3
  0
LAYER
  5
1CF
100
AcDbSymbolTableRecord
100
AcDbLayerTableRecord
  2
Sc.1_10
 70
     0
 62
     7
  6
CONTINUOUS
370
    -3
  0
LAYER
  5
1D0
100
AcDbSymbolTableRecord
100
AcDbLayerTableRecord
  2
Sc.1_20
 70
     0
 62
     7
  6
CONTINUOUS
370
    -3
  0
LAYER
  5
1D1
100
AcDbSymbolTableRecord
100
AcDbLayerTableRecord
  2
Sc.1_25
 70
     0
 62
     7
  6
CONTINUOUS
370
    -3
  0
LAYER
  5
1D2
100
AcDbSymbolTableRecord
100
AcDbLayerTableRecord
  2
Sc.1_33
 70
     0
 62
     7
  6
CONTINUOUS
370
    -3
  0
LAYER
  5
1D3
100
AcDbSymbolTableRecord
100
AcDbLayerTableRecord
  2
Sc.1_50
 70
     0
 62
     7
  6
CONTINUOUS
370
    -3
  0
LAYER
  5
1D4
100
AcDbSymbolTableRecord
100
AcDbLayerTableRecord
  2
Sc.1_75
 70
     0
 62
     7
  6
CONTINUOUS
370
    -3
  0
LAYER
  5
1D5
100
AcDbSymbolTableRecord
100
AcDbLayerTableRecord
  2
Sc.1_100
 70
     0
 62
     7
  6
CONTINUOUS
370
    -3
  0
LAYER
  5
1D6
100
AcDbSymbolTableRecord
100
AcDbLayerTableRecord
  2
Sc.1_200
 70
     0
 62
     7
  6
CONTINUOUS
370
    -3
  0
LAYER
  5
1D7
100
AcDbSymbolTableRecord
100
AcDbLayerTableRecord
  2
Sc.1_500
 70
     0
 62
     7
  6
CONTINUOUS
370
    -3
  0
LAYER
  5
1D8
100
AcDbSymbolTableRecord
100
AcDbLayerTableRecord
  2
Sc.1_1000
 70
     0
 62
     7
  6
CONTINUOUS
370
    -3
  0
LAYER
  5
1D9
100
AcDbSymbolTableRecord
100
AcDbLayerTableRecord
  2
Laser frames
 70
     0
 62
     7
  6
CONTINUOUS
370
    18
  0
LAYER
  5
1DA
100
AcDbSymbolTableRecord
100
AcDbLayerTableRecord
  2
LEGEND
 70
     0
 62
     7
  6
CONTINUOUS
370
    -3
  0
ENDTAB
  0
TABLE
  2
VIEW
  5
1DB
100
AcDbSymbolTable
 70
     0
  0
ENDTAB
  0
TABLE
  2
UCS
  5
1DC
100
AcDbSymbolTable
 70
     0
  0
ENDTAB
  0
TABLE
  2
APPID
  5
1DD
100
AcDbSymbolTable
 70
     1
  0
APPID
  5
1DE
100
AcDbSymbolTableRecord
100
AcDbRegAppTableRecord
  2
ACAD
 70
     0
  0
ENDTAB
  0
TABLE
  2
DIMSTYLE
  5
1DF
100
AcDbSymbolTable
 70
     0
  0
ENDTAB
  0
TABLE
  2
BLOCK_RECORD
  5
1E0
100
AcDbSymbolTable
 70
     0
  0
BLOCK_RECORD
  5
1E1
100
AcDbSymbolTableRecord
100
AcDbBlockTableRecord
  2
*MODEL_SPACE
  0
BLOCK_RECORD
  5
1E2
100
AcDbSymbolTableRecord
100
AcDbBlockTableRecord
  2
*PAPER_SPACE
  0
BLOCK_RECORD
  5
1E3
100
AcDbSymbolTableRecord
100
AcDbBlockTableRecord
  2
CDWK_EXTR_0
  0
BLOCK_RECORD
  5
1E4
100
AcDbSymbolTableRecord
100
AcDbBlockTableRecord
  2
CDWK_EXTR_1D
  0
BLOCK_RECORD
  5
1E5
100
AcDbSymbolTableRecord
100
AcDbBlockTableRecord
  2
CDWK_EXTR_1G
  0
BLOCK_RECORD
  5
1E6
100
AcDbSymbolTableRecord
100
AcDbBlockTableRecord
  2
CDWK_EXTR_2
  0
BLOCK_RECORD
  5
1E7
100
AcDbSymbolTableRecord
100
AcDbBlockTableRecord
  2
CDWK_EXTR_3
  0
BLOCK_RECORD
  5
1E8
100
AcDbSymbolTableRecord
100
AcDbBlockTableRecord
  2
CDWK_EXTR_4
  0
BLOCK_RECORD
  5
1E9
100
AcDbSymbolTableRecord
100
AcDbBlockTableRecord
  2
CDWK_PTTYP0
  0
BLOCK_RECORD
  5
1EA
100
AcDbSymbolTableRecord
100
AcDbBlockTableRecord
  2
*X2243
  0
BLOCK_RECORD
  5
1EB
100
AcDbSymbolTableRecord
100
AcDbBlockTableRecord
  2
*X2244
  0
BLOCK_RECORD
  5
1EC
100
AcDbSymbolTableRecord
100
AcDbBlockTableRecord
  2
*X2307
  0
BLOCK_RECORD
  5
1ED
100
AcDbSymbolTableRecord
100
AcDbBlockTableRecord
  2
*X2308
  0
BLOCK_RECORD
  5
1EE
100
AcDbSymbolTableRecord
100
AcDbBlockTableRecord
  2
*X2530
  0
BLOCK_RECORD
  5
1EF
100
AcDbSymbolTableRecord
100
AcDbBlockTableRecord
  2
*X2531
  0
BLOCK_RECORD
  5
1F0
100
AcDbSymbolTableRecord
100
AcDbBlockTableRecord
  2
*X2532
  0
BLOCK_RECORD
  5
1F1
100
AcDbSymbolTableRecord
100
AcDbBlockTableRecord
  2
*X2533
  0
ENDTAB
  0
ENDSEC
  0
SECTION
  2
BLOCKS
  0
BLOCK
  5
1F2
100
AcDbEntity
  8
0
100
AcDbBlockBegin
  2
*MODEL_SPACE
 70
     0
 10
0.0
 20
0.0
 30
0.0
  3
*MODEL_SPACE
  1

  0
ENDBLK
  5
1F3
100
AcDbEntity
100
AcDbBlockEnd
  0
BLOCK
  5
1F4
100
AcDbEntity
  8
0
100
AcDbBlockBegin
  2
*PAPER_SPACE
 70
     0
 10
0.0
 20
0.0
 30
0.0
  3
*PAPER_SPACE
  1

  0
ENDBLK
  5
1F5
100
AcDbEntity
100
AcDbBlockEnd
  0
BLOCK
  5
1F6
100
AcDbEntity
  8
0
100
AcDbBlockBegin
  2
CDWK_EXTR_0
 70
     0
 10
0.0
 20
0.0
 30
0.0
  3
CDWK_EXTR_0
  1

  4
Cadwork line-extremity
  0
LINE
  5
1F7
100
AcDbEntity
  8
0
 62
     0
370
    -2
100
AcDbLine
 10
0.0
 20
0.0
 30
0.0
 11
2.0
 21
0.5
 31
0.0
  0
LINE
  5
1F8
100
AcDbEntity
  8
0
 62
     0
370
    -2
100
AcDbLine
 10
0.0
 20
0.0
 30
0.0
 11
2.0
 21
-0.5
 31
0.0
  0
LINE
  5
1F9
100
AcDbEntity
  8
0
 62
     0
370
    -2
100
AcDbLine
 10
2.0
 20
0.5
 30
0.0
 11
2.0
 21
-0.5
 31
0.0
  0
ENDBLK
  5
1FA
100
AcDbEntity
100
AcDbBlockEnd
  0
BLOCK
  5
1FB
100
AcDbEntity
  8
0
100
AcDbBlockBegin
  2
CDWK_EXTR_1D
 70
     0
 10
0.0
 20
0.0
 30
0.0
  3
CDWK_EXTR_1D
  1

  4
Cadwork line-extremity
  0
LINE
  5
1FC
100
AcDbEntity
  8
0
 62
     0
370
    -2
100
AcDbLine
 10
0.0
 20
0.0
 30
0.0
 11
0.0
 21
1.0
 31
0.0
  0
LINE
  5
1FD
100
AcDbEntity
  8
0
 62
     0
370
    -2
100
AcDbLine
 10
0.0
 20
1.0
 30
0.0
 11
0.5
 21
1.5
 31
0.0
  0
LINE
  5
1FE
100
AcDbEntity
  8
0
 62
     0
370
    -2
100
AcDbLine
 10
0.5
 20
1.5
 30
0.0
 11
1.5
 21
1.5
 31
0.0
  0
ENDBLK
  5
1FF
100
AcDbEntity
100
AcDbBlockEnd
  0
BLOCK
  5
200
100
AcDbEntity
  8
0
100
AcDbBlockBegin
  2
CDWK_EXTR_1G
 70
     0
 10
0.0
 20
0.0
 30
0.0
  3
CDWK_EXTR_1G
  1

  4
Cadwork line-extremity
  0
LINE
  5
201
100
AcDbEntity
  8
0
 62
     0
370
    -2
100
AcDbLine
 10
0.0
 20
0.0
 30
0.0
 11
0.0
 21
-1.0
 31
0.0
  0
LINE
  5
202
100
AcDbEntity
  8
0
 62
     0
370
    -2
100
AcDbLine
 10
0.0
 20
-1.0
 30
0.0
 11
0.5
 21
-1.5
 31
0.0
  0
LINE
  5
203
100
AcDbEntity
  8
0
 62
     0
370
    -2
100
AcDbLine
 10
0.5
 20
-1.5
 30
0.0
 11
1.5
 21
-1.5
 31
0.0
  0
ENDBLK
  5
204
100
AcDbEntity
100
AcDbBlockEnd
  0
BLOCK
  5
205
100
AcDbEntity
  8
0
100
AcDbBlockBegin
  2
CDWK_EXTR_2
 70
     0
 10
0.0
 20
0.0
 30
0.0
  3
CDWK_EXTR_2
  1

  4
Cadwork line-extremity
  0
SOLID
  5
206
100
AcDbEntity
  8
0
 62
     0
100
AcDbTrace
 10
0.0
 20
0.0
 11
2.0
 21
0.5
 12
2.0
 22
-0.5
 13
2.0
 23
-0.5
  0
ENDBLK
  5
207
100
AcDbEntity
100
AcDbBlockEnd
  0
BLOCK
  5
208
100
AcDbEntity
  8
0
100
AcDbBlockBegin
  2
CDWK_EXTR_3
 70
     0
 10
0.0
 20
0.0
 30
0.0
  3
CDWK_EXTR_3
  1

  4
Cadwork line-extremity
  0
SOLID
  5
209
100
AcDbEntity
  8
0
 62
     0
100
AcDbTrace
 10
0.0
 20
0.0
 11
2.0
 21
0.5
 12
2.0
 22
-0.5
 13
2.0
 23
-0.5
  0
LINE
  5
20A
100
AcDbEntity
  8
0
 62
     0
370
    -2
100
AcDbLine
 10
0.0
 20
1.0
 30
0.0
 11
0.0
 21
-1.0
 31
0.0
  0
ENDBLK
  5
20B
100
AcDbEntity
100
AcDbBlockEnd
  0
BLOCK
  5
20C
100
AcDbEntity
  8
0
100
AcDbBlockBegin
  2
CDWK_EXTR_4
 70
     0
 10
0.0
 20
0.0
 30
0.0
  3
CDWK_EXTR_4
  1

  4
Cadwork line-extremity
  0
HATCH
  5
20D
100
AcDbEntity
  8
0
 62
     0
370
    -2
100
AcDbHatch
 10
0.0
 20
0.0
 30
0.0
210
0.0
220
0.0
230
1.0
  2
SOLID
 70
     1
 71
     0
 91
        1
 92
        1
 93
        1
 72
     2
 10
0.0
 20
0.0
 40
0.5
 50
0.0
 51
360.0
 73
     1
 97
        0
 75
     0
 76
     1
 98
        1
 10
0.0
 20
0.0
  0
ENDBLK
  5
20E
100
AcDbEntity
100
AcDbBlockEnd
  0
BLOCK
  5
20F
100
AcDbEntity
  8
0
100
AcDbBlockBegin
  2
CDWK_PTTYP0
 70
     0
 10
0.0
 20
0.0
 30
0.0
  3
CDWK_PTTYP0
  1

  4
Cadwork point
  0
POINT
  5
210
100
AcDbEntity
  8
0
 62
     0
100
AcDbPoint
 10
0.0
 20
0.0
 30
0.0
  0
ENDBLK
  5
211
100
AcDbEntity
100
AcDbBlockEnd
  0
BLOCK
  5
212
100
AcDbEntity
  8
Sc.1_5
100
AcDbBlockBegin
  2
*X2243
 70
     1
 10
0.0
 20
0.0
 30
0.0
  3
*X2243
  1

  4
Cadwork hatch
  0
LINE
  5
213
100
AcDbEntity
  8
Sc.1_5
 62
     9
  6
CONTINUOUS
370
    -2
100
AcDbLine
 10
2632.64260918
 20
-1815.93397312
 30
0.0
 11
2648.2669106
 21
-1814.99616204
 31
0.0
  0
LINE
  5
214
100
AcDbEntity
  8
Sc.1_5
 62
     9
  6
CONTINUOUS
370
    -2
100
AcDbLine
 10
2636.14254121
 20
-1821.99615782
 30
0.0
 11
2644.76697857
 21
-1808.93397734
 31
0.0
  0
ENDBLK
  5
215
100
AcDbEntity
100
AcDbBlockEnd
  0
BLOCK
  5
216
100
AcDbEntity
  8
Sc.1_5
100
AcDbBlockBegin
  2
*X2244
 70
     1
 10
0.0
 20
0.0
 30
0.0
  3
*X2244
  1

  4
Cadwork hatch
  0
LINE
  5
217
100
AcDbEntity
  8
Sc.1_5
 62
     9
  6
CONTINUOUS
370
    -2
100
AcDbLine
 10
2648.69998965
 20
-1810.17934304
 30
0.0
 11
2666.69990354
 21
-1819.17929998
 31
0.0
  0
LINE
  5
218
100
AcDbEntity
  8
Sc.1_5
 62
     9
  6
CONTINUOUS
370
    -2
100
AcDbLine
 10
2648.69998965
 20
-1819.17929998
 30
0.0
 11
2666.69990354
 21
-1810.17934304
 31
0.0
  0
ENDBLK
  5
219
100
AcDbEntity
100
AcDbBlockEnd
  0
BLOCK
  5
21A
100
AcDbEntity
  8
Sc.1_5
100
AcDbBlockBegin
  2
*X2307
 70
     1
 10
0.0
 20
0.0
 30
0.0
  3
*X2307
  1

  4
Cadwork hatch
  0
LINE
  5
21B
100
AcDbEntity
  8
Sc.1_5
 62
     9
  6
CONTINUOUS
370
    -2
100
AcDbLine
 10
2624.39132052
 20
-1769.53524298
 30
0.0
 11
2641.18564665
 21
-1780.62367359
 31
0.0
  0
LINE
  5
21C
100
AcDbEntity
  8
Sc.1_5
 62
     9
  6
CONTINUOUS
370
    -2
100
AcDbLine
 10
2632.18555799
 20
-1765.03519865
 30
0.0
 11
2633.39140918
 21
-1785.12371792
 31
0.0
  0
ENDBLK
  5
21D
100
AcDbEntity
100
AcDbBlockEnd
  0
BLOCK
  5
21E
100
AcDbEntity
  8
Sc.1_5
100
AcDbBlockBegin
  2
*X2308
 70
     1
 10
0.0
 20
0.0
 30
0.0
  3
*X2308
  1

  4
Cadwork hatch
  0
LINE
  5
21F
100
AcDbEntity
  8
Sc.1_5
 62
     9
  6
CONTINUOUS
370
    -2
100
AcDbLine
 10
2680.71859863
 20
-1765.03519865
 30
0.0
 11
2680.1236418
 21
-1784.06578272
 31
0.0
  0
LINE
  5
220
100
AcDbEntity
  8
Sc.1_5
 62
     9
  6
CONTINUOUS
370
    -2
100
AcDbLine
 10
2672.32940433
 20
-1779.56573839
 30
0.0
 11
2688.5128361
 21
-1769.53524298
 31
0.0
  0
ENDBLK
  5
221
100
AcDbEntity
100
AcDbBlockEnd
  0
BLOCK
  5
222
100
AcDbEntity
  8
Sc.1_5
100
AcDbBlockBegin
  2
*X2530
 70
     1
 10
0.0
 20
0.0
 30
0.0
  3
*X2530
  1

  4
Cadwork hatch
  0
LINE
  5
223
100
AcDbEntity
  8
Sc.1_5
 62
     9
  6
CONTINUOUS
370
    -2
100
AcDbLine
 10
2656.477423
 20
-1756.44368503
 30
0.0
 11
2656.69434672
 21
-1756.81876978
 31
0.0
  0
LINE
  5
224
100
AcDbEntity
  8
Sc.1_5
 62
     9
  6
CONTINUOUS
370
    -2
100
AcDbLine
 10
2651.85467453
 20
-1759.11717093
 30
0.0
 11
2652.07159825
 21
-1759.49225568
 31
0.0
  0
LINE
  5
225
100
AcDbEntity
  8
Sc.1_5
 62
     9
  6
CONTINUOUS
370
    -2
100
AcDbLine
 10
2647.23192607
 20
-1761.79065683
 30
0.0
 11
2647.44884979
 21
-1762.16574158
 31
0.0
  0
LINE
  5
226
100
AcDbEntity
  8
Sc.1_5
 62
     9
  6
CONTINUOUS
370
    -2
100
AcDbLine
 10
2642.6091776
 20
-1764.46414274
 30
0.0
 11
2642.82610132
 21
-1764.83922748
 31
0.0
  0
LINE
  5
227
100
AcDbEntity
  8
Sc.1_5
 62
     9
  6
CONTINUOUS
370
    -2
100
AcDbLine
 10
2637.98642913
 20
-1767.13762864
 30
0.0
 11
2638.20335285
 21
-1767.51271339
 31
0.0
  0
LINE
  5
228
100
AcDbEntity
  8
Sc.1_5
 62
     9
  6
CONTINUOUS
370
    -2
100
AcDbLine
 10
2655.10719562
 20
-1770.07449568
 30
0.0
 11
2655.32411934
 21
-1770.44958043
 31
0.0
  0
LINE
  5
229
100
AcDbEntity
  8
Sc.1_5
 62
     9
  6
CONTINUOUS
370
    -2
100
AcDbLine
 10
2650.48444715
 20
-1772.74798158
 30
0.0
 11
2650.70137087
 21
-1773.12306633
 31
0.0
  0
LINE
  5
22A
100
AcDbEntity
  8
Sc.1_5
 62
     9
  6
CONTINUOUS
370
    -2
100
AcDbLine
 10
2645.86169868
 20
-1775.42146749
 30
0.0
 11
2646.0786224
 21
-1775.79655223
 31
0.0
  0
LINE
  5
22B
100
AcDbEntity
  8
Sc.1_5
 62
     9
  6
CONTINUOUS
370
    -2
100
AcDbLine
 10
2641.23895022
 20
-1778.09495339
 30
0.0
 11
2641.45587394
 21
-1778.47003813
 31
0.0
  0
LINE
  5
22C
100
AcDbEntity
  8
Sc.1_5
 62
     9
  6
CONTINUOUS
370
    -2
100
AcDbLine
 10
2657.03618405
 20
-1757.28272327
 30
0.0
 11
2657.67697308
 21
-1757.92407942
 31
0.0
  0
LINE
  5
22D
100
AcDbEntity
  8
Sc.1_5
 62
     9
  6
CONTINUOUS
370
    -2
100
AcDbLine
 10
2652.41343194
 20
-1759.9562007
 30
0.0
 11
2657.68927221
 21
-1765.23671025
 31
0.0
  0
LINE
  5
22E
100
AcDbEntity
  8
Sc.1_5
 62
     9
  6
CONTINUOUS
370
    -2
100
AcDbLine
 10
2647.79067983
 20
-1762.62967813
 30
0.0
 11
2654.76535202
 21
-1769.61052312
 31
0.0
  0
LINE
  5
22F
100
AcDbEntity
  8
Sc.1_5
 62
     9
  6
CONTINUOUS
370
    -2
100
AcDbLine
 10
2643.16792771
 20
-1765.30315556
 30
0.0
 11
2650.14259991
 21
-1772.28400055
 31
0.0
  0
LINE
  5
230
100
AcDbEntity
  8
Sc.1_5
 62
     9
  6
CONTINUOUS
370
    -2
100
AcDbLine
 10
2638.5451756
 20
-1767.97663299
 30
0.0
 11
2645.5198478
 21
-1774.95747798
 31
0.0
  0
LINE
  5
231
100
AcDbEntity
  8
Sc.1_5
 62
     9
  6
CONTINUOUS
370
    -2
100
AcDbLine
 10
2637.48746238
 20
-1774.21830447
 30
0.0
 11
2640.89709569
 21
-1777.63095541
 31
0.0
  0
LINE
  5
232
100
AcDbEntity
  8
Sc.1_5
 62
     9
  6
CONTINUOUS
370
    -2
100
AcDbLine
 10
2656.9260023
 20
-1757.34644497
 30
0.0
 11
2657.68070274
 21
-1760.14160217
 31
0.0
  0
LINE
  5
233
100
AcDbEntity
  8
Sc.1_5
 62
     9
  6
CONTINUOUS
370
    -2
100
AcDbLine
 10
2652.30325936
 20
-1760.01993825
 30
0.0
 11
2654.87554627
 21
-1769.54682594
 31
0.0
  0
LINE
  5
234
100
AcDbEntity
  8
Sc.1_5
 62
     9
  6
CONTINUOUS
370
    -2
100
AcDbLine
 10
2647.68051642
 20
-1762.69343154
 30
0.0
 11
2650.25280333
 21
-1772.22031922
 31
0.0
  0
LINE
  5
235
100
AcDbEntity
  8
Sc.1_5
 62
     9
  6
CONTINUOUS
370
    -2
100
AcDbLine
 10
2643.05777348
 20
-1765.36692482
 30
0.0
 11
2645.63006039
 21
-1774.89381251
 31
0.0
  0
LINE
  5
236
100
AcDbEntity
  8
Sc.1_5
 62
     9
  6
CONTINUOUS
370
    -2
100
AcDbLine
 10
2638.43503054
 20
-1768.04041811
 30
0.0
 11
2641.00731745
 21
-1777.5673058
 31
0.0
  0
LINE
  5
237
100
AcDbEntity
  8
Sc.1_5
 62
     9
  6
CONTINUOUS
370
    -2
100
AcDbLine
 10
2657.35944318
 20
-1753.34966578
 30
0.0
 11
2656.84889949
 21
-1753.86553564
 31
0.0
  0
LINE
  5
238
100
AcDbEntity
  8
Sc.1_5
 62
     9
  6
CONTINUOUS
370
    -2
100
AcDbLine
 10
2652.7366944
 20
-1756.02315186
 30
0.0
 11
2652.2261511
 21
-1756.53902133
 31
0.0
  0
LINE
  5
239
100
AcDbEntity
  8
Sc.1_5
 62
     9
  6
CONTINUOUS
370
    -2
100
AcDbLine
 10
2648.11394562
 20
-1758.69663794
 30
0.0
 11
2647.60340271
 21
-1759.21250702
 31
0.0
  0
LINE
  5
23A
100
AcDbEntity
  8
Sc.1_5
 62
     9
  6
CONTINUOUS
370
    -2
100
AcDbLine
 10
2643.49119685
 20
-1761.37012402
 30
0.0
 11
2642.98065431
 21
-1761.88599272
 31
0.0
  0
LINE
  5
23B
100
AcDbEntity
  8
Sc.1_5
 62
     9
  6
CONTINUOUS
370
    -2
100
AcDbLine
 10
2638.86844807
 20
-1764.0436101
 30
0.0
 11
2638.35790592
 21
-1764.55947841
 31
0.0
  0
LINE
  5
23C
100
AcDbEntity
  8
Sc.1_5
 62
     9
  6
CONTINUOUS
370
    -2
100
AcDbLine
 10
2634.2456993
 20
-1766.71709618
 30
0.0
 11
2633.73515753
 21
-1767.23296411
 31
0.0
  0
LINE
  5
23D
100
AcDbEntity
  8
Sc.1_5
 62
     9
  6
CONTINUOUS
370
    -2
100
AcDbLine
 10
2653.35576549
 20
-1755.66512388
 30
0.0
 11
2654.05752165
 21
-1755.47988118
 31
0.0
  0
LINE
  5
23E
100
AcDbEntity
  8
Sc.1_5
 62
     9
  6
CONTINUOUS
370
    -2
100
AcDbLine
 10
2648.7330176
 20
-1758.33861044
 30
0.0
 11
2649.43477376
 21
-1758.15336773
 31
0.0
  0
LINE
  5
23F
100
AcDbEntity
  8
Sc.1_5
 62
     9
  6
CONTINUOUS
370
    -2
100
AcDbLine
 10
2644.1102697
 20
-1761.012097
 30
0.0
 11
2644.81202586
 21
-1760.82685429
 31
0.0
  0
LINE
  5
240
100
AcDbEntity
  8
Sc.1_5
 62
     9
  6
CONTINUOUS
370
    -2
100
AcDbLine
 10
2639.48752181
 20
-1763.68558355
 30
0.0
 11
2640.18927797
 21
-1763.50034085
 31
0.0
  0
LINE
  5
241
100
AcDbEntity
  8
Sc.1_5
 62
     9
  6
CONTINUOUS
370
    -2
100
AcDbLine
 10
2634.86477391
 20
-1766.35907011
 30
0.0
 11
2635.56653007
 21
-1766.17382741
 31
0.0
  0
LINE
  5
242
100
AcDbEntity
  8
Sc.1_5
 62
     9
  6
CONTINUOUS
370
    -2
100
AcDbLine
 10
2654.95264474
 20
-1773.02772906
 30
0.0
 11
2654.45303337
 21
-1773.53255257
 31
0.0
  0
LINE
  5
243
100
AcDbEntity
  8
Sc.1_5
 62
     9
  6
CONTINUOUS
370
    -2
100
AcDbLine
 10
2650.32989635
 20
-1775.70121475
 30
0.0
 11
2649.84579727
 21
-1776.19036414
 31
0.0
  0
LINE
  5
244
100
AcDbEntity
  8
Sc.1_5
 62
     9
  6
CONTINUOUS
370
    -2
100
AcDbLine
 10
2645.70714796
 20
-1778.37470045
 30
0.0
 11
2645.23856116
 21
-1778.84817571
 31
0.0
  0
LINE
  5
245
100
AcDbEntity
  8
Sc.1_5
 62
     9
  6
CONTINUOUS
370
    -2
100
AcDbLine
 10
2644.51652047
 20
-1779.26470486
 30
0.0
 11
2643.87577891
 21
-1779.43384143
 31
0.0
  0
LINE
  5
246
100
AcDbEntity
  8
Sc.1_5
 62
     9
  6
CONTINUOUS
370
    -2
100
AcDbLine
 10
2649.16076311
 20
-1776.58554504
 30
0.0
 11
2648.49852716
 21
-1776.76035549
 31
0.0
  0
LINE
  5
247
100
AcDbEntity
  8
Sc.1_5
 62
     9
  6
CONTINUOUS
370
    -2
100
AcDbLine
 10
2653.80500574
 20
-1773.90638522
 30
0.0
 11
2653.12127541
 21
-1774.08686955
 31
0.0
  0
LINE
  5
248
100
AcDbEntity
  8
Sc.1_5
 62
     9
  6
CONTINUOUS
370
    -2
100
AcDbLine
 10
2656.84890024
 20
-1753.86553526
 30
0.0
 11
2656.51091993
 21
-1754.4754172
 31
0.0
  0
LINE
  5
249
100
AcDbEntity
  8
Sc.1_5
 62
     9
  6
CONTINUOUS
370
    -2
100
AcDbLine
 10
2652.22615099
 20
-1756.53902165
 30
0.0
 11
2651.88817068
 21
-1757.1489036
 31
0.0
  0
LINE
  5
24A
100
AcDbEntity
  8
Sc.1_5
 62
     9
  6
CONTINUOUS
370
    -2
100
AcDbLine
 10
2647.60340174
 20
-1759.21250804
 30
0.0
 11
2647.26542143
 21
-1759.82238999
 31
0.0
  0
LINE
  5
24B
100
AcDbEntity
  8
Sc.1_5
 62
     9
  6
CONTINUOUS
370
    -2
100
AcDbLine
 10
2642.9806525
 20
-1761.88599444
 30
0.0
 11
2642.64267219
 21
-1762.49587639
 31
0.0
  0
LINE
  5
24C
100
AcDbEntity
  8
Sc.1_5
 62
     9
  6
CONTINUOUS
370
    -2
100
AcDbLine
 10
2638.35790325
 20
-1764.55948083
 30
0.0
 11
2638.01992294
 21
-1765.16936278
 31
0.0
  0
LINE
  5
24D
100
AcDbEntity
  8
Sc.1_5
 62
     9
  6
CONTINUOUS
370
    -2
100
AcDbLine
 10
2633.735154
 20
-1767.23296723
 30
0.0
 11
2633.59768936
 21
-1767.48102075
 31
0.0
  0
LINE
  5
24E
100
AcDbEntity
  8
Sc.1_5
 62
     9
  6
CONTINUOUS
370
    -2
100
AcDbLine
 10
2654.06093926
 20
-1755.47790338
 30
0.0
 11
2654.75811995
 21
-1755.48911808
 31
0.0
  0
LINE
  5
24F
100
AcDbEntity
  8
Sc.1_5
 62
     9
  6
CONTINUOUS
370
    -2
100
AcDbLine
 10
2649.4381898
 20
-1758.15138941
 30
0.0
 11
2650.13537049
 21
-1758.1626041
 31
0.0
  0
LINE
  5
250
100
AcDbEntity
  8
Sc.1_5
 62
     9
  6
CONTINUOUS
370
    -2
100
AcDbLine
 10
2644.81544034
 20
-1760.82487543
 30
0.0
 11
2645.51262103
 21
-1760.83609013
 31
0.0
  0
LINE
  5
251
100
AcDbEntity
  8
Sc.1_5
 62
     9
  6
CONTINUOUS
370
    -2
100
AcDbLine
 10
2640.19269088
 20
-1763.49836146
 30
0.0
 11
2640.88987157
 21
-1763.50957615
 31
0.0
  0
LINE
  5
252
100
AcDbEntity
  8
Sc.1_5
 62
     9
  6
CONTINUOUS
370
    -2
100
AcDbLine
 10
2635.56994142
 20
-1766.17184748
 30
0.0
 11
2636.2671221
 21
-1766.18306218
 31
0.0
  0
LINE
  5
253
100
AcDbEntity
  8
Sc.1_5
 62
     9
  6
CONTINUOUS
370
    -2
100
AcDbLine
 10
2655.29062173
 20
-1772.41784784
 30
0.0
 11
2654.95264142
 21
-1773.02772979
 31
0.0
  0
LINE
  5
254
100
AcDbEntity
  8
Sc.1_5
 62
     9
  6
CONTINUOUS
370
    -2
100
AcDbLine
 10
2650.66787248
 20
-1775.09133424
 30
0.0
 11
2650.32989218
 21
-1775.70121618
 31
0.0
  0
LINE
  5
255
100
AcDbEntity
  8
Sc.1_5
 62
     9
  6
CONTINUOUS
370
    -2
100
AcDbLine
 10
2646.04512324
 20
-1777.76482063
 30
0.0
 11
2645.70714293
 21
-1778.37470258
 31
0.0
  0
LINE
  5
256
100
AcDbEntity
  8
Sc.1_5
 62
     9
  6
CONTINUOUS
370
    -2
100
AcDbLine
 10
2641.42237399
 20
-1780.43830703
 30
0.0
 11
2641.2539994
 21
-1780.74213722
 31
0.0
  0
LINE
  5
257
100
AcDbEntity
  8
Sc.1_5
 62
     9
  6
CONTINUOUS
370
    -2
100
AcDbLine
 10
2643.87577445
 20
-1779.43384386
 30
0.0
 11
2643.17859376
 21
-1779.4226292
 31
0.0
  0
LINE
  5
258
100
AcDbEntity
  8
Sc.1_5
 62
     9
  6
CONTINUOUS
370
    -2
100
AcDbLine
 10
2648.49852373
 20
-1776.76035752
 30
0.0
 11
2647.80134304
 21
-1776.74914287
 31
0.0
  0
LINE
  5
259
100
AcDbEntity
  8
Sc.1_5
 62
     9
  6
CONTINUOUS
370
    -2
100
AcDbLine
 10
2653.12127301
 20
-1774.08687119
 30
0.0
 11
2652.42409233
 21
-1774.07565654
 31
0.0
  0
LINE
  5
25A
100
AcDbEntity
  8
Sc.1_5
 62
     9
  6
CONTINUOUS
370
    -2
100
AcDbLine
 10
2657.69965957
 20
-1771.41267125
 30
0.0
 11
2657.04684161
 21
-1771.40217021
 31
0.0
  0
LINE
  5
25B
100
AcDbEntity
  8
Sc.1_5
 62
     9
  6
CONTINUOUS
370
    -2
100
AcDbLine
 10
2656.51092118
 20
-1754.47541726
 30
0.0
 11
2656.35787245
 21
-1755.04829002
 31
0.0
  0
LINE
  5
25C
100
AcDbEntity
  8
Sc.1_5
 62
     9
  6
CONTINUOUS
370
    -2
100
AcDbLine
 10
2651.8881715
 20
-1757.14890386
 30
0.0
 11
2651.73512276
 21
-1757.72177663
 31
0.0
  0
LINE
  5
25D
100
AcDbEntity
  8
Sc.1_5
 62
     9
  6
CONTINUOUS
370
    -2
100
AcDbLine
 10
2647.26542181
 20
-1759.82239047
 30
0.0
 11
2647.11237308
 21
-1760.39526323
 31
0.0
  0
LINE
  5
25E
100
AcDbEntity
  8
Sc.1_5
 62
     9
  6
CONTINUOUS
370
    -2
100
AcDbLine
 10
2642.64267213
 20
-1762.49587708
 30
0.0
 11
2642.48962339
 21
-1763.06874984
 31
0.0
  0
LINE
  5
25F
100
AcDbEntity
  8
Sc.1_5
 62
     9
  6
CONTINUOUS
370
    -2
100
AcDbLine
 10
2638.01992244
 20
-1765.16936368
 30
0.0
 11
2637.86687371
 21
-1765.74223645
 31
0.0
  0
LINE
  5
260
100
AcDbEntity
  8
Sc.1_5
 62
     9
  6
CONTINUOUS
370
    -2
100
AcDbLine
 10
2654.75469929
 20
-1755.49109754
 30
0.0
 11
2655.32757205
 21
-1755.64414627
 31
0.0
  0
LINE
  5
261
100
AcDbEntity
  8
Sc.1_5
 62
     9
  6
CONTINUOUS
370
    -2
100
AcDbLine
 10
2650.1319496
 20
-1758.16458415
 30
0.0
 11
2650.70482237
 21
-1758.31763288
 31
0.0
  0
LINE
  5
262
100
AcDbEntity
  8
Sc.1_5
 62
     9
  6
CONTINUOUS
370
    -2
100
AcDbLine
 10
2645.50919992
 20
-1760.83807075
 30
0.0
 11
2646.08207268
 21
-1760.99111949
 31
0.0
  0
LINE
  5
263
100
AcDbEntity
  8
Sc.1_5
 62
     9
  6
CONTINUOUS
370
    -2
100
AcDbLine
 10
2640.88645023
 20
-1763.51155736
 30
0.0
 11
2641.45932299
 21
-1763.66460609
 31
0.0
  0
LINE
  5
264
100
AcDbEntity
  8
Sc.1_5
 62
     9
  6
CONTINUOUS
370
    -2
100
AcDbLine
 10
2636.26370054
 20
-1766.18504397
 30
0.0
 11
2636.83657331
 21
-1766.3380927
 31
0.0
  0
LINE
  5
265
100
AcDbEntity
  8
Sc.1_5
 62
     9
  6
CONTINUOUS
370
    -2
100
AcDbLine
 10
2655.44366945
 20
-1771.84497746
 30
0.0
 11
2655.29062072
 21
-1772.41785022
 31
0.0
  0
LINE
  5
266
100
AcDbEntity
  8
Sc.1_5
 62
     9
  6
CONTINUOUS
370
    -2
100
AcDbLine
 10
2650.82091977
 20
-1774.51846407
 30
0.0
 11
2650.66787103
 21
-1775.09133683
 31
0.0
  0
LINE
  5
267
100
AcDbEntity
  8
Sc.1_5
 62
     9
  6
CONTINUOUS
370
    -2
100
AcDbLine
 10
2646.19817008
 20
-1777.19195067
 30
0.0
 11
2646.04512135
 21
-1777.76482344
 31
0.0
  0
LINE
  5
268
100
AcDbEntity
  8
Sc.1_5
 62
     9
  6
CONTINUOUS
370
    -2
100
AcDbLine
 10
2641.57542039
 20
-1779.86543728
 30
0.0
 11
2641.42237166
 21
-1780.43831004
 31
0.0
  0
LINE
  5
269
100
AcDbEntity
  8
Sc.1_5
 62
     9
  6
CONTINUOUS
370
    -2
100
AcDbLine
 10
2643.17859221
 20
-1779.42262866
 30
0.0
 11
2642.60571944
 21
-1779.26957993
 31
0.0
  0
LINE
  5
26A
100
AcDbEntity
  8
Sc.1_5
 62
     9
  6
CONTINUOUS
370
    -2
100
AcDbLine
 10
2647.80134189
 20
-1776.74914206
 30
0.0
 11
2647.22846913
 21
-1776.59609332
 31
0.0
  0
LINE
  5
26B
100
AcDbEntity
  8
Sc.1_5
 62
     9
  6
CONTINUOUS
370
    -2
100
AcDbLine
 10
2652.42409158
 20
-1774.07565545
 30
0.0
 11
2651.85121881
 21
-1773.92260671
 31
0.0
  0
LINE
  5
26C
100
AcDbEntity
  8
Sc.1_5
 62
     9
  6
CONTINUOUS
370
    -2
100
AcDbLine
 10
2657.04684126
 20
-1771.40216884
 30
0.0
 11
2656.4739685
 21
-1771.24912011
 31
0.0
  0
LINE
  5
26D
100
AcDbEntity
  8
Sc.1_5
 62
     9
  6
CONTINUOUS
370
    -2
100
AcDbLine
 10
2656.35787146
 20
-1755.04828926
 30
0.0
 11
2656.3182995
 21
-1755.66899092
 31
0.0
  0
LINE
  5
26E
100
AcDbEntity
  8
Sc.1_5
 62
     9
  6
CONTINUOUS
370
    -2
100
AcDbLine
 10
2651.73512262
 20
-1757.72177608
 30
0.0
 11
2651.69555066
 21
-1758.34247774
 31
0.0
  0
LINE
  5
26F
100
AcDbEntity
  8
Sc.1_5
 62
     9
  6
CONTINUOUS
370
    -2
100
AcDbLine
 10
2647.11237379
 20
-1760.39526289
 30
0.0
 11
2647.07280182
 21
-1761.01596455
 31
0.0
  0
LINE
  5
270
100
AcDbEntity
  8
Sc.1_5
 62
     9
  6
CONTINUOUS
370
    -2
100
AcDbLine
 10
2642.48962495
 20
-1763.06874971
 30
0.0
 11
2642.45005299
 21
-1763.68945137
 31
0.0
  0
LINE
  5
271
100
AcDbEntity
  8
Sc.1_5
 62
     9
  6
CONTINUOUS
370
    -2
100
AcDbLine
 10
2637.86687611
 20
-1765.74223652
 30
0.0
 11
2637.82730415
 21
-1766.36293818
 31
0.0
  0
LINE
  5
272
100
AcDbEntity
  8
Sc.1_5
 62
     9
  6
CONTINUOUS
370
    -2
100
AcDbLine
 10
2655.32757195
 20
-1755.6441439
 30
0.0
 11
2655.88530732
 21
-1755.91940331
 31
0.0
  0
LINE
  5
273
100
AcDbEntity
  8
Sc.1_5
 62
     9
  6
CONTINUOUS
370
    -2
100
AcDbLine
 10
2650.70482233
 20
-1758.31762936
 30
0.0
 11
2651.2625577
 21
-1758.59288877
 31
0.0
  0
LINE
  5
274
100
AcDbEntity
  8
Sc.1_5
 62
     9
  6
CONTINUOUS
370
    -2
100
AcDbLine
 10
2646.08207271
 20
-1760.99111482
 30
0.0
 11
2646.63980808
 21
-1761.26637423
 31
0.0
  0
LINE
  5
275
100
AcDbEntity
  8
Sc.1_5
 62
     9
  6
CONTINUOUS
370
    -2
100
AcDbLine
 10
2641.45932309
 20
-1763.66460028
 30
0.0
 11
2642.01705846
 21
-1763.93985969
 31
0.0
  0
LINE
  5
276
100
AcDbEntity
  8
Sc.1_5
 62
     9
  6
CONTINUOUS
370
    -2
100
AcDbLine
 10
2636.83657347
 20
-1766.33808574
 30
0.0
 11
2637.39430884
 21
-1766.61334515
 31
0.0
  0
LINE
  5
277
100
AcDbEntity
  8
Sc.1_5
 62
     9
  6
CONTINUOUS
370
    -2
100
AcDbLine
 10
2655.48324302
 20
-1771.22427517
 30
0.0
 11
2655.44367106
 21
-1771.84497683
 31
0.0
  0
LINE
  5
278
100
AcDbEntity
  8
Sc.1_5
 62
     9
  6
CONTINUOUS
370
    -2
100
AcDbLine
 10
2650.86049418
 20
-1773.89776199
 30
0.0
 11
2650.82092222
 21
-1774.51846365
 31
0.0
  0
LINE
  5
279
100
AcDbEntity
  8
Sc.1_5
 62
     9
  6
CONTINUOUS
370
    -2
100
AcDbLine
 10
2646.23774534
 20
-1776.5712488
 30
0.0
 11
2646.19817338
 21
-1777.19195046
 31
0.0
  0
LINE
  5
27A
100
AcDbEntity
  8
Sc.1_5
 62
     9
  6
CONTINUOUS
370
    -2
100
AcDbLine
 10
2641.6149965
 20
-1779.24473562
 30
0.0
 11
2641.57542454
 21
-1779.86543728
 31
0.0
  0
LINE
  5
27B
100
AcDbEntity
  8
Sc.1_5
 62
     9
  6
CONTINUOUS
370
    -2
100
AcDbLine
 10
2642.60572098
 20
-1779.26957812
 30
0.0
 11
2642.04798559
 21
-1778.99431875
 31
0.0
  0
LINE
  5
27C
100
AcDbEntity
  8
Sc.1_5
 62
     9
  6
CONTINUOUS
370
    -2
100
AcDbLine
 10
2647.22847042
 20
-1776.59609236
 30
0.0
 11
2646.67073503
 21
-1776.32083298
 31
0.0
  0
LINE
  5
27D
100
AcDbEntity
  8
Sc.1_5
 62
     9
  6
CONTINUOUS
370
    -2
100
AcDbLine
 10
2651.85121987
 20
-1773.92260659
 30
0.0
 11
2651.29348448
 21
-1773.64734721
 31
0.0
  0
LINE
  5
27E
100
AcDbEntity
  8
Sc.1_5
 62
     9
  6
CONTINUOUS
370
    -2
100
AcDbLine
 10
2656.47396931
 20
-1771.24912082
 30
0.0
 11
2655.91623392
 21
-1770.97386144
 31
0.0
  0
LINE
  5
27F
100
AcDbEntity
  8
Sc.1_5
 62
     9
  6
CONTINUOUS
370
    -2
100
AcDbLine
 10
2656.31829907
 20
-1755.66899106
 30
0.0
 11
2656.47742294
 21
-1756.44368508
 31
0.0
  0
LINE
  5
280
100
AcDbEntity
  8
Sc.1_5
 62
     9
  6
CONTINUOUS
370
    -2
100
AcDbLine
 10
2651.69554973
 20
-1758.34247777
 30
0.0
 11
2651.8546736
 21
-1759.11717179
 31
0.0
  0
LINE
  5
281
100
AcDbEntity
  8
Sc.1_5
 62
     9
  6
CONTINUOUS
370
    -2
100
AcDbLine
 10
2647.0728004
 20
-1761.01596448
 30
0.0
 11
2647.23192427
 21
-1761.7906585
 31
0.0
  0
LINE
  5
282
100
AcDbEntity
  8
Sc.1_5
 62
     9
  6
CONTINUOUS
370
    -2
100
AcDbLine
 10
2642.45005106
 20
-1763.6894512
 30
0.0
 11
2642.60917493
 21
-1764.46414522
 31
0.0
  0
LINE
  5
283
100
AcDbEntity
  8
Sc.1_5
 62
     9
  6
CONTINUOUS
370
    -2
100
AcDbLine
 10
2637.82730173
 20
-1766.36293791
 30
0.0
 11
2637.9864256
 21
-1767.13763193
 31
0.0
  0
LINE
  5
284
100
AcDbEntity
  8
Sc.1_5
 62
     9
  6
CONTINUOUS
370
    -2
100
AcDbLine
 10
2655.88530769
 20
-1755.91940375
 30
0.0
 11
2656.47742326
 21
-1756.44368458
 31
0.0
  0
LINE
  5
285
100
AcDbEntity
  8
Sc.1_5
 62
     9
  6
CONTINUOUS
370
    -2
100
AcDbLine
 10
2651.26255809
 20
-1758.59289
 30
0.0
 11
2651.85467366
 21
-1759.11717083
 31
0.0
  0
LINE
  5
286
100
AcDbEntity
  8
Sc.1_5
 62
     9
  6
CONTINUOUS
370
    -2
100
AcDbLine
 10
2646.63980849
 20
-1761.26637625
 30
0.0
 11
2647.23192405
 21
-1761.79065708
 31
0.0
  0
LINE
  5
287
100
AcDbEntity
  8
Sc.1_5
 62
     9
  6
CONTINUOUS
370
    -2
100
AcDbLine
 10
2642.01705889
 20
-1763.9398625
 30
0.0
 11
2642.60917445
 21
-1764.46414333
 31
0.0
  0
LINE
  5
288
100
AcDbEntity
  8
Sc.1_5
 62
     9
  6
CONTINUOUS
370
    -2
100
AcDbLine
 10
2637.39430928
 20
-1766.61334875
 30
0.0
 11
2637.98642485
 21
-1767.13762958
 31
0.0
  0
LINE
  5
289
100
AcDbEntity
  8
Sc.1_5
 62
     9
  6
CONTINUOUS
370
    -2
100
AcDbLine
 10
2655.32411846
 20
-1770.44958155
 30
0.0
 11
2655.48324234
 21
-1771.22427557
 31
0.0
  0
LINE
  5
28A
100
AcDbEntity
  8
Sc.1_5
 62
     9
  6
CONTINUOUS
370
    -2
100
AcDbLine
 10
2650.70136913
 20
-1773.12306826
 30
0.0
 11
2650.860493
 21
-1773.89776229
 31
0.0
  0
LINE
  5
28B
100
AcDbEntity
  8
Sc.1_5
 62
     9
  6
CONTINUOUS
370
    -2
100
AcDbLine
 10
2646.07861979
 20
-1775.79655498
 30
0.0
 11
2646.23774367
 21
-1776.571249
 31
0.0
  0
LINE
  5
28C
100
AcDbEntity
  8
Sc.1_5
 62
     9
  6
CONTINUOUS
370
    -2
100
AcDbLine
 10
2641.45587046
 20
-1778.47004169
 30
0.0
 11
2641.61499433
 21
-1779.24473571
 31
0.0
  0
LINE
  5
28D
100
AcDbEntity
  8
Sc.1_5
 62
     9
  6
CONTINUOUS
370
    -2
100
AcDbLine
 10
2642.04798558
 20
-1778.99431921
 30
0.0
 11
2641.45587001
 21
-1778.47003838
 31
0.0
  0
LINE
  5
28E
100
AcDbEntity
  8
Sc.1_5
 62
     9
  6
CONTINUOUS
370
    -2
100
AcDbLine
 10
2646.67073518
 20
-1776.32083297
 30
0.0
 11
2646.07861962
 21
-1775.79655213
 31
0.0
  0
LINE
  5
28F
100
AcDbEntity
  8
Sc.1_5
 62
     9
  6
CONTINUOUS
370
    -2
100
AcDbLine
 10
2651.29348479
 20
-1773.64734672
 30
0.0
 11
2650.70136922
 21
-1773.12306588
 31
0.0
  0
LINE
  5
290
100
AcDbEntity
  8
Sc.1_5
 62
     9
  6
CONTINUOUS
370
    -2
100
AcDbLine
 10
2655.91623439
 20
-1770.97386047
 30
0.0
 11
2655.32411882
 21
-1770.44957963
 31
0.0
  0
LINE
  5
291
100
AcDbEntity
  8
Sc.1_5
 62
     9
  6
CONTINUOUS
370
    -2
100
AcDbLine
 10
2656.69434904
 20
-1756.81877421
 30
0.0
 11
2656.92600487
 21
-1757.34645094
 31
0.0
  0
LINE
  5
292
100
AcDbEntity
  8
Sc.1_5
 62
     9
  6
CONTINUOUS
370
    -2
100
AcDbLine
 10
2652.07160366
 20
-1759.49226587
 30
0.0
 11
2652.30325949
 21
-1760.01994259
 31
0.0
  0
LINE
  5
293
100
AcDbEntity
  8
Sc.1_5
 62
     9
  6
CONTINUOUS
370
    -2
100
AcDbLine
 10
2647.44885828
 20
-1762.16575752
 30
0.0
 11
2647.68051411
 21
-1762.69343425
 31
0.0
  0
LINE
  5
294
100
AcDbEntity
  8
Sc.1_5
 62
     9
  6
CONTINUOUS
370
    -2
100
AcDbLine
 10
2642.8261129
 20
-1764.83924918
 30
0.0
 11
2643.05776873
 21
-1765.36692591
 31
0.0
  0
LINE
  5
295
100
AcDbEntity
  8
Sc.1_5
 62
     9
  6
CONTINUOUS
370
    -2
100
AcDbLine
 10
2638.20336752
 20
-1767.51274083
 30
0.0
 11
2638.43502335
 21
-1768.04041756
 31
0.0
  0
LINE
  5
296
100
AcDbEntity
  8
Sc.1_5
 62
     9
  6
CONTINUOUS
370
    -2
100
AcDbLine
 10
2656.69434728
 20
-1756.81876769
 30
0.0
 11
2657.03618449
 21
-1757.28272294
 31
0.0
  0
LINE
  5
297
100
AcDbEntity
  8
Sc.1_5
 62
     9
  6
CONTINUOUS
370
    -2
100
AcDbLine
 10
2652.07159536
 20
-1759.49224805
 30
0.0
 11
2652.41343258
 21
-1759.9562033
 31
0.0
  0
LINE
  5
298
100
AcDbEntity
  8
Sc.1_5
 62
     9
  6
CONTINUOUS
370
    -2
100
AcDbLine
 10
2647.44884345
 20
-1762.16572841
 30
0.0
 11
2647.79068066
 21
-1762.62968365
 31
0.0
  0
LINE
  5
299
100
AcDbEntity
  8
Sc.1_5
 62
     9
  6
CONTINUOUS
370
    -2
100
AcDbLine
 10
2642.82609153
 20
-1764.83920876
 30
0.0
 11
2643.16792875
 21
-1765.30316401
 31
0.0
  0
LINE
  5
29A
100
AcDbEntity
  8
Sc.1_5
 62
     9
  6
CONTINUOUS
370
    -2
100
AcDbLine
 10
2638.20333961
 20
-1767.51268912
 30
0.0
 11
2638.54517683
 21
-1767.97664437
 31
0.0
  0
LINE
  5
29B
100
AcDbEntity
  8
Sc.1_5
 62
     9
  6
CONTINUOUS
370
    -2
100
AcDbLine
 10
2641.23897007
 20
-1778.09498781
 30
0.0
 11
2641.0073141
 21
-1777.56731115
 31
0.0
  0
LINE
  5
29C
100
AcDbEntity
  8
Sc.1_5
 62
     9
  6
CONTINUOUS
370
    -2
100
AcDbLine
 10
2645.86171474
 20
-1775.42149493
 30
0.0
 11
2645.63005877
 21
-1774.89381826
 31
0.0
  0
LINE
  5
29D
100
AcDbEntity
  8
Sc.1_5
 62
     9
  6
CONTINUOUS
370
    -2
100
AcDbLine
 10
2650.48445941
 20
-1772.74800204
 30
0.0
 11
2650.25280344
 21
-1772.22032537
 31
0.0
  0
LINE
  5
29E
100
AcDbEntity
  8
Sc.1_5
 62
     9
  6
CONTINUOUS
370
    -2
100
AcDbLine
 10
2655.10720408
 20
-1770.07450915
 30
0.0
 11
2654.87554811
 21
-1769.54683249
 31
0.0
  0
LINE
  5
29F
100
AcDbEntity
  8
Sc.1_5
 62
     9
  6
CONTINUOUS
370
    -2
100
AcDbLine
 10
2641.23893384
 20
-1778.09492517
 30
0.0
 11
2640.89709662
 21
-1777.63096992
 31
0.0
  0
LINE
  5
2A0
100
AcDbEntity
  8
Sc.1_5
 62
     9
  6
CONTINUOUS
370
    -2
100
AcDbLine
 10
2645.86168576
 20
-1775.42144481
 30
0.0
 11
2645.51984854
 21
-1774.95748956
 31
0.0
  0
LINE
  5
2A1
100
AcDbEntity
  8
Sc.1_5
 62
     9
  6
CONTINUOUS
370
    -2
100
AcDbLine
 10
2650.48443767
 20
-1772.74796445
 30
0.0
 11
2650.14260046
 21
-1772.2840092
 31
0.0
  0
LINE
  5
2A2
100
AcDbEntity
  8
Sc.1_5
 62
     9
  6
CONTINUOUS
370
    -2
100
AcDbLine
 10
2655.10718959
 20
-1770.07448409
 30
0.0
 11
2654.76535237
 21
-1769.61052884
 31
0.0
  0
ENDBLK
  5
2A3
100
AcDbEntity
100
AcDbBlockEnd
  0
BLOCK
  5
2A4
100
AcDbEntity
  8
Sc.1_5
100
AcDbBlockBegin
  2
*X2531
 70
     1
 10
0.0
 20
0.0
 30
0.0
  3
*X2531
  1

  4
Cadwork hatch
  0
LINE
  5
2A5
100
AcDbEntity
  8
Sc.1_5
 62
     9
  6
CONTINUOUS
370
    -2
100
AcDbLine
 10
2633.63835306
 20
-1785.55145105
 30
0.0
 11
2633.32908162
 21
-1785.730009
 31
0.0
  0
LINE
  5
2A6
100
AcDbEntity
  8
Sc.1_5
 62
     9
  6
CONTINUOUS
370
    -2
100
AcDbLine
 10
2631.6382217
 20
-1786.70622743
 30
0.0
 11
2631.01968002
 21
-1787.06334264
 31
0.0
  0
LINE
  5
2A7
100
AcDbEntity
  8
Sc.1_5
 62
     9
  6
CONTINUOUS
370
    -2
100
AcDbLine
 10
2629.32882011
 20
-1788.03956107
 30
0.0
 11
2628.71027843
 21
-1788.39667627
 31
0.0
  0
LINE
  5
2A8
100
AcDbEntity
  8
Sc.1_5
 62
     9
  6
CONTINUOUS
370
    -2
100
AcDbLine
 10
2627.01941851
 20
-1789.3728947
 30
0.0
 11
2626.40087684
 21
-1789.7300099
 31
0.0
  0
LINE
  5
2A9
100
AcDbEntity
  8
Sc.1_5
 62
     9
  6
CONTINUOUS
370
    -2
100
AcDbLine
 10
2624.71001692
 20
-1790.70622833
 30
0.0
 11
2624.09147525
 21
-1791.06334353
 31
0.0
  0
LINE
  5
2AA
100
AcDbEntity
  8
Sc.1_5
 62
     9
  6
CONTINUOUS
370
    -2
100
AcDbLine
 10
2622.40061533
 20
-1792.03956196
 30
0.0
 11
2621.78207365
 21
-1792.39667716
 31
0.0
  0
LINE
  5
2AB
100
AcDbEntity
  8
Sc.1_5
 62
     9
  6
CONTINUOUS
370
    -2
100
AcDbLine
 10
2620.09121373
 20
-1793.37289559
 30
0.0
 11
2619.47267206
 21
-1793.73001079
 31
0.0
  0
LINE
  5
2AC
100
AcDbEntity
  8
Sc.1_5
 62
     9
  6
CONTINUOUS
370
    -2
100
AcDbLine
 10
2617.78181214
 20
-1794.70622922
 30
0.0
 11
2617.16327047
 21
-1795.06334442
 31
0.0
  0
LINE
  5
2AD
100
AcDbEntity
  8
Sc.1_5
 62
     9
  6
CONTINUOUS
370
    -2
100
AcDbLine
 10
2615.47241055
 20
-1796.03956285
 30
0.0
 11
2614.85386887
 21
-1796.39667806
 31
0.0
  0
LINE
  5
2AE
100
AcDbEntity
  8
Sc.1_5
 62
     9
  6
CONTINUOUS
370
    -2
100
AcDbLine
 10
2613.16300896
 20
-1797.37289648
 30
0.0
 11
2612.54446728
 21
-1797.73001169
 31
0.0
  0
LINE
  5
2AF
100
AcDbEntity
  8
Sc.1_5
 62
     9
  6
CONTINUOUS
370
    -2
100
AcDbLine
 10
2610.85360736
 20
-1798.70623012
 30
0.0
 11
2610.23506569
 21
-1799.06334532
 31
0.0
  0
LINE
  5
2B0
100
AcDbEntity
  8
Sc.1_5
 62
     9
  6
CONTINUOUS
370
    -2
100
AcDbLine
 10
2608.54420577
 20
-1800.03956375
 30
0.0
 11
2607.92566409
 21
-1800.39667895
 31
0.0
  0
LINE
  5
2B1
100
AcDbEntity
  8
Sc.1_5
 62
     9
  6
CONTINUOUS
370
    -2
100
AcDbLine
 10
2606.23480418
 20
-1801.37289738
 30
0.0
 11
2605.6162625
 21
-1801.73001258
 31
0.0
  0
LINE
  5
2B2
100
AcDbEntity
  8
Sc.1_5
 62
     9
  6
CONTINUOUS
370
    -2
100
AcDbLine
 10
2603.92540258
 20
-1802.70623101
 30
0.0
 11
2603.30686091
 21
-1803.06334621
 31
0.0
  0
LINE
  5
2B3
100
AcDbEntity
  8
Sc.1_5
 62
     9
  6
CONTINUOUS
370
    -2
100
AcDbLine
 10
2601.61600099
 20
-1804.03956464
 30
0.0
 11
2600.99745932
 21
-1804.39667984
 31
0.0
  0
LINE
  5
2B4
100
AcDbEntity
  8
Sc.1_5
 62
     9
  6
CONTINUOUS
370
    -2
100
AcDbLine
 10
2599.3065994
 20
-1805.37289827
 30
0.0
 11
2598.68805772
 21
-1805.73001348
 31
0.0
  0
LINE
  5
2B5
100
AcDbEntity
  8
Sc.1_5
 62
     9
  6
CONTINUOUS
370
    -2
100
AcDbLine
 10
2596.9971978
 20
-1806.7062319
 30
0.0
 11
2596.37865613
 21
-1807.06334711
 31
0.0
  0
LINE
  5
2B6
100
AcDbEntity
  8
Sc.1_5
 62
     9
  6
CONTINUOUS
370
    -2
100
AcDbLine
 10
2594.68779621
 20
-1808.03956554
 30
0.0
 11
2594.06925454
 21
-1808.39668074
 31
0.0
  0
LINE
  5
2B7
100
AcDbEntity
  8
Sc.1_5
 62
     9
  6
CONTINUOUS
370
    -2
100
AcDbLine
 10
2592.37839462
 20
-1809.37289917
 30
0.0
 11
2591.75985294
 21
-1809.73001437
 31
0.0
  0
LINE
  5
2B8
100
AcDbEntity
  8
Sc.1_5
 62
     9
  6
CONTINUOUS
370
    -2
100
AcDbLine
 10
2590.06899303
 20
-1810.7062328
 30
0.0
 11
2589.45045135
 21
-1811.063348
 31
0.0
  0
LINE
  5
2B9
100
AcDbEntity
  8
Sc.1_5
 62
     9
  6
CONTINUOUS
370
    -2
100
AcDbLine
 10
2587.75959143
 20
-1812.03956643
 30
0.0
 11
2587.14104976
 21
-1812.39668163
 31
0.0
  0
LINE
  5
2BA
100
AcDbEntity
  8
Sc.1_5
 62
     9
  6
CONTINUOUS
370
    -2
100
AcDbLine
 10
2624.4459145
 20
-1774.96301624
 30
0.0
 11
2624.66228489
 21
-1775.33778076
 31
0.0
  0
LINE
  5
2BB
100
AcDbEntity
  8
Sc.1_5
 62
     9
  6
CONTINUOUS
370
    -2
100
AcDbLine
 10
2619.82711271
 20
-1777.6296827
 30
0.0
 11
2620.04348311
 21
-1778.00444721
 31
0.0
  0
LINE
  5
2BC
100
AcDbEntity
  8
Sc.1_5
 62
     9
  6
CONTINUOUS
370
    -2
100
AcDbLine
 10
2615.20831093
 20
-1780.29634915
 30
0.0
 11
2615.42468133
 21
-1780.67111367
 31
0.0
  0
LINE
  5
2BD
100
AcDbEntity
  8
Sc.1_5
 62
     9
  6
CONTINUOUS
370
    -2
100
AcDbLine
 10
2610.58950915
 20
-1782.9630156
 30
0.0
 11
2610.80587955
 21
-1783.33778012
 31
0.0
  0
LINE
  5
2BE
100
AcDbEntity
  8
Sc.1_5
 62
     9
  6
CONTINUOUS
370
    -2
100
AcDbLine
 10
2605.97070737
 20
-1785.62968205
 30
0.0
 11
2606.18707776
 21
-1786.00444657
 31
0.0
  0
LINE
  5
2BF
100
AcDbEntity
  8
Sc.1_5
 62
     9
  6
CONTINUOUS
370
    -2
100
AcDbLine
 10
2601.35190559
 20
-1788.2963485
 30
0.0
 11
2601.56827598
 21
-1788.67111302
 31
0.0
  0
LINE
  5
2C0
100
AcDbEntity
  8
Sc.1_5
 62
     9
  6
CONTINUOUS
370
    -2
100
AcDbLine
 10
2596.73310381
 20
-1790.96301496
 30
0.0
 11
2596.9494742
 21
-1791.33777947
 31
0.0
  0
LINE
  5
2C1
100
AcDbEntity
  8
Sc.1_5
 62
     9
  6
CONTINUOUS
370
    -2
100
AcDbLine
 10
2592.11430202
 20
-1793.62968141
 30
0.0
 11
2592.33067242
 21
-1794.00444593
 31
0.0
  0
LINE
  5
2C2
100
AcDbEntity
  8
Sc.1_5
 62
     9
  6
CONTINUOUS
370
    -2
100
AcDbLine
 10
2587.49550024
 20
-1796.29634786
 30
0.0
 11
2587.71187064
 21
-1796.67111238
 31
0.0
  0
LINE
  5
2C3
100
AcDbEntity
  8
Sc.1_5
 62
     9
  6
CONTINUOUS
370
    -2
100
AcDbLine
 10
2582.87669846
 20
-1798.96301431
 30
0.0
 11
2583.09306885
 21
-1799.33777883
 31
0.0
  0
LINE
  5
2C4
100
AcDbEntity
  8
Sc.1_5
 62
     9
  6
CONTINUOUS
370
    -2
100
AcDbLine
 10
2632.30501848
 20
-1783.24205122
 30
0.0
 11
2632.52138888
 21
-1783.61681574
 31
0.0
  0
LINE
  5
2C5
100
AcDbEntity
  8
Sc.1_5
 62
     9
  6
CONTINUOUS
370
    -2
100
AcDbLine
 10
2627.6862167
 20
-1785.90871767
 30
0.0
 11
2627.90258709
 21
-1786.28348219
 31
0.0
  0
LINE
  5
2C6
100
AcDbEntity
  8
Sc.1_5
 62
     9
  6
CONTINUOUS
370
    -2
100
AcDbLine
 10
2623.06741492
 20
-1788.57538412
 30
0.0
 11
2623.28378531
 21
-1788.95014864
 31
0.0
  0
LINE
  5
2C7
100
AcDbEntity
  8
Sc.1_5
 62
     9
  6
CONTINUOUS
370
    -2
100
AcDbLine
 10
2618.44861314
 20
-1791.24205057
 30
0.0
 11
2618.66498353
 21
-1791.61681509
 31
0.0
  0
LINE
  5
2C8
100
AcDbEntity
  8
Sc.1_5
 62
     9
  6
CONTINUOUS
370
    -2
100
AcDbLine
 10
2613.82981135
 20
-1793.90871703
 30
0.0
 11
2614.04618175
 21
-1794.28348154
 31
0.0
  0
LINE
  5
2C9
100
AcDbEntity
  8
Sc.1_5
 62
     9
  6
CONTINUOUS
370
    -2
100
AcDbLine
 10
2609.21100957
 20
-1796.57538348
 30
0.0
 11
2609.42737997
 21
-1796.950148
 31
0.0
  0
LINE
  5
2CA
100
AcDbEntity
  8
Sc.1_5
 62
     9
  6
CONTINUOUS
370
    -2
100
AcDbLine
 10
2604.59220779
 20
-1799.24204993
 30
0.0
 11
2604.80857819
 21
-1799.61681445
 31
0.0
  0
LINE
  5
2CB
100
AcDbEntity
  8
Sc.1_5
 62
     9
  6
CONTINUOUS
370
    -2
100
AcDbLine
 10
2599.97340601
 20
-1801.90871638
 30
0.0
 11
2600.1897764
 21
-1802.2834809
 31
0.0
  0
LINE
  5
2CC
100
AcDbEntity
  8
Sc.1_5
 62
     9
  6
CONTINUOUS
370
    -2
100
AcDbLine
 10
2595.35460423
 20
-1804.57538283
 30
0.0
 11
2595.57097462
 21
-1804.95014735
 31
0.0
  0
LINE
  5
2CD
100
AcDbEntity
  8
Sc.1_5
 62
     9
  6
CONTINUOUS
370
    -2
100
AcDbLine
 10
2590.73580244
 20
-1807.24204929
 30
0.0
 11
2590.95217284
 21
-1807.6168138
 31
0.0
  0
LINE
  5
2CE
100
AcDbEntity
  8
Sc.1_5
 62
     9
  6
CONTINUOUS
370
    -2
100
AcDbLine
 10
2586.11700066
 20
-1809.90871574
 30
0.0
 11
2586.33337106
 21
-1810.28348026
 31
0.0
  0
LINE
  5
2CF
100
AcDbEntity
  8
Sc.1_5
 62
     9
  6
CONTINUOUS
370
    -2
100
AcDbLine
 10
2625.00334376
 20
-1775.80139223
 30
0.0
 11
2631.96396063
 21
-1782.77843764
 31
0.0
  0
LINE
  5
2D0
100
AcDbEntity
  8
Sc.1_5
 62
     9
  6
CONTINUOUS
370
    -2
100
AcDbLine
 10
2620.38453835
 20
-1778.46805021
 30
0.0
 11
2627.34515522
 21
-1785.44509562
 31
0.0
  0
LINE
  5
2D1
100
AcDbEntity
  8
Sc.1_5
 62
     9
  6
CONTINUOUS
370
    -2
100
AcDbLine
 10
2615.76573293
 20
-1781.1347082
 30
0.0
 11
2622.7263498
 21
-1788.11175361
 31
0.0
  0
LINE
  5
2D2
100
AcDbEntity
  8
Sc.1_5
 62
     9
  6
CONTINUOUS
370
    -2
100
AcDbLine
 10
2611.14692752
 20
-1783.80136619
 30
0.0
 11
2618.10754439
 21
-1790.7784116
 31
0.0
  0
LINE
  5
2D3
100
AcDbEntity
  8
Sc.1_5
 62
     9
  6
CONTINUOUS
370
    -2
100
AcDbLine
 10
2606.5281221
 20
-1786.46802418
 30
0.0
 11
2613.48873897
 21
-1793.44506959
 31
0.0
  0
LINE
  5
2D4
100
AcDbEntity
  8
Sc.1_5
 62
     9
  6
CONTINUOUS
370
    -2
100
AcDbLine
 10
2601.90931669
 20
-1789.13468217
 30
0.0
 11
2608.86993356
 21
-1796.11172758
 31
0.0
  0
LINE
  5
2D5
100
AcDbEntity
  8
Sc.1_5
 62
     9
  6
CONTINUOUS
370
    -2
100
AcDbLine
 10
2597.29051127
 20
-1791.80134015
 30
0.0
 11
2604.25112814
 21
-1798.77838556
 31
0.0
  0
LINE
  5
2D6
100
AcDbEntity
  8
Sc.1_5
 62
     9
  6
CONTINUOUS
370
    -2
100
AcDbLine
 10
2592.67170586
 20
-1794.46799814
 30
0.0
 11
2599.63232273
 21
-1801.44504355
 31
0.0
  0
LINE
  5
2D7
100
AcDbEntity
  8
Sc.1_5
 62
     9
  6
CONTINUOUS
370
    -2
100
AcDbLine
 10
2588.05290044
 20
-1797.13465613
 30
0.0
 11
2595.01351731
 21
-1804.11170154
 31
0.0
  0
LINE
  5
2D8
100
AcDbEntity
  8
Sc.1_5
 62
     9
  6
CONTINUOUS
370
    -2
100
AcDbLine
 10
2583.43409503
 20
-1799.80131412
 30
0.0
 11
2590.39471189
 21
-1806.77835953
 31
0.0
  0
LINE
  5
2D9
100
AcDbEntity
  8
Sc.1_5
 62
     9
  6
CONTINUOUS
370
    -2
100
AcDbLine
 10
2584.6958711
 20
-1808.36243302
 30
0.0
 11
2585.77590648
 21
-1809.44501752
 31
0.0
  0
LINE
  5
2DA
100
AcDbEntity
  8
Sc.1_5
 62
     9
  6
CONTINUOUS
370
    -2
100
AcDbLine
 10
2624.89325608
 20
-1775.86495138
 30
0.0
 11
2627.45524622
 21
-1785.38154512
 31
0.0
  0
LINE
  5
2DB
100
AcDbEntity
  8
Sc.1_5
 62
     9
  6
CONTINUOUS
370
    -2
100
AcDbLine
 10
2620.27445981
 20
-1778.53162521
 30
0.0
 11
2622.83644995
 21
-1788.04821895
 31
0.0
  0
LINE
  5
2DC
100
AcDbEntity
  8
Sc.1_5
 62
     9
  6
CONTINUOUS
370
    -2
100
AcDbLine
 10
2615.65566355
 20
-1781.19829904
 30
0.0
 11
2618.21765368
 21
-1790.71489278
 31
0.0
  0
LINE
  5
2DD
100
AcDbEntity
  8
Sc.1_5
 62
     9
  6
CONTINUOUS
370
    -2
100
AcDbLine
 10
2611.03686728
 20
-1783.86497287
 30
0.0
 11
2613.59885741
 21
-1793.38156661
 31
0.0
  0
LINE
  5
2DE
100
AcDbEntity
  8
Sc.1_5
 62
     9
  6
CONTINUOUS
370
    -2
100
AcDbLine
 10
2606.41807101
 20
-1786.5316467
 30
0.0
 11
2608.98006114
 21
-1796.04824044
 31
0.0
  0
LINE
  5
2DF
100
AcDbEntity
  8
Sc.1_5
 62
     9
  6
CONTINUOUS
370
    -2
100
AcDbLine
 10
2601.79927474
 20
-1789.19832053
 30
0.0
 11
2604.36126487
 21
-1798.71491427
 31
0.0
  0
LINE
  5
2E0
100
AcDbEntity
  8
Sc.1_5
 62
     9
  6
CONTINUOUS
370
    -2
100
AcDbLine
 10
2597.18047847
 20
-1791.86499436
 30
0.0
 11
2599.74246861
 21
-1801.3815881
 31
0.0
  0
LINE
  5
2E1
100
AcDbEntity
  8
Sc.1_5
 62
     9
  6
CONTINUOUS
370
    -2
100
AcDbLine
 10
2592.5616822
 20
-1794.53166819
 30
0.0
 11
2595.12367234
 21
-1804.04826193
 31
0.0
  0
LINE
  5
2E2
100
AcDbEntity
  8
Sc.1_5
 62
     9
  6
CONTINUOUS
370
    -2
100
AcDbLine
 10
2587.94288594
 20
-1797.19834202
 30
0.0
 11
2590.50487607
 21
-1806.71493576
 31
0.0
  0
LINE
  5
2E3
100
AcDbEntity
  8
Sc.1_5
 62
     9
  6
CONTINUOUS
370
    -2
100
AcDbLine
 10
2583.32408967
 20
-1799.86501585
 30
0.0
 11
2585.8860798
 21
-1809.38160959
 31
0.0
  0
LINE
  5
2E4
100
AcDbEntity
  8
Sc.1_5
 62
     9
  6
CONTINUOUS
370
    -2
100
AcDbLine
 10
2625.329082
 20
-1771.8736032
 30
0.0
 11
2624.81881195
 21
-1772.38843774
 31
0.0
  0
LINE
  5
2E5
100
AcDbEntity
  8
Sc.1_5
 62
     9
  6
CONTINUOUS
370
    -2
100
AcDbLine
 10
2620.71027991
 20
-1774.54026983
 30
0.0
 11
2620.20001024
 21
-1775.05510398
 31
0.0
  0
LINE
  5
2E6
100
AcDbEntity
  8
Sc.1_5
 62
     9
  6
CONTINUOUS
370
    -2
100
AcDbLine
 10
2616.09147782
 20
-1777.20693646
 30
0.0
 11
2615.58120853
 21
-1777.72177023
 31
0.0
  0
LINE
  5
2E7
100
AcDbEntity
  8
Sc.1_5
 62
     9
  6
CONTINUOUS
370
    -2
100
AcDbLine
 10
2611.47267573
 20
-1779.8736031
 30
0.0
 11
2610.96240682
 21
-1780.38843647
 31
0.0
  0
LINE
  5
2E8
100
AcDbEntity
  8
Sc.1_5
 62
     9
  6
CONTINUOUS
370
    -2
100
AcDbLine
 10
2606.85387363
 20
-1782.54026973
 30
0.0
 11
2606.34360511
 21
-1783.05510272
 31
0.0
  0
LINE
  5
2E9
100
AcDbEntity
  8
Sc.1_5
 62
     9
  6
CONTINUOUS
370
    -2
100
AcDbLine
 10
2602.23507154
 20
-1785.20693636
 30
0.0
 11
2601.72480341
 21
-1785.72176896
 31
0.0
  0
LINE
  5
2EA
100
AcDbEntity
  8
Sc.1_5
 62
     9
  6
CONTINUOUS
370
    -2
100
AcDbLine
 10
2597.61626945
 20
-1787.87360299
 30
0.0
 11
2597.1060017
 21
-1788.38843521
 31
0.0
  0
LINE
  5
2EB
100
AcDbEntity
  8
Sc.1_5
 62
     9
  6
CONTINUOUS
370
    -2
100
AcDbLine
 10
2592.99746736
 20
-1790.54026962
 30
0.0
 11
2592.48719999
 21
-1791.05510145
 31
0.0
  0
LINE
  5
2EC
100
AcDbEntity
  8
Sc.1_5
 62
     9
  6
CONTINUOUS
370
    -2
100
AcDbLine
 10
2588.37866527
 20
-1793.20693625
 30
0.0
 11
2587.86839828
 21
-1793.7217677
 31
0.0
  0
LINE
  5
2ED
100
AcDbEntity
  8
Sc.1_5
 62
     9
  6
CONTINUOUS
370
    -2
100
AcDbLine
 10
2583.75986318
 20
-1795.87360288
 30
0.0
 11
2583.24959657
 21
-1796.38843394
 31
0.0
  0
LINE
  5
2EE
100
AcDbEntity
  8
Sc.1_5
 62
     9
  6
CONTINUOUS
370
    -2
100
AcDbLine
 10
2579.14106109
 20
-1798.54026951
 30
0.0
 11
2579.06774779
 21
-1798.61423862
 31
0.0
  0
LINE
  5
2EF
100
AcDbEntity
  8
Sc.1_5
 62
     9
  6
CONTINUOUS
370
    -2
100
AcDbLine
 10
2621.32882246
 20
-1774.18315511
 30
0.0
 11
2622.02981725
 21
-1773.99866546
 31
0.0
  0
LINE
  5
2F0
100
AcDbEntity
  8
Sc.1_5
 62
     9
  6
CONTINUOUS
370
    -2
100
AcDbLine
 10
2616.71002125
 20
-1776.84982222
 30
0.0
 11
2617.41101604
 21
-1776.66533256
 31
0.0
  0
LINE
  5
2F1
100
AcDbEntity
  8
Sc.1_5
 62
     9
  6
CONTINUOUS
370
    -2
100
AcDbLine
 10
2612.09122004
 20
-1779.51648932
 30
0.0
 11
2612.79221483
 21
-1779.33199967
 31
0.0
  0
LINE
  5
2F2
100
AcDbEntity
  8
Sc.1_5
 62
     9
  6
CONTINUOUS
370
    -2
100
AcDbLine
 10
2607.47241883
 20
-1782.18315643
 30
0.0
 11
2608.17341362
 21
-1781.99866678
 31
0.0
  0
LINE
  5
2F3
100
AcDbEntity
  8
Sc.1_5
 62
     9
  6
CONTINUOUS
370
    -2
100
AcDbLine
 10
2602.85361762
 20
-1784.84982354
 30
0.0
 11
2603.55461241
 21
-1784.66533389
 31
0.0
  0
LINE
  5
2F4
100
AcDbEntity
  8
Sc.1_5
 62
     9
  6
CONTINUOUS
370
    -2
100
AcDbLine
 10
2598.23481641
 20
-1787.51649064
 30
0.0
 11
2598.9358112
 21
-1787.33200099
 31
0.0
  0
LINE
  5
2F5
100
AcDbEntity
  8
Sc.1_5
 62
     9
  6
CONTINUOUS
370
    -2
100
AcDbLine
 10
2593.6160152
 20
-1790.18315775
 30
0.0
 11
2594.31700999
 21
-1789.9986681
 31
0.0
  0
LINE
  5
2F6
100
AcDbEntity
  8
Sc.1_5
 62
     9
  6
CONTINUOUS
370
    -2
100
AcDbLine
 10
2588.99721399
 20
-1792.84982486
 30
0.0
 11
2589.69820878
 21
-1792.66533521
 31
0.0
  0
LINE
  5
2F7
100
AcDbEntity
  8
Sc.1_5
 62
     9
  6
CONTINUOUS
370
    -2
100
AcDbLine
 10
2584.37841278
 20
-1795.51649197
 30
0.0
 11
2585.07940757
 21
-1795.33200231
 31
0.0
  0
LINE
  5
2F8
100
AcDbEntity
  8
Sc.1_5
 62
     9
  6
CONTINUOUS
370
    -2
100
AcDbLine
 10
2579.75961157
 20
-1798.18315907
 30
0.0
 11
2580.46060636
 21
-1797.99866942
 31
0.0
  0
LINE
  5
2F9
100
AcDbEntity
  8
Sc.1_5
 62
     9
  6
CONTINUOUS
370
    -2
100
AcDbLine
 10
2632.14849318
 20
-1786.19139389
 30
0.0
 11
2631.63822444
 21
-1786.7062271
 31
0.0
  0
LINE
  5
2FA
100
AcDbEntity
  8
Sc.1_5
 62
     9
  6
CONTINUOUS
370
    -2
100
AcDbLine
 10
2627.52969147
 20
-1788.85806014
 30
0.0
 11
2627.01942235
 21
-1789.37289373
 31
0.0
  0
LINE
  5
2FB
100
AcDbEntity
  8
Sc.1_5
 62
     9
  6
CONTINUOUS
370
    -2
100
AcDbLine
 10
2622.91088976
 20
-1791.52472638
 30
0.0
 11
2622.40062026
 21
-1792.03956036
 31
0.0
  0
LINE
  5
2FC
100
AcDbEntity
  8
Sc.1_5
 62
     9
  6
CONTINUOUS
370
    -2
100
AcDbLine
 10
2618.29208805
 20
-1794.19139263
 30
0.0
 11
2617.78181817
 21
-1794.70622699
 31
0.0
  0
LINE
  5
2FD
100
AcDbEntity
  8
Sc.1_5
 62
     9
  6
CONTINUOUS
370
    -2
100
AcDbLine
 10
2613.67328634
 20
-1796.85805887
 30
0.0
 11
2613.16301629
 21
-1797.37289341
 31
0.0
  0
LINE
  5
2FE
100
AcDbEntity
  8
Sc.1_5
 62
     9
  6
CONTINUOUS
370
    -2
100
AcDbLine
 10
2609.05448464
 20
-1799.52472512
 30
0.0
 11
2608.54421458
 21
-1800.03955965
 31
0.0
  0
LINE
  5
2FF
100
AcDbEntity
  8
Sc.1_5
 62
     9
  6
CONTINUOUS
370
    -2
100
AcDbLine
 10
2604.43568293
 20
-1802.19139136
 30
0.0
 11
2603.92541288
 21
-1802.7062259
 31
0.0
  0
LINE
  5
300
100
AcDbEntity
  8
Sc.1_5
 62
     9
  6
CONTINUOUS
370
    -2
100
AcDbLine
 10
2599.81688122
 20
-1804.85805761
 30
0.0
 11
2599.30661117
 21
-1805.37289214
 31
0.0
  0
LINE
  5
301
100
AcDbEntity
  8
Sc.1_5
 62
     9
  6
CONTINUOUS
370
    -2
100
AcDbLine
 10
2595.19807951
 20
-1807.52472385
 30
0.0
 11
2594.68780946
 21
-1808.03955839
 31
0.0
  0
LINE
  5
302
100
AcDbEntity
  8
Sc.1_5
 62
     9
  6
CONTINUOUS
370
    -2
100
AcDbLine
 10
2590.5792778
 20
-1810.1913901
 30
0.0
 11
2590.06900775
 21
-1810.70622463
 31
0.0
  0
LINE
  5
303
100
AcDbEntity
  8
Sc.1_5
 62
     9
  6
CONTINUOUS
370
    -2
100
AcDbLine
 10
2589.4504634
 20
-1811.0633423
 30
0.0
 11
2588.74947301
 21
-1811.24783069
 31
0.0
  0
LINE
  5
304
100
AcDbEntity
  8
Sc.1_5
 62
     9
  6
CONTINUOUS
370
    -2
100
AcDbLine
 10
2594.06926549
 20
-1808.39667567
 30
0.0
 11
2593.36827457
 21
-1808.5811642
 31
0.0
  0
LINE
  5
305
100
AcDbEntity
  8
Sc.1_5
 62
     9
  6
CONTINUOUS
370
    -2
100
AcDbLine
 10
2598.68806758
 20
-1805.73000904
 30
0.0
 11
2597.98707614
 21
-1805.91449771
 31
0.0
  0
LINE
  5
306
100
AcDbEntity
  8
Sc.1_5
 62
     9
  6
CONTINUOUS
370
    -2
100
AcDbLine
 10
2603.30686967
 20
-1803.06334241
 30
0.0
 11
2602.6058777
 21
-1803.24783122
 31
0.0
  0
LINE
  5
307
100
AcDbEntity
  8
Sc.1_5
 62
     9
  6
CONTINUOUS
370
    -2
100
AcDbLine
 10
2607.92567176
 20
-1800.39667578
 30
0.0
 11
2607.22467927
 21
-1800.58116472
 31
0.0
  0
LINE
  5
308
100
AcDbEntity
  8
Sc.1_5
 62
     9
  6
CONTINUOUS
370
    -2
100
AcDbLine
 10
2612.54447385
 20
-1797.73000914
 30
0.0
 11
2611.84348083
 21
-1797.91449823
 31
0.0
  0
LINE
  5
309
100
AcDbEntity
  8
Sc.1_5
 62
     9
  6
CONTINUOUS
370
    -2
100
AcDbLine
 10
2617.16327594
 20
-1795.06334251
 30
0.0
 11
2616.4622824
 21
-1795.24783174
 31
0.0
  0
LINE
  5
30A
100
AcDbEntity
  8
Sc.1_5
 62
     9
  6
CONTINUOUS
370
    -2
100
AcDbLine
 10
2621.78207803
 20
-1792.39667588
 30
0.0
 11
2621.08108396
 21
-1792.58116525
 31
0.0
  0
LINE
  5
30B
100
AcDbEntity
  8
Sc.1_5
 62
     9
  6
CONTINUOUS
370
    -2
100
AcDbLine
 10
2626.40088012
 20
-1789.73000925
 30
0.0
 11
2625.69988553
 21
-1789.91449875
 31
0.0
  0
LINE
  5
30C
100
AcDbEntity
  8
Sc.1_5
 62
     9
  6
CONTINUOUS
370
    -2
100
AcDbLine
 10
2631.01968191
 20
-1787.0633427
 30
0.0
 11
2630.3186871
 21
-1787.24783226
 31
0.0
  0
LINE
  5
30D
100
AcDbEntity
  8
Sc.1_5
 62
     9
  6
CONTINUOUS
370
    -2
100
AcDbLine
 10
2624.81881269
 20
-1772.38843736
 30
0.0
 11
2624.48081615
 21
-1772.99729064
 31
0.0
  0
LINE
  5
30E
100
AcDbEntity
  8
Sc.1_5
 62
     9
  6
CONTINUOUS
370
    -2
100
AcDbLine
 10
2620.20001013
 20
-1775.0551043
 30
0.0
 11
2619.86201359
 21
-1775.66395759
 31
0.0
  0
LINE
  5
30F
100
AcDbEntity
  8
Sc.1_5
 62
     9
  6
CONTINUOUS
370
    -2
100
AcDbLine
 10
2615.58120757
 20
-1777.72177125
 30
0.0
 11
2615.24321103
 21
-1778.33062453
 31
0.0
  0
LINE
  5
310
100
AcDbEntity
  8
Sc.1_5
 62
     9
  6
CONTINUOUS
370
    -2
100
AcDbLine
 10
2610.96240501
 20
-1780.38843819
 30
0.0
 11
2610.62440846
 21
-1780.99729147
 31
0.0
  0
LINE
  5
311
100
AcDbEntity
  8
Sc.1_5
 62
     9
  6
CONTINUOUS
370
    -2
100
AcDbLine
 10
2606.34360244
 20
-1783.05510513
 30
0.0
 11
2606.0056059
 21
-1783.66395842
 31
0.0
  0
LINE
  5
312
100
AcDbEntity
  8
Sc.1_5
 62
     9
  6
CONTINUOUS
370
    -2
100
AcDbLine
 10
2601.72479988
 20
-1785.72177208
 30
0.0
 11
2601.38680334
 21
-1786.33062536
 31
0.0
  0
LINE
  5
313
100
AcDbEntity
  8
Sc.1_5
 62
     9
  6
CONTINUOUS
370
    -2
100
AcDbLine
 10
2597.10599732
 20
-1788.38843902
 30
0.0
 11
2596.76800078
 21
-1788.99729231
 31
0.0
  0
LINE
  5
314
100
AcDbEntity
  8
Sc.1_5
 62
     9
  6
CONTINUOUS
370
    -2
100
AcDbLine
 10
2592.48719476
 20
-1791.05510596
 30
0.0
 11
2592.14919822
 21
-1791.66395925
 31
0.0
  0
LINE
  5
315
100
AcDbEntity
  8
Sc.1_5
 62
     9
  6
CONTINUOUS
370
    -2
100
AcDbLine
 10
2587.86839219
 20
-1793.72177291
 30
0.0
 11
2587.53039565
 21
-1794.33062619
 31
0.0
  0
LINE
  5
316
100
AcDbEntity
  8
Sc.1_5
 62
     9
  6
CONTINUOUS
370
    -2
100
AcDbLine
 10
2583.24958963
 20
-1796.38843985
 30
0.0
 11
2582.91159309
 21
-1796.99729314
 31
0.0
  0
LINE
  5
317
100
AcDbEntity
  8
Sc.1_5
 62
     9
  6
CONTINUOUS
370
    -2
100
AcDbLine
 10
2622.03323195
 20
-1773.9966927
 30
0.0
 11
2622.72951263
 21
-1774.0084058
 31
0.0
  0
LINE
  5
318
100
AcDbEntity
  8
Sc.1_5
 62
     9
  6
CONTINUOUS
370
    -2
100
AcDbLine
 10
2617.41442917
 20
-1776.66335928
 30
0.0
 11
2618.11070985
 21
-1776.67507237
 31
0.0
  0
LINE
  5
319
100
AcDbEntity
  8
Sc.1_5
 62
     9
  6
CONTINUOUS
370
    -2
100
AcDbLine
 10
2612.7956264
 20
-1779.33002585
 30
0.0
 11
2613.49190708
 21
-1779.34173895
 31
0.0
  0
LINE
  5
31A
100
AcDbEntity
  8
Sc.1_5
 62
     9
  6
CONTINUOUS
370
    -2
100
AcDbLine
 10
2608.17682362
 20
-1781.99669243
 30
0.0
 11
2608.8731043
 21
-1782.00840552
 31
0.0
  0
LINE
  5
31B
100
AcDbEntity
  8
Sc.1_5
 62
     9
  6
CONTINUOUS
370
    -2
100
AcDbLine
 10
2603.55802085
 20
-1784.663359
 30
0.0
 11
2604.25430153
 21
-1784.6750721
 31
0.0
  0
LINE
  5
31C
100
AcDbEntity
  8
Sc.1_5
 62
     9
  6
CONTINUOUS
370
    -2
100
AcDbLine
 10
2598.93921807
 20
-1787.33002558
 30
0.0
 11
2599.63549875
 21
-1787.34173867
 31
0.0
  0
LINE
  5
31D
100
AcDbEntity
  8
Sc.1_5
 62
     9
  6
CONTINUOUS
370
    -2
100
AcDbLine
 10
2594.3204153
 20
-1789.99669215
 30
0.0
 11
2595.01669598
 21
-1790.00840525
 31
0.0
  0
LINE
  5
31E
100
AcDbEntity
  8
Sc.1_5
 62
     9
  6
CONTINUOUS
370
    -2
100
AcDbLine
 10
2589.70161252
 20
-1792.66335872
 30
0.0
 11
2590.3978932
 21
-1792.67507182
 31
0.0
  0
LINE
  5
31F
100
AcDbEntity
  8
Sc.1_5
 62
     9
  6
CONTINUOUS
370
    -2
100
AcDbLine
 10
2585.08280975
 20
-1795.3300253
 30
0.0
 11
2585.77909043
 21
-1795.3417384
 31
0.0
  0
LINE
  5
320
100
AcDbEntity
  8
Sc.1_5
 62
     9
  6
CONTINUOUS
370
    -2
100
AcDbLine
 10
2580.46400697
 20
-1797.99669187
 30
0.0
 11
2581.16028765
 21
-1798.00840497
 31
0.0
  0
LINE
  5
321
100
AcDbEntity
  8
Sc.1_5
 62
     9
  6
CONTINUOUS
370
    -2
100
AcDbLine
 10
2632.48648811
 20
-1785.58253994
 30
0.0
 11
2632.14849157
 21
-1786.19139322
 31
0.0
  0
LINE
  5
322
100
AcDbEntity
  8
Sc.1_5
 62
     9
  6
CONTINUOUS
370
    -2
100
AcDbLine
 10
2627.86768555
 20
-1788.24920688
 30
0.0
 11
2627.52968901
 21
-1788.85806016
 31
0.0
  0
LINE
  5
323
100
AcDbEntity
  8
Sc.1_5
 62
     9
  6
CONTINUOUS
370
    -2
100
AcDbLine
 10
2623.24888299
 20
-1790.91587382
 30
0.0
 11
2622.91088644
 21
-1791.52472711
 31
0.0
  0
LINE
  5
324
100
AcDbEntity
  8
Sc.1_5
 62
     9
  6
CONTINUOUS
370
    -2
100
AcDbLine
 10
2618.63008042
 20
-1793.58254077
 30
0.0
 11
2618.29208388
 21
-1794.19139405
 31
0.0
  0
LINE
  5
325
100
AcDbEntity
  8
Sc.1_5
 62
     9
  6
CONTINUOUS
370
    -2
100
AcDbLine
 10
2614.01127786
 20
-1796.24920771
 30
0.0
 11
2613.67328132
 21
-1796.858061
 31
0.0
  0
LINE
  5
326
100
AcDbEntity
  8
Sc.1_5
 62
     9
  6
CONTINUOUS
370
    -2
100
AcDbLine
 10
2609.3924753
 20
-1798.91587465
 30
0.0
 11
2609.05447876
 21
-1799.52472794
 31
0.0
  0
LINE
  5
327
100
AcDbEntity
  8
Sc.1_5
 62
     9
  6
CONTINUOUS
370
    -2
100
AcDbLine
 10
2604.77367274
 20
-1801.5825416
 30
0.0
 11
2604.4356762
 21
-1802.19139488
 31
0.0
  0
LINE
  5
328
100
AcDbEntity
  8
Sc.1_5
 62
     9
  6
CONTINUOUS
370
    -2
100
AcDbLine
 10
2600.15487017
 20
-1804.24920854
 30
0.0
 11
2599.81687363
 21
-1804.85806183
 31
0.0
  0
LINE
  5
329
100
AcDbEntity
  8
Sc.1_5
 62
     9
  6
CONTINUOUS
370
    -2
100
AcDbLine
 10
2595.53606761
 20
-1806.91587549
 30
0.0
 11
2595.19807107
 21
-1807.52472877
 31
0.0
  0
LINE
  5
32A
100
AcDbEntity
  8
Sc.1_5
 62
     9
  6
CONTINUOUS
370
    -2
100
AcDbLine
 10
2590.91726505
 20
-1809.58254243
 30
0.0
 11
2590.57926851
 21
-1810.19139571
 31
0.0
  0
LINE
  5
32B
100
AcDbEntity
  8
Sc.1_5
 62
     9
  6
CONTINUOUS
370
    -2
100
AcDbLine
 10
2588.74946339
 20
-1811.24783506
 30
0.0
 11
2588.0531827
 21
-1811.23612201
 31
0.0
  0
LINE
  5
32C
100
AcDbEntity
  8
Sc.1_5
 62
     9
  6
CONTINUOUS
370
    -2
100
AcDbLine
 10
2593.36826598
 20
-1808.58116818
 30
0.0
 11
2592.6719853
 21
-1808.56945513
 31
0.0
  0
LINE
  5
32D
100
AcDbEntity
  8
Sc.1_5
 62
     9
  6
CONTINUOUS
370
    -2
100
AcDbLine
 10
2597.98706858
 20
-1805.91450129
 30
0.0
 11
2597.2907879
 21
-1805.90278824
 31
0.0
  0
LINE
  5
32E
100
AcDbEntity
  8
Sc.1_5
 62
     9
  6
CONTINUOUS
370
    -2
100
AcDbLine
 10
2602.60587118
 20
-1803.24783441
 30
0.0
 11
2601.9095905
 21
-1803.23612136
 31
0.0
  0
LINE
  5
32F
100
AcDbEntity
  8
Sc.1_5
 62
     9
  6
CONTINUOUS
370
    -2
100
AcDbLine
 10
2607.22467378
 20
-1800.58116753
 30
0.0
 11
2606.52839309
 21
-1800.56945448
 31
0.0
  0
LINE
  5
330
100
AcDbEntity
  8
Sc.1_5
 62
     9
  6
CONTINUOUS
370
    -2
100
AcDbLine
 10
2611.84347637
 20
-1797.91450065
 30
0.0
 11
2611.14719569
 21
-1797.9027876
 31
0.0
  0
LINE
  5
331
100
AcDbEntity
  8
Sc.1_5
 62
     9
  6
CONTINUOUS
370
    -2
100
AcDbLine
 10
2616.46227897
 20
-1795.24783377
 30
0.0
 11
2615.76599829
 21
-1795.23612071
 31
0.0
  0
LINE
  5
332
100
AcDbEntity
  8
Sc.1_5
 62
     9
  6
CONTINUOUS
370
    -2
100
AcDbLine
 10
2621.08108157
 20
-1792.58116688
 30
0.0
 11
2620.38480089
 21
-1792.56945383
 31
0.0
  0
LINE
  5
333
100
AcDbEntity
  8
Sc.1_5
 62
     9
  6
CONTINUOUS
370
    -2
100
AcDbLine
 10
2625.69988417
 20
-1789.9145
 30
0.0
 11
2625.00360349
 21
-1789.90278695
 31
0.0
  0
LINE
  5
334
100
AcDbEntity
  8
Sc.1_5
 62
     9
  6
CONTINUOUS
370
    -2
100
AcDbLine
 10
2630.31868677
 20
-1787.24783312
 30
0.0
 11
2629.62240608
 21
-1787.23612007
 31
0.0
  0
LINE
  5
335
100
AcDbEntity
  8
Sc.1_5
 62
     9
  6
CONTINUOUS
370
    -2
100
AcDbLine
 10
2624.4808174
 20
-1772.9972907
 30
0.0
 11
2624.32754311
 21
-1773.56931815
 31
0.0
  0
LINE
  5
336
100
AcDbEntity
  8
Sc.1_5
 62
     9
  6
CONTINUOUS
370
    -2
100
AcDbLine
 10
2619.8620144
 20
-1775.66395785
 30
0.0
 11
2619.70874011
 21
-1776.2359853
 31
0.0
  0
LINE
  5
337
100
AcDbEntity
  8
Sc.1_5
 62
     9
  6
CONTINUOUS
370
    -2
100
AcDbLine
 10
2615.2432114
 20
-1778.33062501
 30
0.0
 11
2615.08993711
 21
-1778.90265246
 31
0.0
  0
LINE
  5
338
100
AcDbEntity
  8
Sc.1_5
 62
     9
  6
CONTINUOUS
370
    -2
100
AcDbLine
 10
2610.6244084
 20
-1780.99729216
 30
0.0
 11
2610.47113411
 21
-1781.56931961
 31
0.0
  0
LINE
  5
339
100
AcDbEntity
  8
Sc.1_5
 62
     9
  6
CONTINUOUS
370
    -2
100
AcDbLine
 10
2606.0056054
 20
-1783.66395932
 30
0.0
 11
2605.85233111
 21
-1784.23598677
 31
0.0
  0
LINE
  5
33A
100
AcDbEntity
  8
Sc.1_5
 62
     9
  6
CONTINUOUS
370
    -2
100
AcDbLine
 10
2601.3868024
 20
-1786.33062647
 30
0.0
 11
2601.23352811
 21
-1786.90265392
 31
0.0
  0
LINE
  5
33B
100
AcDbEntity
  8
Sc.1_5
 62
     9
  6
CONTINUOUS
370
    -2
100
AcDbLine
 10
2596.7679994
 20
-1788.99729363
 30
0.0
 11
2596.61472511
 21
-1789.56932108
 31
0.0
  0
LINE
  5
33C
100
AcDbEntity
  8
Sc.1_5
 62
     9
  6
CONTINUOUS
370
    -2
100
AcDbLine
 10
2592.1491964
 20
-1791.66396078
 30
0.0
 11
2591.99592211
 21
-1792.23598823
 31
0.0
  0
LINE
  5
33D
100
AcDbEntity
  8
Sc.1_5
 62
     9
  6
CONTINUOUS
370
    -2
100
AcDbLine
 10
2587.5303934
 20
-1794.33062794
 30
0.0
 11
2587.37711911
 21
-1794.90265539
 31
0.0
  0
LINE
  5
33E
100
AcDbEntity
  8
Sc.1_5
 62
     9
  6
CONTINUOUS
370
    -2
100
AcDbLine
 10
2582.9115904
 20
-1796.9972951
 30
0.0
 11
2582.75831611
 21
-1797.56932254
 31
0.0
  0
LINE
  5
33F
100
AcDbEntity
  8
Sc.1_5
 62
     9
  6
CONTINUOUS
370
    -2
100
AcDbLine
 10
2622.72609489
 20
-1774.01038021
 30
0.0
 11
2623.29812233
 21
-1774.16365451
 31
0.0
  0
LINE
  5
340
100
AcDbEntity
  8
Sc.1_5
 62
     9
  6
CONTINUOUS
370
    -2
100
AcDbLine
 10
2618.10729189
 20
-1776.67704737
 30
0.0
 11
2618.67931933
 21
-1776.83032166
 31
0.0
  0
LINE
  5
341
100
AcDbEntity
  8
Sc.1_5
 62
     9
  6
CONTINUOUS
370
    -2
100
AcDbLine
 10
2613.48848889
 20
-1779.34371452
 30
0.0
 11
2614.06051633
 21
-1779.49698882
 31
0.0
  0
LINE
  5
342
100
AcDbEntity
  8
Sc.1_5
 62
     9
  6
CONTINUOUS
370
    -2
100
AcDbLine
 10
2608.86968589
 20
-1782.01038168
 30
0.0
 11
2609.44171333
 21
-1782.16365597
 31
0.0
  0
LINE
  5
343
100
AcDbEntity
  8
Sc.1_5
 62
     9
  6
CONTINUOUS
370
    -2
100
AcDbLine
 10
2604.25088289
 20
-1784.67704884
 30
0.0
 11
2604.82291034
 21
-1784.83032313
 31
0.0
  0
LINE
  5
344
100
AcDbEntity
  8
Sc.1_5
 62
     9
  6
CONTINUOUS
370
    -2
100
AcDbLine
 10
2599.63207989
 20
-1787.34371599
 30
0.0
 11
2600.20410734
 21
-1787.49699028
 31
0.0
  0
LINE
  5
345
100
AcDbEntity
  8
Sc.1_5
 62
     9
  6
CONTINUOUS
370
    -2
100
AcDbLine
 10
2595.01327689
 20
-1790.01038315
 30
0.0
 11
2595.58530434
 21
-1790.16365744
 31
0.0
  0
LINE
  5
346
100
AcDbEntity
  8
Sc.1_5
 62
     9
  6
CONTINUOUS
370
    -2
100
AcDbLine
 10
2590.39447389
 20
-1792.6770503
 30
0.0
 11
2590.96650134
 21
-1792.83032459
 31
0.0
  0
LINE
  5
347
100
AcDbEntity
  8
Sc.1_5
 62
     9
  6
CONTINUOUS
370
    -2
100
AcDbLine
 10
2585.77567089
 20
-1795.34371746
 30
0.0
 11
2586.34769834
 21
-1795.49699175
 31
0.0
  0
LINE
  5
348
100
AcDbEntity
  8
Sc.1_5
 62
     9
  6
CONTINUOUS
370
    -2
100
AcDbLine
 10
2581.15686789
 20
-1798.01038461
 30
0.0
 11
2581.72889534
 21
-1798.1636589
 31
0.0
  0
LINE
  5
349
100
AcDbEntity
  8
Sc.1_5
 62
     9
  6
CONTINUOUS
370
    -2
100
AcDbLine
 10
2632.63976226
 20
-1785.01051444
 30
0.0
 11
2632.48648797
 21
-1785.58254189
 31
0.0
  0
LINE
  5
34A
100
AcDbEntity
  8
Sc.1_5
 62
     9
  6
CONTINUOUS
370
    -2
100
AcDbLine
 10
2628.02095926
 20
-1787.6771816
 30
0.0
 11
2627.86768497
 21
-1788.24920905
 31
0.0
  0
LINE
  5
34B
100
AcDbEntity
  8
Sc.1_5
 62
     9
  6
CONTINUOUS
370
    -2
100
AcDbLine
 10
2623.40215626
 20
-1790.34384875
 30
0.0
 11
2623.24888197
 21
-1790.9158762
 31
0.0
  0
LINE
  5
34C
100
AcDbEntity
  8
Sc.1_5
 62
     9
  6
CONTINUOUS
370
    -2
100
AcDbLine
 10
2618.78335326
 20
-1793.01051591
 30
0.0
 11
2618.63007897
 21
-1793.58254336
 31
0.0
  0
LINE
  5
34D
100
AcDbEntity
  8
Sc.1_5
 62
     9
  6
CONTINUOUS
370
    -2
100
AcDbLine
 10
2614.16455026
 20
-1795.67718307
 30
0.0
 11
2614.01127597
 21
-1796.24921051
 31
0.0
  0
LINE
  5
34E
100
AcDbEntity
  8
Sc.1_5
 62
     9
  6
CONTINUOUS
370
    -2
100
AcDbLine
 10
2609.54574726
 20
-1798.34385022
 30
0.0
 11
2609.39247297
 21
-1798.91587767
 31
0.0
  0
LINE
  5
34F
100
AcDbEntity
  8
Sc.1_5
 62
     9
  6
CONTINUOUS
370
    -2
100
AcDbLine
 10
2604.92694426
 20
-1801.01051738
 30
0.0
 11
2604.77366997
 21
-1801.58254482
 31
0.0
  0
LINE
  5
350
100
AcDbEntity
  8
Sc.1_5
 62
     9
  6
CONTINUOUS
370
    -2
100
AcDbLine
 10
2600.30814126
 20
-1803.67718453
 30
0.0
 11
2600.15486697
 21
-1804.24921198
 31
0.0
  0
LINE
  5
351
100
AcDbEntity
  8
Sc.1_5
 62
     9
  6
CONTINUOUS
370
    -2
100
AcDbLine
 10
2595.68933826
 20
-1806.34385169
 30
0.0
 11
2595.53606397
 21
-1806.91587913
 31
0.0
  0
LINE
  5
352
100
AcDbEntity
  8
Sc.1_5
 62
     9
  6
CONTINUOUS
370
    -2
100
AcDbLine
 10
2591.07053526
 20
-1809.01051884
 30
0.0
 11
2590.91726097
 21
-1809.58254629
 31
0.0
  0
LINE
  5
353
100
AcDbEntity
  8
Sc.1_5
 62
     9
  6
CONTINUOUS
370
    -2
100
AcDbLine
 10
2588.05317914
 20
-1811.23612283
 30
0.0
 11
2587.48115169
 21
-1811.08284854
 31
0.0
  0
LINE
  5
354
100
AcDbEntity
  8
Sc.1_5
 62
     9
  6
CONTINUOUS
370
    -2
100
AcDbLine
 10
2592.67198214
 20
-1808.56945568
 30
0.0
 11
2592.09995469
 21
-1808.41618138
 31
0.0
  0
LINE
  5
355
100
AcDbEntity
  8
Sc.1_5
 62
     9
  6
CONTINUOUS
370
    -2
100
AcDbLine
 10
2597.29078514
 20
-1805.90278852
 30
0.0
 11
2596.71875769
 21
-1805.74951423
 31
0.0
  0
LINE
  5
356
100
AcDbEntity
  8
Sc.1_5
 62
     9
  6
CONTINUOUS
370
    -2
100
AcDbLine
 10
2601.90958814
 20
-1803.23612137
 30
0.0
 11
2601.33756069
 21
-1803.08284707
 31
0.0
  0
LINE
  5
357
100
AcDbEntity
  8
Sc.1_5
 62
     9
  6
CONTINUOUS
370
    -2
100
AcDbLine
 10
2606.52839114
 20
-1800.56945421
 30
0.0
 11
2605.95636369
 21
-1800.41617992
 31
0.0
  0
LINE
  5
358
100
AcDbEntity
  8
Sc.1_5
 62
     9
  6
CONTINUOUS
370
    -2
100
AcDbLine
 10
2611.14719414
 20
-1797.90278705
 30
0.0
 11
2610.57516669
 21
-1797.74951276
 31
0.0
  0
LINE
  5
359
100
AcDbEntity
  8
Sc.1_5
 62
     9
  6
CONTINUOUS
370
    -2
100
AcDbLine
 10
2615.76599714
 20
-1795.2361199
 30
0.0
 11
2615.19396969
 21
-1795.08284561
 31
0.0
  0
LINE
  5
35A
100
AcDbEntity
  8
Sc.1_5
 62
     9
  6
CONTINUOUS
370
    -2
100
AcDbLine
 10
2620.38480014
 20
-1792.56945274
 30
0.0
 11
2619.81277269
 21
-1792.41617845
 31
0.0
  0
LINE
  5
35B
100
AcDbEntity
  8
Sc.1_5
 62
     9
  6
CONTINUOUS
370
    -2
100
AcDbLine
 10
2625.00360314
 20
-1789.90278559
 30
0.0
 11
2624.43157569
 21
-1789.7495113
 31
0.0
  0
LINE
  5
35C
100
AcDbEntity
  8
Sc.1_5
 62
     9
  6
CONTINUOUS
370
    -2
100
AcDbLine
 10
2629.62240614
 20
-1787.23611843
 30
0.0
 11
2629.05037869
 21
-1787.08284414
 31
0.0
  0
LINE
  5
35D
100
AcDbEntity
  8
Sc.1_5
 62
     9
  6
CONTINUOUS
370
    -2
100
AcDbLine
 10
2624.32754212
 20
-1773.56931739
 30
0.0
 11
2624.28756428
 21
-1774.18919601
 31
0.0
  0
LINE
  5
35E
100
AcDbEntity
  8
Sc.1_5
 62
     9
  6
CONTINUOUS
370
    -2
100
AcDbLine
 10
2619.70873997
 20
-1776.23598475
 30
0.0
 11
2619.66876213
 21
-1776.85586338
 31
0.0
  0
LINE
  5
35F
100
AcDbEntity
  8
Sc.1_5
 62
     9
  6
CONTINUOUS
370
    -2
100
AcDbLine
 10
2615.08993782
 20
-1778.90265212
 30
0.0
 11
2615.04995997
 21
-1779.52253074
 31
0.0
  0
LINE
  5
360
100
AcDbEntity
  8
Sc.1_5
 62
     9
  6
CONTINUOUS
370
    -2
100
AcDbLine
 10
2610.47113566
 20
-1781.56931948
 30
0.0
 11
2610.43115782
 21
-1782.1891981
 31
0.0
  0
LINE
  5
361
100
AcDbEntity
  8
Sc.1_5
 62
     9
  6
CONTINUOUS
370
    -2
100
AcDbLine
 10
2605.85233351
 20
-1784.23598685
 30
0.0
 11
2605.81235567
 21
-1784.85586547
 31
0.0
  0
LINE
  5
362
100
AcDbEntity
  8
Sc.1_5
 62
     9
  6
CONTINUOUS
370
    -2
100
AcDbLine
 10
2601.23353136
 20
-1786.90265421
 30
0.0
 11
2601.19355351
 21
-1787.52253283
 31
0.0
  0
LINE
  5
363
100
AcDbEntity
  8
Sc.1_5
 62
     9
  6
CONTINUOUS
370
    -2
100
AcDbLine
 10
2596.6147292
 20
-1789.56932157
 30
0.0
 11
2596.57475136
 21
-1790.18920019
 31
0.0
  0
LINE
  5
364
100
AcDbEntity
  8
Sc.1_5
 62
     9
  6
CONTINUOUS
370
    -2
100
AcDbLine
 10
2591.99592705
 20
-1792.23598894
 30
0.0
 11
2591.95594921
 21
-1792.85586756
 31
0.0
  0
LINE
  5
365
100
AcDbEntity
  8
Sc.1_5
 62
     9
  6
CONTINUOUS
370
    -2
100
AcDbLine
 10
2587.3771249
 20
-1794.9026563
 30
0.0
 11
2587.33714705
 21
-1795.52253492
 31
0.0
  0
LINE
  5
366
100
AcDbEntity
  8
Sc.1_5
 62
     9
  6
CONTINUOUS
370
    -2
100
AcDbLine
 10
2582.75832274
 20
-1797.56932366
 30
0.0
 11
2582.7183449
 21
-1798.18920229
 31
0.0
  0
LINE
  5
367
100
AcDbEntity
  8
Sc.1_5
 62
     9
  6
CONTINUOUS
370
    -2
100
AcDbLine
 10
2623.29812224
 20
-1774.16365213
 30
0.0
 11
2623.85494177
 21
-1774.43896965
 31
0.0
  0
LINE
  5
368
100
AcDbEntity
  8
Sc.1_5
 62
     9
  6
CONTINUOUS
370
    -2
100
AcDbLine
 10
2618.6793193
 20
-1776.83031814
 30
0.0
 11
2619.23613884
 21
-1777.10563566
 31
0.0
  0
LINE
  5
369
100
AcDbEntity
  8
Sc.1_5
 62
     9
  6
CONTINUOUS
370
    -2
100
AcDbLine
 10
2614.06051637
 20
-1779.49698415
 30
0.0
 11
2614.6173359
 21
-1779.77230167
 31
0.0
  0
LINE
  5
36A
100
AcDbEntity
  8
Sc.1_5
 62
     9
  6
CONTINUOUS
370
    -2
100
AcDbLine
 10
2609.44171343
 20
-1782.16365016
 30
0.0
 11
2609.99853297
 21
-1782.43896768
 31
0.0
  0
LINE
  5
36B
100
AcDbEntity
  8
Sc.1_5
 62
     9
  6
CONTINUOUS
370
    -2
100
AcDbLine
 10
2604.8229105
 20
-1784.83031617
 30
0.0
 11
2605.37973003
 21
-1785.10563369
 31
0.0
  0
LINE
  5
36C
100
AcDbEntity
  8
Sc.1_5
 62
     9
  6
CONTINUOUS
370
    -2
100
AcDbLine
 10
2600.20410756
 20
-1787.49698219
 30
0.0
 11
2600.7609271
 21
-1787.77229971
 31
0.0
  0
LINE
  5
36D
100
AcDbEntity
  8
Sc.1_5
 62
     9
  6
CONTINUOUS
370
    -2
100
AcDbLine
 10
2595.58530463
 20
-1790.1636482
 30
0.0
 11
2596.14212416
 21
-1790.43896572
 31
0.0
  0
LINE
  5
36E
100
AcDbEntity
  8
Sc.1_5
 62
     9
  6
CONTINUOUS
370
    -2
100
AcDbLine
 10
2590.96650169
 20
-1792.83031421
 30
0.0
 11
2591.52332123
 21
-1793.10563173
 31
0.0
  0
LINE
  5
36F
100
AcDbEntity
  8
Sc.1_5
 62
     9
  6
CONTINUOUS
370
    -2
100
AcDbLine
 10
2586.34769876
 20
-1795.49698022
 30
0.0
 11
2586.9045183
 21
-1795.77229774
 31
0.0
  0
LINE
  5
370
100
AcDbEntity
  8
Sc.1_5
 62
     9
  6
CONTINUOUS
370
    -2
100
AcDbLine
 10
2581.72889582
 20
-1798.16364623
 30
0.0
 11
2582.28571536
 21
-1798.43896375
 31
0.0
  0
LINE
  5
371
100
AcDbEntity
  8
Sc.1_5
 62
     9
  6
CONTINUOUS
370
    -2
100
AcDbLine
 10
2632.67974002
 20
-1784.39063478
 30
0.0
 11
2632.63976217
 21
-1785.0105134
 31
0.0
  0
LINE
  5
372
100
AcDbEntity
  8
Sc.1_5
 62
     9
  6
CONTINUOUS
370
    -2
100
AcDbLine
 10
2628.06093786
 20
-1787.05730214
 30
0.0
 11
2628.02096002
 21
-1787.67718077
 31
0.0
  0
LINE
  5
373
100
AcDbEntity
  8
Sc.1_5
 62
     9
  6
CONTINUOUS
370
    -2
100
AcDbLine
 10
2623.44213571
 20
-1789.72396951
 30
0.0
 11
2623.40215787
 21
-1790.34384813
 31
0.0
  0
LINE
  5
374
100
AcDbEntity
  8
Sc.1_5
 62
     9
  6
CONTINUOUS
370
    -2
100
AcDbLine
 10
2618.82333356
 20
-1792.39063687
 30
0.0
 11
2618.78335571
 21
-1793.01051549
 31
0.0
  0
LINE
  5
375
100
AcDbEntity
  8
Sc.1_5
 62
     9
  6
CONTINUOUS
370
    -2
100
AcDbLine
 10
2614.2045314
 20
-1795.05730424
 30
0.0
 11
2614.16455356
 21
-1795.67718286
 31
0.0
  0
LINE
  5
376
100
AcDbEntity
  8
Sc.1_5
 62
     9
  6
CONTINUOUS
370
    -2
100
AcDbLine
 10
2609.58572925
 20
-1797.7239716
 30
0.0
 11
2609.54575141
 21
-1798.34385022
 31
0.0
  0
LINE
  5
377
100
AcDbEntity
  8
Sc.1_5
 62
     9
  6
CONTINUOUS
370
    -2
100
AcDbLine
 10
2604.9669271
 20
-1800.39063896
 30
0.0
 11
2604.92694925
 21
-1801.01051758
 31
0.0
  0
LINE
  5
378
100
AcDbEntity
  8
Sc.1_5
 62
     9
  6
CONTINUOUS
370
    -2
100
AcDbLine
 10
2600.34812494
 20
-1803.05730633
 30
0.0
 11
2600.3081471
 21
-1803.67718495
 31
0.0
  0
LINE
  5
379
100
AcDbEntity
  8
Sc.1_5
 62
     9
  6
CONTINUOUS
370
    -2
100
AcDbLine
 10
2595.72932279
 20
-1805.72397369
 30
0.0
 11
2595.68934495
 21
-1806.34385231
 31
0.0
  0
LINE
  5
37A
100
AcDbEntity
  8
Sc.1_5
 62
     9
  6
CONTINUOUS
370
    -2
100
AcDbLine
 10
2591.11052063
 20
-1808.39064105
 30
0.0
 11
2591.07054279
 21
-1809.01051968
 31
0.0
  0
LINE
  5
37B
100
AcDbEntity
  8
Sc.1_5
 62
     9
  6
CONTINUOUS
370
    -2
100
AcDbLine
 10
2586.49171848
 20
-1811.05730842
 30
0.0
 11
2586.46760706
 21
-1811.43116937
 31
0.0
  0
LINE
  5
37C
100
AcDbEntity
  8
Sc.1_5
 62
     9
  6
CONTINUOUS
370
    -2
100
AcDbLine
 10
2587.48115444
 20
-1811.08284255
 30
0.0
 11
2586.92433489
 21
-1810.80752507
 31
0.0
  0
LINE
  5
37D
100
AcDbEntity
  8
Sc.1_5
 62
     9
  6
CONTINUOUS
370
    -2
100
AcDbLine
 10
2592.0999572
 20
-1808.41617623
 30
0.0
 11
2591.54313764
 21
-1808.14085875
 31
0.0
  0
LINE
  5
37E
100
AcDbEntity
  8
Sc.1_5
 62
     9
  6
CONTINUOUS
370
    -2
100
AcDbLine
 10
2596.71875996
 20
-1805.74950992
 30
0.0
 11
2596.1619404
 21
-1805.47419243
 31
0.0
  0
LINE
  5
37F
100
AcDbEntity
  8
Sc.1_5
 62
     9
  6
CONTINUOUS
370
    -2
100
AcDbLine
 10
2601.33756271
 20
-1803.0828436
 30
0.0
 11
2600.78074316
 21
-1802.80752611
 31
0.0
  0
LINE
  5
380
100
AcDbEntity
  8
Sc.1_5
 62
     9
  6
CONTINUOUS
370
    -2
100
AcDbLine
 10
2605.95636547
 20
-1800.41617728
 30
0.0
 11
2605.39954592
 21
-1800.1408598
 31
0.0
  0
LINE
  5
381
100
AcDbEntity
  8
Sc.1_5
 62
     9
  6
CONTINUOUS
370
    -2
100
AcDbLine
 10
2610.57516823
 20
-1797.74951096
 30
0.0
 11
2610.01834867
 21
-1797.47419348
 31
0.0
  0
LINE
  5
382
100
AcDbEntity
  8
Sc.1_5
 62
     9
  6
CONTINUOUS
370
    -2
100
AcDbLine
 10
2615.19397098
 20
-1795.08284464
 30
0.0
 11
2614.63715143
 21
-1794.80752716
 31
0.0
  0
LINE
  5
383
100
AcDbEntity
  8
Sc.1_5
 62
     9
  6
CONTINUOUS
370
    -2
100
AcDbLine
 10
2619.81277374
 20
-1792.41617832
 30
0.0
 11
2619.25595419
 21
-1792.14086084
 31
0.0
  0
LINE
  5
384
100
AcDbEntity
  8
Sc.1_5
 62
     9
  6
CONTINUOUS
370
    -2
100
AcDbLine
 10
2624.4315765
 20
-1789.74951201
 30
0.0
 11
2623.87475694
 21
-1789.47419452
 31
0.0
  0
LINE
  5
385
100
AcDbEntity
  8
Sc.1_5
 62
     9
  6
CONTINUOUS
370
    -2
100
AcDbLine
 10
2629.05037926
 20
-1787.08284569
 30
0.0
 11
2628.4935597
 21
-1786.80752821
 31
0.0
  0
LINE
  5
386
100
AcDbEntity
  8
Sc.1_5
 62
     9
  6
CONTINUOUS
370
    -2
100
AcDbLine
 10
2624.28756385
 20
-1774.18919615
 30
0.0
 11
2624.44591443
 21
-1774.96301629
 31
0.0
  0
LINE
  5
387
100
AcDbEntity
  8
Sc.1_5
 62
     9
  6
CONTINUOUS
370
    -2
100
AcDbLine
 10
2619.6687612
 20
-1776.85586341
 30
0.0
 11
2619.82711178
 21
-1777.62968355
 31
0.0
  0
LINE
  5
388
100
AcDbEntity
  8
Sc.1_5
 62
     9
  6
CONTINUOUS
370
    -2
100
AcDbLine
 10
2615.04995855
 20
-1779.52253067
 30
0.0
 11
2615.20830913
 21
-1780.29635082
 31
0.0
  0
LINE
  5
389
100
AcDbEntity
  8
Sc.1_5
 62
     9
  6
CONTINUOUS
370
    -2
100
AcDbLine
 10
2610.4311559
 20
-1782.18919793
 30
0.0
 11
2610.58950648
 21
-1782.96301808
 31
0.0
  0
LINE
  5
38A
100
AcDbEntity
  8
Sc.1_5
 62
     9
  6
CONTINUOUS
370
    -2
100
AcDbLine
 10
2605.81235325
 20
-1784.85586519
 30
0.0
 11
2605.97070384
 21
-1785.62968534
 31
0.0
  0
LINE
  5
38B
100
AcDbEntity
  8
Sc.1_5
 62
     9
  6
CONTINUOUS
370
    -2
100
AcDbLine
 10
2601.1935506
 20
-1787.52253245
 30
0.0
 11
2601.35190119
 21
-1788.2963526
 31
0.0
  0
LINE
  5
38C
100
AcDbEntity
  8
Sc.1_5
 62
     9
  6
CONTINUOUS
370
    -2
100
AcDbLine
 10
2596.57474795
 20
-1790.18919972
 30
0.0
 11
2596.73309854
 21
-1790.96301986
 31
0.0
  0
LINE
  5
38D
100
AcDbEntity
  8
Sc.1_5
 62
     9
  6
CONTINUOUS
370
    -2
100
AcDbLine
 10
2591.9559453
 20
-1792.85586698
 30
0.0
 11
2592.11429589
 21
-1793.62968712
 31
0.0
  0
LINE
  5
38E
100
AcDbEntity
  8
Sc.1_5
 62
     9
  6
CONTINUOUS
370
    -2
100
AcDbLine
 10
2587.33714265
 20
-1795.52253424
 30
0.0
 11
2587.49549324
 21
-1796.29635439
 31
0.0
  0
LINE
  5
38F
100
AcDbEntity
  8
Sc.1_5
 62
     9
  6
CONTINUOUS
370
    -2
100
AcDbLine
 10
2582.71834
 20
-1798.1892015
 30
0.0
 11
2582.87669059
 21
-1798.96302165
 31
0.0
  0
LINE
  5
390
100
AcDbEntity
  8
Sc.1_5
 62
     9
  6
CONTINUOUS
370
    -2
100
AcDbLine
 10
2623.85494214
 20
-1774.43897009
 30
0.0
 11
2624.44591475
 21
-1774.9630158
 31
0.0
  0
LINE
  5
391
100
AcDbEntity
  8
Sc.1_5
 62
     9
  6
CONTINUOUS
370
    -2
100
AcDbLine
 10
2619.23613923
 20
-1777.10563689
 30
0.0
 11
2619.82711184
 21
-1777.6296826
 31
0.0
  0
LINE
  5
392
100
AcDbEntity
  8
Sc.1_5
 62
     9
  6
CONTINUOUS
370
    -2
100
AcDbLine
 10
2614.61733631
 20
-1779.77230369
 30
0.0
 11
2615.20830892
 21
-1780.29634939
 31
0.0
  0
LINE
  5
393
100
AcDbEntity
  8
Sc.1_5
 62
     9
  6
CONTINUOUS
370
    -2
100
AcDbLine
 10
2609.99853339
 20
-1782.43897049
 30
0.0
 11
2610.589506
 21
-1782.96301619
 31
0.0
  0
LINE
  5
394
100
AcDbEntity
  8
Sc.1_5
 62
     9
  6
CONTINUOUS
370
    -2
100
AcDbLine
 10
2605.37973048
 20
-1785.10563729
 30
0.0
 11
2605.97070309
 21
-1785.62968299
 31
0.0
  0
LINE
  5
395
100
AcDbEntity
  8
Sc.1_5
 62
     9
  6
CONTINUOUS
370
    -2
100
AcDbLine
 10
2600.76092756
 20
-1787.77230409
 30
0.0
 11
2601.35190017
 21
-1788.29634979
 31
0.0
  0
LINE
  5
396
100
AcDbEntity
  8
Sc.1_5
 62
     9
  6
CONTINUOUS
370
    -2
100
AcDbLine
 10
2596.14212464
 20
-1790.43897089
 30
0.0
 11
2596.73309725
 21
-1790.96301659
 31
0.0
  0
LINE
  5
397
100
AcDbEntity
  8
Sc.1_5
 62
     9
  6
CONTINUOUS
370
    -2
100
AcDbLine
 10
2591.52332172
 20
-1793.10563768
 30
0.0
 11
2592.11429434
 21
-1793.62968339
 31
0.0
  0
LINE
  5
398
100
AcDbEntity
  8
Sc.1_5
 62
     9
  6
CONTINUOUS
370
    -2
100
AcDbLine
 10
2586.90451881
 20
-1795.77230448
 30
0.0
 11
2587.49549142
 21
-1796.29635019
 31
0.0
  0
LINE
  5
399
100
AcDbEntity
  8
Sc.1_5
 62
     9
  6
CONTINUOUS
370
    -2
100
AcDbLine
 10
2582.28571589
 20
-1798.43897128
 30
0.0
 11
2582.8766885
 21
-1798.96301699
 31
0.0
  0
LINE
  5
39A
100
AcDbEntity
  8
Sc.1_5
 62
     9
  6
CONTINUOUS
370
    -2
100
AcDbLine
 10
2632.52138974
 20
-1783.61681524
 30
0.0
 11
2632.67974033
 21
-1784.39063538
 31
0.0
  0
LINE
  5
39B
100
AcDbEntity
  8
Sc.1_5
 62
     9
  6
CONTINUOUS
370
    -2
100
AcDbLine
 10
2627.90258709
 20
-1786.2834825
 30
0.0
 11
2628.06093768
 21
-1787.05730264
 31
0.0
  0
LINE
  5
39C
100
AcDbEntity
  8
Sc.1_5
 62
     9
  6
CONTINUOUS
370
    -2
100
AcDbLine
 10
2623.28378444
 20
-1788.95014976
 30
0.0
 11
2623.44213503
 21
-1789.72396991
 31
0.0
  0
LINE
  5
39D
100
AcDbEntity
  8
Sc.1_5
 62
     9
  6
CONTINUOUS
370
    -2
100
AcDbLine
 10
2618.66498179
 20
-1791.61681702
 30
0.0
 11
2618.82333238
 21
-1792.39063717
 31
0.0
  0
LINE
  5
39E
100
AcDbEntity
  8
Sc.1_5
 62
     9
  6
CONTINUOUS
370
    -2
100
AcDbLine
 10
2614.04617914
 20
-1794.28348428
 30
0.0
 11
2614.20452973
 21
-1795.05730443
 31
0.0
  0
LINE
  5
39F
100
AcDbEntity
  8
Sc.1_5
 62
     9
  6
CONTINUOUS
370
    -2
100
AcDbLine
 10
2609.42737649
 20
-1796.95015154
 30
0.0
 11
2609.58572708
 21
-1797.72397169
 31
0.0
  0
LINE
  5
3A0
100
AcDbEntity
  8
Sc.1_5
 62
     9
  6
CONTINUOUS
370
    -2
100
AcDbLine
 10
2604.80857384
 20
-1799.61681881
 30
0.0
 11
2604.96692443
 21
-1800.39063895
 31
0.0
  0
LINE
  5
3A1
100
AcDbEntity
  8
Sc.1_5
 62
     9
  6
CONTINUOUS
370
    -2
100
AcDbLine
 10
2600.18977119
 20
-1802.28348607
 30
0.0
 11
2600.34812178
 21
-1803.05730621
 31
0.0
  0
LINE
  5
3A2
100
AcDbEntity
  8
Sc.1_5
 62
     9
  6
CONTINUOUS
370
    -2
100
AcDbLine
 10
2595.57096855
 20
-1804.95015333
 30
0.0
 11
2595.72931913
 21
-1805.72397348
 31
0.0
  0
LINE
  5
3A3
100
AcDbEntity
  8
Sc.1_5
 62
     9
  6
CONTINUOUS
370
    -2
100
AcDbLine
 10
2590.9521659
 20
-1807.61682059
 30
0.0
 11
2591.11051648
 21
-1808.39064074
 31
0.0
  0
LINE
  5
3A4
100
AcDbEntity
  8
Sc.1_5
 62
     9
  6
CONTINUOUS
370
    -2
100
AcDbLine
 10
2586.33336325
 20
-1810.28348785
 30
0.0
 11
2586.49171383
 21
-1811.057308
 31
0.0
  0
LINE
  5
3A5
100
AcDbEntity
  8
Sc.1_5
 62
     9
  6
CONTINUOUS
370
    -2
100
AcDbLine
 10
2586.92433408
 20
-1810.80752794
 30
0.0
 11
2586.33336147
 21
-1810.28348223
 31
0.0
  0
LINE
  5
3A6
100
AcDbEntity
  8
Sc.1_5
 62
     9
  6
CONTINUOUS
370
    -2
100
AcDbLine
 10
2591.54313699
 20
-1808.14086114
 30
0.0
 11
2590.95216438
 21
-1807.61681543
 31
0.0
  0
LINE
  5
3A7
100
AcDbEntity
  8
Sc.1_5
 62
     9
  6
CONTINUOUS
370
    -2
100
AcDbLine
 10
2596.16193991
 20
-1805.47419434
 30
0.0
 11
2595.5709673
 21
-1804.95014864
 31
0.0
  0
LINE
  5
3A8
100
AcDbEntity
  8
Sc.1_5
 62
     9
  6
CONTINUOUS
370
    -2
100
AcDbLine
 10
2600.78074283
 20
-1802.80752754
 30
0.0
 11
2600.18977022
 21
-1802.28348184
 31
0.0
  0
LINE
  5
3A9
100
AcDbEntity
  8
Sc.1_5
 62
     9
  6
CONTINUOUS
370
    -2
100
AcDbLine
 10
2605.39954575
 20
-1800.14086074
 30
0.0
 11
2604.80857313
 21
-1799.61681504
 31
0.0
  0
LINE
  5
3AA
100
AcDbEntity
  8
Sc.1_5
 62
     9
  6
CONTINUOUS
370
    -2
100
AcDbLine
 10
2610.01834866
 20
-1797.47419394
 30
0.0
 11
2609.42737605
 21
-1796.95014824
 31
0.0
  0
LINE
  5
3AB
100
AcDbEntity
  8
Sc.1_5
 62
     9
  6
CONTINUOUS
370
    -2
100
AcDbLine
 10
2614.63715158
 20
-1794.80752715
 30
0.0
 11
2614.04617897
 21
-1794.28348144
 31
0.0
  0
LINE
  5
3AC
100
AcDbEntity
  8
Sc.1_5
 62
     9
  6
CONTINUOUS
370
    -2
100
AcDbLine
 10
2619.2559545
 20
-1792.14086035
 30
0.0
 11
2618.66498189
 21
-1791.61681464
 31
0.0
  0
LINE
  5
3AD
100
AcDbEntity
  8
Sc.1_5
 62
     9
  6
CONTINUOUS
370
    -2
100
AcDbLine
 10
2623.87475741
 20
-1789.47419355
 30
0.0
 11
2623.2837848
 21
-1788.95014784
 31
0.0
  0
LINE
  5
3AE
100
AcDbEntity
  8
Sc.1_5
 62
     9
  6
CONTINUOUS
370
    -2
100
AcDbLine
 10
2628.49356033
 20
-1786.80752675
 30
0.0
 11
2627.90258772
 21
-1786.28348105
 31
0.0
  0
LINE
  5
3AF
100
AcDbEntity
  8
Sc.1_5
 62
     9
  6
CONTINUOUS
370
    -2
100
AcDbLine
 10
2624.66228721
 20
-1775.33778519
 30
0.0
 11
2624.89325865
 21
-1775.86495734
 31
0.0
  0
LINE
  5
3B0
100
AcDbEntity
  8
Sc.1_5
 62
     9
  6
CONTINUOUS
370
    -2
100
AcDbLine
 10
2620.0434885
 20
-1778.00445739
 30
0.0
 11
2620.27445994
 21
-1778.53162955
 31
0.0
  0
LINE
  5
3B1
100
AcDbEntity
  8
Sc.1_5
 62
     9
  6
CONTINUOUS
370
    -2
100
AcDbLine
 10
2615.4246898
 20
-1780.67112959
 30
0.0
 11
2615.65566124
 21
-1781.19830175
 31
0.0
  0
LINE
  5
3B2
100
AcDbEntity
  8
Sc.1_5
 62
     9
  6
CONTINUOUS
370
    -2
100
AcDbLine
 10
2610.80589109
 20
-1783.33780179
 30
0.0
 11
2611.03686254
 21
-1783.86497395
 31
0.0
  0
LINE
  5
3B3
100
AcDbEntity
  8
Sc.1_5
 62
     9
  6
CONTINUOUS
370
    -2
100
AcDbLine
 10
2606.18709239
 20
-1786.00447399
 30
0.0
 11
2606.41806383
 21
-1786.53164615
 31
0.0
  0
LINE
  5
3B4
100
AcDbEntity
  8
Sc.1_5
 62
     9
  6
CONTINUOUS
370
    -2
100
AcDbLine
 10
2601.56829368
 20
-1788.6711462
 30
0.0
 11
2601.79926513
 21
-1789.19831835
 31
0.0
  0
LINE
  5
3B5
100
AcDbEntity
  8
Sc.1_5
 62
     9
  6
CONTINUOUS
370
    -2
100
AcDbLine
 10
2596.94949498
 20
-1791.3378184
 30
0.0
 11
2597.18046642
 21
-1791.86499055
 31
0.0
  0
LINE
  5
3B6
100
AcDbEntity
  8
Sc.1_5
 62
     9
  6
CONTINUOUS
370
    -2
100
AcDbLine
 10
2592.33069628
 20
-1794.0044906
 30
0.0
 11
2592.56166772
 21
-1794.53166275
 31
0.0
  0
LINE
  5
3B7
100
AcDbEntity
  8
Sc.1_5
 62
     9
  6
CONTINUOUS
370
    -2
100
AcDbLine
 10
2587.71189757
 20
-1796.6711628
 30
0.0
 11
2587.94286901
 21
-1797.19833495
 31
0.0
  0
LINE
  5
3B8
100
AcDbEntity
  8
Sc.1_5
 62
     9
  6
CONTINUOUS
370
    -2
100
AcDbLine
 10
2583.09309887
 20
-1799.337835
 30
0.0
 11
2583.32407031
 21
-1799.86500716
 31
0.0
  0
LINE
  5
3B9
100
AcDbEntity
  8
Sc.1_5
 62
     9
  6
CONTINUOUS
370
    -2
100
AcDbLine
 10
2624.66228545
 20
-1775.33777868
 30
0.0
 11
2625.00334421
 21
-1775.80139189
 31
0.0
  0
LINE
  5
3BA
100
AcDbEntity
  8
Sc.1_5
 62
     9
  6
CONTINUOUS
370
    -2
100
AcDbLine
 10
2620.04348023
 20
-1778.00443959
 30
0.0
 11
2620.38453898
 21
-1778.4680528
 31
0.0
  0
LINE
  5
3BB
100
AcDbEntity
  8
Sc.1_5
 62
     9
  6
CONTINUOUS
370
    -2
100
AcDbLine
 10
2615.42467501
 20
-1780.6711005
 30
0.0
 11
2615.76573376
 21
-1781.13471372
 31
0.0
  0
LINE
  5
3BC
100
AcDbEntity
  8
Sc.1_5
 62
     9
  6
CONTINUOUS
370
    -2
100
AcDbLine
 10
2610.80586978
 20
-1783.33776141
 30
0.0
 11
2611.14692854
 21
-1783.80137463
 31
0.0
  0
LINE
  5
3BD
100
AcDbEntity
  8
Sc.1_5
 62
     9
  6
CONTINUOUS
370
    -2
100
AcDbLine
 10
2606.18706456
 20
-1786.00442233
 30
0.0
 11
2606.52812332
 21
-1786.46803554
 31
0.0
  0
LINE
  5
3BE
100
AcDbEntity
  8
Sc.1_5
 62
     9
  6
CONTINUOUS
370
    -2
100
AcDbLine
 10
2601.56825934
 20
-1788.67108324
 30
0.0
 11
2601.9093181
 21
-1789.13469645
 31
0.0
  0
LINE
  5
3BF
100
AcDbEntity
  8
Sc.1_5
 62
     9
  6
CONTINUOUS
370
    -2
100
AcDbLine
 10
2596.94945412
 20
-1791.33774415
 30
0.0
 11
2597.29051288
 21
-1791.80135737
 31
0.0
  0
LINE
  5
3C0
100
AcDbEntity
  8
Sc.1_5
 62
     9
  6
CONTINUOUS
370
    -2
100
AcDbLine
 10
2592.3306489
 20
-1794.00440506
 30
0.0
 11
2592.67170765
 21
-1794.46801828
 31
0.0
  0
LINE
  5
3C1
100
AcDbEntity
  8
Sc.1_5
 62
     9
  6
CONTINUOUS
370
    -2
100
AcDbLine
 10
2587.71184367
 20
-1796.67106598
 30
0.0
 11
2588.05290243
 21
-1797.13467919
 31
0.0
  0
LINE
  5
3C2
100
AcDbEntity
  8
Sc.1_5
 62
     9
  6
CONTINUOUS
370
    -2
100
AcDbLine
 10
2583.09303845
 20
-1799.33772689
 30
0.0
 11
2583.43409721
 21
-1799.8013401
 31
0.0
  0
LINE
  5
3C3
100
AcDbEntity
  8
Sc.1_5
 62
     9
  6
CONTINUOUS
370
    -2
100
AcDbLine
 10
2586.11703941
 20
-1809.90878503
 30
0.0
 11
2585.88606782
 21
-1809.38161294
 31
0.0
  0
LINE
  5
3C4
100
AcDbEntity
  8
Sc.1_5
 62
     9
  6
CONTINUOUS
370
    -2
100
AcDbLine
 10
2590.7358374
 20
-1807.2421116
 30
0.0
 11
2590.50486582
 21
-1806.71493951
 31
0.0
  0
LINE
  5
3C5
100
AcDbEntity
  8
Sc.1_5
 62
     9
  6
CONTINUOUS
370
    -2
100
AcDbLine
 10
2595.35463539
 20
-1804.57543817
 30
0.0
 11
2595.12366381
 21
-1804.04826608
 31
0.0
  0
LINE
  5
3C6
100
AcDbEntity
  8
Sc.1_5
 62
     9
  6
CONTINUOUS
370
    -2
100
AcDbLine
 10
2599.97343339
 20
-1801.90876474
 30
0.0
 11
2599.74246181
 21
-1801.38159264
 31
0.0
  0
LINE
  5
3C7
100
AcDbEntity
  8
Sc.1_5
 62
     9
  6
CONTINUOUS
370
    -2
100
AcDbLine
 10
2604.59223138
 20
-1799.24209131
 30
0.0
 11
2604.3612598
 21
-1798.71491921
 31
0.0
  0
LINE
  5
3C8
100
AcDbEntity
  8
Sc.1_5
 62
     9
  6
CONTINUOUS
370
    -2
100
AcDbLine
 10
2609.21102938
 20
-1796.57541787
 30
0.0
 11
2608.98005779
 21
-1796.04824578
 31
0.0
  0
LINE
  5
3C9
100
AcDbEntity
  8
Sc.1_5
 62
     9
  6
CONTINUOUS
370
    -2
100
AcDbLine
 10
2613.82982737
 20
-1793.90874444
 30
0.0
 11
2613.59885579
 21
-1793.38157235
 31
0.0
  0
LINE
  5
3CA
100
AcDbEntity
  8
Sc.1_5
 62
     9
  6
CONTINUOUS
370
    -2
100
AcDbLine
 10
2618.44862536
 20
-1791.24207101
 30
0.0
 11
2618.21765378
 21
-1790.71489892
 31
0.0
  0
LINE
  5
3CB
100
AcDbEntity
  8
Sc.1_5
 62
     9
  6
CONTINUOUS
370
    -2
100
AcDbLine
 10
2623.06742336
 20
-1788.57539758
 30
0.0
 11
2622.83645178
 21
-1788.04822549
 31
0.0
  0
LINE
  5
3CC
100
AcDbEntity
  8
Sc.1_5
 62
     9
  6
CONTINUOUS
370
    -2
100
AcDbLine
 10
2627.68622135
 20
-1785.90872415
 30
0.0
 11
2627.45524977
 21
-1785.38155206
 31
0.0
  0
LINE
  5
3CD
100
AcDbEntity
  8
Sc.1_5
 62
     9
  6
CONTINUOUS
370
    -2
100
AcDbLine
 10
2586.11696713
 20
-1809.90865984
 30
0.0
 11
2585.77590837
 21
-1809.44504663
 31
0.0
  0
LINE
  5
3CE
100
AcDbEntity
  8
Sc.1_5
 62
     9
  6
CONTINUOUS
370
    -2
100
AcDbLine
 10
2590.73577235
 20
-1807.24199893
 30
0.0
 11
2590.39471359
 21
-1806.77838571
 31
0.0
  0
LINE
  5
3CF
100
AcDbEntity
  8
Sc.1_5
 62
     9
  6
CONTINUOUS
370
    -2
100
AcDbLine
 10
2595.35457757
 20
-1804.57533802
 30
0.0
 11
2595.01351881
 21
-1804.1117248
 31
0.0
  0
LINE
  5
3D0
100
AcDbEntity
  8
Sc.1_5
 62
     9
  6
CONTINUOUS
370
    -2
100
AcDbLine
 10
2599.97338279
 20
-1801.9086771
 30
0.0
 11
2599.63232404
 21
-1801.44506389
 31
0.0
  0
LINE
  5
3D1
100
AcDbEntity
  8
Sc.1_5
 62
     9
  6
CONTINUOUS
370
    -2
100
AcDbLine
 10
2604.59218802
 20
-1799.24201619
 30
0.0
 11
2604.25112926
 21
-1798.77840298
 31
0.0
  0
LINE
  5
3D2
100
AcDbEntity
  8
Sc.1_5
 62
     9
  6
CONTINUOUS
370
    -2
100
AcDbLine
 10
2609.21099324
 20
-1796.57535528
 30
0.0
 11
2608.86993448
 21
-1796.11174207
 31
0.0
  0
LINE
  5
3D3
100
AcDbEntity
  8
Sc.1_5
 62
     9
  6
CONTINUOUS
370
    -2
100
AcDbLine
 10
2613.82979846
 20
-1793.90869437
 30
0.0
 11
2613.4887397
 21
-1793.44508115
 31
0.0
  0
LINE
  5
3D4
100
AcDbEntity
  8
Sc.1_5
 62
     9
  6
CONTINUOUS
370
    -2
100
AcDbLine
 10
2618.44860368
 20
-1791.24203345
 30
0.0
 11
2618.10754492
 21
-1790.77842024
 31
0.0
  0
LINE
  5
3D5
100
AcDbEntity
  8
Sc.1_5
 62
     9
  6
CONTINUOUS
370
    -2
100
AcDbLine
 10
2623.0674089
 20
-1788.57537254
 30
0.0
 11
2622.72635015
 21
-1788.11175933
 31
0.0
  0
LINE
  5
3D6
100
AcDbEntity
  8
Sc.1_5
 62
     9
  6
CONTINUOUS
370
    -2
100
AcDbLine
 10
2627.68621413
 20
-1785.90871163
 30
0.0
 11
2627.34515537
 21
-1785.44509842
 31
0.0
  0
LINE
  5
3D7
100
AcDbEntity
  8
Sc.1_5
 62
     9
  6
CONTINUOUS
370
    -2
100
AcDbLine
 10
2632.30501935
 20
-1783.24205072
 30
0.0
 11
2631.96396059
 21
-1782.7784375
 31
0.0
  0
ENDBLK
  5
3D8
100
AcDbEntity
100
AcDbBlockEnd
  0
BLOCK
  5
3D9
100
AcDbEntity
  8
Sc.1_5
100
AcDbBlockBegin
  2
*X2532
 70
     1
 10
0.0
 20
0.0
 30
0.0
  3
*X2532
  1

  4
Cadwork hatch
  0
LINE
  5
3DA
100
AcDbEntity
  8
Sc.1_5
 62
     9
  6
CONTINUOUS
370
    -2
100
AcDbLine
 10
2687.67136037
 20
-1770.99277653
 30
0.0
 11
2687.98063121
 21
-1771.17133413
 31
0.0
  0
LINE
  5
3DB
100
AcDbEntity
  8
Sc.1_5
 62
     9
  6
CONTINUOUS
370
    -2
100
AcDbLine
 10
2689.67149113
 20
-1772.14755256
 30
0.0
 11
2690.2900328
 21
-1772.50466776
 31
0.0
  0
LINE
  5
3DC
100
AcDbEntity
  8
Sc.1_5
 62
     9
  6
CONTINUOUS
370
    -2
100
AcDbLine
 10
2691.98089272
 20
-1773.48088619
 30
0.0
 11
2692.5994344
 21
-1773.8380014
 31
0.0
  0
LINE
  5
3DD
100
AcDbEntity
  8
Sc.1_5
 62
     9
  6
CONTINUOUS
370
    -2
100
AcDbLine
 10
2694.29029432
 20
-1774.81421982
 30
0.0
 11
2694.90883599
 21
-1775.17133503
 31
0.0
  0
LINE
  5
3DE
100
AcDbEntity
  8
Sc.1_5
 62
     9
  6
CONTINUOUS
370
    -2
100
AcDbLine
 10
2696.59969591
 20
-1776.14755346
 30
0.0
 11
2697.21823758
 21
-1776.50466866
 31
0.0
  0
LINE
  5
3DF
100
AcDbEntity
  8
Sc.1_5
 62
     9
  6
CONTINUOUS
370
    -2
100
AcDbLine
 10
2698.9090975
 20
-1777.48088709
 30
0.0
 11
2699.52763918
 21
-1777.83800229
 31
0.0
  0
LINE
  5
3E0
100
AcDbEntity
  8
Sc.1_5
 62
     9
  6
CONTINUOUS
370
    -2
100
AcDbLine
 10
2701.21849909
 20
-1778.81422072
 30
0.0
 11
2701.83704077
 21
-1779.17133592
 31
0.0
  0
LINE
  5
3E1
100
AcDbEntity
  8
Sc.1_5
 62
     9
  6
CONTINUOUS
370
    -2
100
AcDbLine
 10
2703.52790069
 20
-1780.14755435
 30
0.0
 11
2704.14644236
 21
-1780.50466955
 31
0.0
  0
LINE
  5
3E2
100
AcDbEntity
  8
Sc.1_5
 62
     9
  6
CONTINUOUS
370
    -2
100
AcDbLine
 10
2705.83730228
 20
-1781.48088798
 30
0.0
 11
2706.45584395
 21
-1781.83800318
 31
0.0
  0
LINE
  5
3E3
100
AcDbEntity
  8
Sc.1_5
 62
     9
  6
CONTINUOUS
370
    -2
100
AcDbLine
 10
2708.14670387
 20
-1782.81422161
 30
0.0
 11
2708.76524555
 21
-1783.17133682
 31
0.0
  0
LINE
  5
3E4
100
AcDbEntity
  8
Sc.1_5
 62
     9
  6
CONTINUOUS
370
    -2
100
AcDbLine
 10
2710.45610547
 20
-1784.14755524
 30
0.0
 11
2711.07464714
 21
-1784.50467045
 31
0.0
  0
LINE
  5
3E5
100
AcDbEntity
  8
Sc.1_5
 62
     9
  6
CONTINUOUS
370
    -2
100
AcDbLine
 10
2712.76550706
 20
-1785.48088888
 30
0.0
 11
2713.38404873
 21
-1785.83800408
 31
0.0
  0
LINE
  5
3E6
100
AcDbEntity
  8
Sc.1_5
 62
     9
  6
CONTINUOUS
370
    -2
100
AcDbLine
 10
2715.07490865
 20
-1786.81422251
 30
0.0
 11
2715.69345033
 21
-1787.17133771
 31
0.0
  0
LINE
  5
3E7
100
AcDbEntity
  8
Sc.1_5
 62
     9
  6
CONTINUOUS
370
    -2
100
AcDbLine
 10
2717.38431024
 20
-1788.14755614
 30
0.0
 11
2718.00285192
 21
-1788.50467134
 31
0.0
  0
LINE
  5
3E8
100
AcDbEntity
  8
Sc.1_5
 62
     9
  6
CONTINUOUS
370
    -2
100
AcDbLine
 10
2719.69371184
 20
-1789.48088977
 30
0.0
 11
2720.31225351
 21
-1789.83800497
 31
0.0
  0
LINE
  5
3E9
100
AcDbEntity
  8
Sc.1_5
 62
     9
  6
CONTINUOUS
370
    -2
100
AcDbLine
 10
2722.00311343
 20
-1790.8142234
 30
0.0
 11
2722.62165511
 21
-1791.1713386
 31
0.0
  0
LINE
  5
3EA
100
AcDbEntity
  8
Sc.1_5
 62
     9
  6
CONTINUOUS
370
    -2
100
AcDbLine
 10
2724.31251502
 20
-1792.14755703
 30
0.0
 11
2724.9310567
 21
-1792.50467224
 31
0.0
  0
LINE
  5
3EB
100
AcDbEntity
  8
Sc.1_5
 62
     9
  6
CONTINUOUS
370
    -2
100
AcDbLine
 10
2726.62191662
 20
-1793.48089066
 30
0.0
 11
2727.24045829
 21
-1793.83800587
 31
0.0
  0
LINE
  5
3EC
100
AcDbEntity
  8
Sc.1_5
 62
     9
  6
CONTINUOUS
370
    -2
100
AcDbLine
 10
2728.93131821
 20
-1794.8142243
 30
0.0
 11
2729.54985988
 21
-1795.1713395
 31
0.0
  0
LINE
  5
3ED
100
AcDbEntity
  8
Sc.1_5
 62
     9
  6
CONTINUOUS
370
    -2
100
AcDbLine
 10
2731.2407198
 20
-1796.14755793
 30
0.0
 11
2731.85926148
 21
-1796.50467313
 31
0.0
  0
LINE
  5
3EE
100
AcDbEntity
  8
Sc.1_5
 62
     9
  6
CONTINUOUS
370
    -2
100
AcDbLine
 10
2733.5501214
 20
-1797.48089156
 30
0.0
 11
2734.16866307
 21
-1797.83800676
 31
0.0
  0
LINE
  5
3EF
100
AcDbEntity
  8
Sc.1_5
 62
     9
  6
CONTINUOUS
370
    -2
100
AcDbLine
 10
2683.09772552
 20
-1784.24787891
 30
0.0
 11
2683.31409591
 21
-1783.87311439
 31
0.0
  0
LINE
  5
3F0
100
AcDbEntity
  8
Sc.1_5
 62
     9
  6
CONTINUOUS
370
    -2
100
AcDbLine
 10
2687.7165273
 20
-1786.91454536
 30
0.0
 11
2687.9328977
 21
-1786.53978084
 31
0.0
  0
LINE
  5
3F1
100
AcDbEntity
  8
Sc.1_5
 62
     9
  6
CONTINUOUS
370
    -2
100
AcDbLine
 10
2692.33532908
 20
-1789.58121181
 30
0.0
 11
2692.55169948
 21
-1789.20644729
 31
0.0
  0
LINE
  5
3F2
100
AcDbEntity
  8
Sc.1_5
 62
     9
  6
CONTINUOUS
370
    -2
100
AcDbLine
 10
2696.95413086
 20
-1792.24787826
 30
0.0
 11
2697.17050126
 21
-1791.87311375
 31
0.0
  0
LINE
  5
3F3
100
AcDbEntity
  8
Sc.1_5
 62
     9
  6
CONTINUOUS
370
    -2
100
AcDbLine
 10
2701.57293265
 20
-1794.91454471
 30
0.0
 11
2701.78930304
 21
-1794.5397802
 31
0.0
  0
LINE
  5
3F4
100
AcDbEntity
  8
Sc.1_5
 62
     9
  6
CONTINUOUS
370
    -2
100
AcDbLine
 10
2706.19173443
 20
-1797.58121117
 30
0.0
 11
2706.40810482
 21
-1797.20644665
 31
0.0
  0
LINE
  5
3F5
100
AcDbEntity
  8
Sc.1_5
 62
     9
  6
CONTINUOUS
370
    -2
100
AcDbLine
 10
2710.81053621
 20
-1800.24787762
 30
0.0
 11
2711.02690661
 21
-1799.8731131
 31
0.0
  0
LINE
  5
3F6
100
AcDbEntity
  8
Sc.1_5
 62
     9
  6
CONTINUOUS
370
    -2
100
AcDbLine
 10
2715.42933799
 20
-1802.91454407
 30
0.0
 11
2715.64570839
 21
-1802.53977955
 31
0.0
  0
LINE
  5
3F7
100
AcDbEntity
  8
Sc.1_5
 62
     9
  6
CONTINUOUS
370
    -2
100
AcDbLine
 10
2720.04813977
 20
-1805.58121052
 30
0.0
 11
2720.26451017
 21
-1805.20644601
 31
0.0
  0
LINE
  5
3F8
100
AcDbEntity
  8
Sc.1_5
 62
     9
  6
CONTINUOUS
370
    -2
100
AcDbLine
 10
2724.66694156
 20
-1808.24787698
 30
0.0
 11
2724.88331195
 21
-1807.87311246
 31
0.0
  0
LINE
  5
3F9
100
AcDbEntity
  8
Sc.1_5
 62
     9
  6
CONTINUOUS
370
    -2
100
AcDbLine
 10
2686.33802813
 20
-1773.30217772
 30
0.0
 11
2686.55439853
 21
-1772.9274132
 31
0.0
  0
LINE
  5
3FA
100
AcDbEntity
  8
Sc.1_5
 62
     9
  6
CONTINUOUS
370
    -2
100
AcDbLine
 10
2690.95682991
 20
-1775.96884417
 30
0.0
 11
2691.17320031
 21
-1775.59407965
 31
0.0
  0
LINE
  5
3FB
100
AcDbEntity
  8
Sc.1_5
 62
     9
  6
CONTINUOUS
370
    -2
100
AcDbLine
 10
2695.5756317
 20
-1778.63551062
 30
0.0
 11
2695.79200209
 21
-1778.2607461
 31
0.0
  0
LINE
  5
3FC
100
AcDbEntity
  8
Sc.1_5
 62
     9
  6
CONTINUOUS
370
    -2
100
AcDbLine
 10
2700.19443348
 20
-1781.30217707
 30
0.0
 11
2700.41080387
 21
-1780.92741256
 31
0.0
  0
LINE
  5
3FD
100
AcDbEntity
  8
Sc.1_5
 62
     9
  6
CONTINUOUS
370
    -2
100
AcDbLine
 10
2704.81323526
 20
-1783.96884353
 30
0.0
 11
2705.02960565
 21
-1783.59407901
 31
0.0
  0
LINE
  5
3FE
100
AcDbEntity
  8
Sc.1_5
 62
     9
  6
CONTINUOUS
370
    -2
100
AcDbLine
 10
2709.43203704
 20
-1786.63550998
 30
0.0
 11
2709.64840744
 21
-1786.26074546
 31
0.0
  0
LINE
  5
3FF
100
AcDbEntity
  8
Sc.1_5
 62
     9
  6
CONTINUOUS
370
    -2
100
AcDbLine
 10
2714.05083882
 20
-1789.30217643
 30
0.0
 11
2714.26720922
 21
-1788.92741191
 31
0.0
  0
LINE
  5
400
100
AcDbEntity
  8
Sc.1_5
 62
     9
  6
CONTINUOUS
370
    -2
100
AcDbLine
 10
2718.66964061
 20
-1791.96884288
 30
0.0
 11
2718.886011
 21
-1791.59407836
 31
0.0
  0
LINE
  5
401
100
AcDbEntity
  8
Sc.1_5
 62
     9
  6
CONTINUOUS
370
    -2
100
AcDbLine
 10
2723.28844239
 20
-1794.63550933
 30
0.0
 11
2723.50481278
 21
-1794.26074482
 31
0.0
  0
LINE
  5
402
100
AcDbEntity
  8
Sc.1_5
 62
     9
  6
CONTINUOUS
370
    -2
100
AcDbLine
 10
2727.90724417
 20
-1797.30217579
 30
0.0
 11
2728.12361456
 21
-1796.92741127
 31
0.0
  0
LINE
  5
403
100
AcDbEntity
  8
Sc.1_5
 62
     9
  6
CONTINUOUS
370
    -2
100
AcDbLine
 10
2732.52604595
 20
-1799.96884224
 30
0.0
 11
2732.74241635
 21
-1799.59407772
 31
0.0
  0
LINE
  5
404
100
AcDbEntity
  8
Sc.1_5
 62
     9
  6
CONTINUOUS
370
    -2
100
AcDbLine
 10
2683.545363
 20
-1783.34601546
 30
0.0
 11
2686.10735314
 21
-1773.82942172
 31
0.0
  0
LINE
  5
405
100
AcDbEntity
  8
Sc.1_5
 62
     9
  6
CONTINUOUS
370
    -2
100
AcDbLine
 10
2688.16415927
 20
-1786.01268929
 30
0.0
 11
2690.7261494
 21
-1776.49609555
 31
0.0
  0
LINE
  5
406
100
AcDbEntity
  8
Sc.1_5
 62
     9
  6
CONTINUOUS
370
    -2
100
AcDbLine
 10
2692.78295554
 20
-1788.67936312
 30
0.0
 11
2695.34494567
 21
-1779.16276938
 31
0.0
  0
LINE
  5
407
100
AcDbEntity
  8
Sc.1_5
 62
     9
  6
CONTINUOUS
370
    -2
100
AcDbLine
 10
2697.40175181
 20
-1791.34603695
 30
0.0
 11
2699.96374194
 21
-1781.82944321
 31
0.0
  0
LINE
  5
408
100
AcDbEntity
  8
Sc.1_5
 62
     9
  6
CONTINUOUS
370
    -2
100
AcDbLine
 10
2702.02054808
 20
-1794.01271078
 30
0.0
 11
2704.58253821
 21
-1784.49611704
 31
0.0
  0
LINE
  5
409
100
AcDbEntity
  8
Sc.1_5
 62
     9
  6
CONTINUOUS
370
    -2
100
AcDbLine
 10
2706.63934434
 20
-1796.67938461
 30
0.0
 11
2709.20133448
 21
-1787.16279087
 31
0.0
  0
LINE
  5
40A
100
AcDbEntity
  8
Sc.1_5
 62
     9
  6
CONTINUOUS
370
    -2
100
AcDbLine
 10
2711.25814061
 20
-1799.34605844
 30
0.0
 11
2713.82013075
 21
-1789.82946471
 31
0.0
  0
LINE
  5
40B
100
AcDbEntity
  8
Sc.1_5
 62
     9
  6
CONTINUOUS
370
    -2
100
AcDbLine
 10
2715.87693688
 20
-1802.01273228
 30
0.0
 11
2718.43892701
 21
-1792.49613854
 31
0.0
  0
LINE
  5
40C
100
AcDbEntity
  8
Sc.1_5
 62
     9
  6
CONTINUOUS
370
    -2
100
AcDbLine
 10
2720.49573315
 20
-1804.67940611
 30
0.0
 11
2723.05772328
 21
-1795.16281237
 31
0.0
  0
LINE
  5
40D
100
AcDbEntity
  8
Sc.1_5
 62
     9
  6
CONTINUOUS
370
    -2
100
AcDbLine
 10
2725.11452942
 20
-1807.34607994
 30
0.0
 11
2727.67651955
 21
-1797.8294862
 31
0.0
  0
LINE
  5
40E
100
AcDbEntity
  8
Sc.1_5
 62
     9
  6
CONTINUOUS
370
    -2
100
AcDbLine
 10
2730.35559676
 20
-1807.70130808
 30
0.0
 11
2732.29531582
 21
-1800.49616003
 31
0.0
  0
LINE
  5
40F
100
AcDbEntity
  8
Sc.1_5
 62
     9
  6
CONTINUOUS
370
    -2
100
AcDbLine
 10
2683.65494211
 20
-1783.40928099
 30
0.0
 11
2690.61555898
 21
-1776.43223558
 31
0.0
  0
LINE
  5
410
100
AcDbEntity
  8
Sc.1_5
 62
     9
  6
CONTINUOUS
370
    -2
100
AcDbLine
 10
2688.27374753
 20
-1786.07593898
 30
0.0
 11
2695.23436439
 21
-1779.09889357
 31
0.0
  0
LINE
  5
411
100
AcDbEntity
  8
Sc.1_5
 62
     9
  6
CONTINUOUS
370
    -2
100
AcDbLine
 10
2692.89255294
 20
-1788.74259696
 30
0.0
 11
2699.85316981
 21
-1781.76555155
 31
0.0
  0
LINE
  5
412
100
AcDbEntity
  8
Sc.1_5
 62
     9
  6
CONTINUOUS
370
    -2
100
AcDbLine
 10
2697.51135836
 20
-1791.40925495
 30
0.0
 11
2704.47197523
 21
-1784.43220954
 31
0.0
  0
LINE
  5
413
100
AcDbEntity
  8
Sc.1_5
 62
     9
  6
CONTINUOUS
370
    -2
100
AcDbLine
 10
2702.13016377
 20
-1794.07591294
 30
0.0
 11
2709.09078064
 21
-1787.09886753
 31
0.0
  0
LINE
  5
414
100
AcDbEntity
  8
Sc.1_5
 62
     9
  6
CONTINUOUS
370
    -2
100
AcDbLine
 10
2706.74896919
 20
-1796.74257093
 30
0.0
 11
2713.70958606
 21
-1789.76552552
 31
0.0
  0
LINE
  5
415
100
AcDbEntity
  8
Sc.1_5
 62
     9
  6
CONTINUOUS
370
    -2
100
AcDbLine
 10
2711.3677746
 20
-1799.40922892
 30
0.0
 11
2718.32839147
 21
-1792.43218351
 31
0.0
  0
LINE
  5
416
100
AcDbEntity
  8
Sc.1_5
 62
     9
  6
CONTINUOUS
370
    -2
100
AcDbLine
 10
2715.98658002
 20
-1802.0758869
 30
0.0
 11
2722.94719689
 21
-1795.09884149
 31
0.0
  0
LINE
  5
417
100
AcDbEntity
  8
Sc.1_5
 62
     9
  6
CONTINUOUS
370
    -2
100
AcDbLine
 10
2720.60538543
 20
-1804.74254489
 30
0.0
 11
2727.5660023
 21
-1797.76549948
 31
0.0
  0
LINE
  5
418
100
AcDbEntity
  8
Sc.1_5
 62
     9
  6
CONTINUOUS
370
    -2
100
AcDbLine
 10
2725.22419085
 20
-1807.40920288
 30
0.0
 11
2732.18480772
 21
-1800.43215747
 31
0.0
  0
LINE
  5
419
100
AcDbEntity
  8
Sc.1_5
 62
     9
  6
CONTINUOUS
370
    -2
100
AcDbLine
 10
2679.98063201
 20
-1785.02774027
 30
0.0
 11
2680.68161849
 21
-1785.21222764
 31
0.0
  0
LINE
  5
41A
100
AcDbEntity
  8
Sc.1_5
 62
     9
  6
CONTINUOUS
370
    -2
100
AcDbLine
 10
2684.5994341
 20
-1787.6944069
 30
0.0
 11
2685.30042005
 21
-1787.87889413
 31
0.0
  0
LINE
  5
41B
100
AcDbEntity
  8
Sc.1_5
 62
     9
  6
CONTINUOUS
370
    -2
100
AcDbLine
 10
2689.21823619
 20
-1790.36107353
 30
0.0
 11
2689.91922162
 21
-1790.54556062
 31
0.0
  0
LINE
  5
41C
100
AcDbEntity
  8
Sc.1_5
 62
     9
  6
CONTINUOUS
370
    -2
100
AcDbLine
 10
2693.83703828
 20
-1793.02774016
 30
0.0
 11
2694.53802318
 21
-1793.21222711
 31
0.0
  0
LINE
  5
41D
100
AcDbEntity
  8
Sc.1_5
 62
     9
  6
CONTINUOUS
370
    -2
100
AcDbLine
 10
2698.45584037
 20
-1795.69440679
 30
0.0
 11
2699.15682475
 21
-1795.87889361
 31
0.0
  0
LINE
  5
41E
100
AcDbEntity
  8
Sc.1_5
 62
     9
  6
CONTINUOUS
370
    -2
100
AcDbLine
 10
2703.07464246
 20
-1798.36107342
 30
0.0
 11
2703.77562631
 21
-1798.5455601
 31
0.0
  0
LINE
  5
41F
100
AcDbEntity
  8
Sc.1_5
 62
     9
  6
CONTINUOUS
370
    -2
100
AcDbLine
 10
2707.69344455
 20
-1801.02774005
 30
0.0
 11
2708.39442788
 21
-1801.21222659
 31
0.0
  0
LINE
  5
420
100
AcDbEntity
  8
Sc.1_5
 62
     9
  6
CONTINUOUS
370
    -2
100
AcDbLine
 10
2712.31224664
 20
-1803.69440668
 30
0.0
 11
2713.01322944
 21
-1803.87889308
 31
0.0
  0
LINE
  5
421
100
AcDbEntity
  8
Sc.1_5
 62
     9
  6
CONTINUOUS
370
    -2
100
AcDbLine
 10
2716.93104873
 20
-1806.36107331
 30
0.0
 11
2717.63203101
 21
-1806.54555957
 31
0.0
  0
LINE
  5
422
100
AcDbEntity
  8
Sc.1_5
 62
     9
  6
CONTINUOUS
370
    -2
100
AcDbLine
 10
2721.54985082
 20
-1809.02773994
 30
0.0
 11
2722.25083258
 21
-1809.21222607
 31
0.0
  0
LINE
  5
423
100
AcDbEntity
  8
Sc.1_5
 62
     9
  6
CONTINUOUS
370
    -2
100
AcDbLine
 10
2726.16865292
 20
-1811.69440658
 30
0.0
 11
2726.86963414
 21
-1811.87889256
 31
0.0
  0
LINE
  5
424
100
AcDbEntity
  8
Sc.1_5
 62
     9
  6
CONTINUOUS
370
    -2
100
AcDbLine
 10
2683.98089561
 20
-1787.33729354
 30
0.0
 11
2683.47062927
 21
-1786.82246289
 31
0.0
  0
LINE
  5
425
100
AcDbEntity
  8
Sc.1_5
 62
     9
  6
CONTINUOUS
370
    -2
100
AcDbLine
 10
2688.59969996
 20
-1790.00396147
 30
0.0
 11
2688.08943134
 21
-1789.48912852
 31
0.0
  0
LINE
  5
426
100
AcDbEntity
  8
Sc.1_5
 62
     9
  6
CONTINUOUS
370
    -2
100
AcDbLine
 10
2693.21850352
 20
-1792.67062861
 30
0.0
 11
2692.7082334
 21
-1792.15579415
 31
0.0
  0
LINE
  5
427
100
AcDbEntity
  8
Sc.1_5
 62
     9
  6
CONTINUOUS
370
    -2
100
AcDbLine
 10
2697.83730558
 20
-1795.33729424
 30
0.0
 11
2697.32703546
 21
-1794.82245978
 31
0.0
  0
LINE
  5
428
100
AcDbEntity
  8
Sc.1_5
 62
     9
  6
CONTINUOUS
370
    -2
100
AcDbLine
 10
2702.45610765
 20
-1798.00395987
 30
0.0
 11
2701.94583753
 21
-1797.48912541
 31
0.0
  0
LINE
  5
429
100
AcDbEntity
  8
Sc.1_5
 62
     9
  6
CONTINUOUS
370
    -2
100
AcDbLine
 10
2707.07490971
 20
-1800.6706255
 30
0.0
 11
2706.56463959
 21
-1800.15579103
 31
0.0
  0
LINE
  5
42A
100
AcDbEntity
  8
Sc.1_5
 62
     9
  6
CONTINUOUS
370
    -2
100
AcDbLine
 10
2711.69371177
 20
-1803.33729113
 30
0.0
 11
2711.18344165
 21
-1802.82245666
 31
0.0
  0
LINE
  5
42B
100
AcDbEntity
  8
Sc.1_5
 62
     9
  6
CONTINUOUS
370
    -2
100
AcDbLine
 10
2716.31251384
 20
-1806.00395676
 30
0.0
 11
2715.80224372
 21
-1805.48912229
 31
0.0
  0
LINE
  5
42C
100
AcDbEntity
  8
Sc.1_5
 62
     9
  6
CONTINUOUS
370
    -2
100
AcDbLine
 10
2720.9313159
 20
-1808.67062239
 30
0.0
 11
2720.42104578
 21
-1808.15578792
 31
0.0
  0
LINE
  5
42D
100
AcDbEntity
  8
Sc.1_5
 62
     9
  6
CONTINUOUS
370
    -2
100
AcDbLine
 10
2725.55011796
 20
-1811.33728802
 30
0.0
 11
2725.03984784
 21
-1810.82245355
 31
0.0
  0
LINE
  5
42E
100
AcDbEntity
  8
Sc.1_5
 62
     9
  6
CONTINUOUS
370
    -2
100
AcDbLine
 10
2688.97048855
 20
-1771.96305941
 30
0.0
 11
2689.67148336
 21
-1772.14754897
 31
0.0
  0
LINE
  5
42F
100
AcDbEntity
  8
Sc.1_5
 62
     9
  6
CONTINUOUS
370
    -2
100
AcDbLine
 10
2693.58929011
 20
-1774.6297259
 30
0.0
 11
2694.29028493
 21
-1774.81421546
 31
0.0
  0
LINE
  5
430
100
AcDbEntity
  8
Sc.1_5
 62
     9
  6
CONTINUOUS
370
    -2
100
AcDbLine
 10
2698.20809168
 20
-1777.2963924
 30
0.0
 11
2698.90908649
 21
-1777.48088196
 31
0.0
  0
LINE
  5
431
100
AcDbEntity
  8
Sc.1_5
 62
     9
  6
CONTINUOUS
370
    -2
100
AcDbLine
 10
2702.82689324
 20
-1779.96305889
 30
0.0
 11
2703.52788806
 21
-1780.14754845
 31
0.0
  0
LINE
  5
432
100
AcDbEntity
  8
Sc.1_5
 62
     9
  6
CONTINUOUS
370
    -2
100
AcDbLine
 10
2707.44569481
 20
-1782.62972538
 30
0.0
 11
2708.14668962
 21
-1782.81421494
 31
0.0
  0
LINE
  5
433
100
AcDbEntity
  8
Sc.1_5
 62
     9
  6
CONTINUOUS
370
    -2
100
AcDbLine
 10
2712.06449638
 20
-1785.29639187
 30
0.0
 11
2712.76549119
 21
-1785.48088143
 31
0.0
  0
LINE
  5
434
100
AcDbEntity
  8
Sc.1_5
 62
     9
  6
CONTINUOUS
370
    -2
100
AcDbLine
 10
2716.68329794
 20
-1787.96305837
 30
0.0
 11
2717.38429275
 21
-1788.14754792
 31
0.0
  0
LINE
  5
435
100
AcDbEntity
  8
Sc.1_5
 62
     9
  6
CONTINUOUS
370
    -2
100
AcDbLine
 10
2721.30209951
 20
-1790.62972486
 30
0.0
 11
2722.00309432
 21
-1790.81421442
 31
0.0
  0
LINE
  5
436
100
AcDbEntity
  8
Sc.1_5
 62
     9
  6
CONTINUOUS
370
    -2
100
AcDbLine
 10
2725.92090107
 20
-1793.29639135
 30
0.0
 11
2726.62189588
 21
-1793.48088091
 31
0.0
  0
LINE
  5
437
100
AcDbEntity
  8
Sc.1_5
 62
     9
  6
CONTINUOUS
370
    -2
100
AcDbLine
 10
2730.53970264
 20
-1795.96305784
 30
0.0
 11
2731.24069745
 21
-1796.1475474
 31
0.0
  0
LINE
  5
438
100
AcDbEntity
  8
Sc.1_5
 62
     9
  6
CONTINUOUS
370
    -2
100
AcDbLine
 10
2735.1585042
 20
-1798.62972433
 30
0.0
 11
2735.53575586
 21
-1798.72901036
 31
0.0
  0
LINE
  5
439
100
AcDbEntity
  8
Sc.1_5
 62
     9
  6
CONTINUOUS
370
    -2
100
AcDbLine
 10
2731.85925286
 20
-1796.50466823
 30
0.0
 11
2732.36952291
 21
-1797.01950277
 31
0.0
  0
LINE
  5
43A
100
AcDbEntity
  8
Sc.1_5
 62
     9
  6
CONTINUOUS
370
    -2
100
AcDbLine
 10
2727.24045115
 20
-1793.83800198
 30
0.0
 11
2727.75072121
 21
-1794.35283652
 31
0.0
  0
LINE
  5
43B
100
AcDbEntity
  8
Sc.1_5
 62
     9
  6
CONTINUOUS
370
    -2
100
AcDbLine
 10
2722.62164945
 20
-1791.17133574
 30
0.0
 11
2723.1319195
 21
-1791.68617028
 31
0.0
  0
LINE
  5
43C
100
AcDbEntity
  8
Sc.1_5
 62
     9
  6
CONTINUOUS
370
    -2
100
AcDbLine
 10
2718.00284774
 20
-1788.5046695
 30
0.0
 11
2718.51311779
 21
-1789.01950403
 31
0.0
  0
LINE
  5
43D
100
AcDbEntity
  8
Sc.1_5
 62
     9
  6
CONTINUOUS
370
    -2
100
AcDbLine
 10
2713.38404603
 20
-1785.83800325
 30
0.0
 11
2713.89431608
 21
-1786.35283779
 31
0.0
  0
LINE
  5
43E
100
AcDbEntity
  8
Sc.1_5
 62
     9
  6
CONTINUOUS
370
    -2
100
AcDbLine
 10
2708.76524432
 20
-1783.17133701
 30
0.0
 11
2709.27551437
 21
-1783.68617154
 31
0.0
  0
LINE
  5
43F
100
AcDbEntity
  8
Sc.1_5
 62
     9
  6
CONTINUOUS
370
    -2
100
AcDbLine
 10
2704.14644261
 20
-1780.50467076
 30
0.0
 11
2704.65671266
 21
-1781.0195053
 31
0.0
  0
LINE
  5
440
100
AcDbEntity
  8
Sc.1_5
 62
     9
  6
CONTINUOUS
370
    -2
100
AcDbLine
 10
2699.5276409
 20
-1777.83800452
 30
0.0
 11
2700.03791096
 21
-1778.35283905
 31
0.0
  0
LINE
  5
441
100
AcDbEntity
  8
Sc.1_5
 62
     9
  6
CONTINUOUS
370
    -2
100
AcDbLine
 10
2694.9088392
 20
-1775.17133827
 30
0.0
 11
2695.41910925
 21
-1775.68617281
 31
0.0
  0
LINE
  5
442
100
AcDbEntity
  8
Sc.1_5
 62
     9
  6
CONTINUOUS
370
    -2
100
AcDbLine
 10
2690.29003749
 20
-1772.50467203
 30
0.0
 11
2690.80030754
 21
-1773.01950656
 31
0.0
  0
LINE
  5
443
100
AcDbEntity
  8
Sc.1_5
 62
     9
  6
CONTINUOUS
370
    -2
100
AcDbLine
 10
2680.68162908
 20
-1785.21222991
 30
0.0
 11
2681.37790976
 21
-1785.20051686
 31
0.0
  0
LINE
  5
444
100
AcDbEntity
  8
Sc.1_5
 62
     9
  6
CONTINUOUS
370
    -2
100
AcDbLine
 10
2685.30043168
 20
-1787.87889679
 30
0.0
 11
2685.99671236
 21
-1787.86718374
 31
0.0
  0
LINE
  5
445
100
AcDbEntity
  8
Sc.1_5
 62
     9
  6
CONTINUOUS
370
    -2
100
AcDbLine
 10
2689.91923428
 20
-1790.54556367
 30
0.0
 11
2690.61551496
 21
-1790.53385062
 31
0.0
  0
LINE
  5
446
100
AcDbEntity
  8
Sc.1_5
 62
     9
  6
CONTINUOUS
370
    -2
100
AcDbLine
 10
2694.53803687
 20
-1793.21223055
 30
0.0
 11
2695.23431756
 21
-1793.2005175
 31
0.0
  0
LINE
  5
447
100
AcDbEntity
  8
Sc.1_5
 62
     9
  6
CONTINUOUS
370
    -2
100
AcDbLine
 10
2699.15683947
 20
-1795.87889744
 30
0.0
 11
2699.85312015
 21
-1795.86718439
 31
0.0
  0
LINE
  5
448
100
AcDbEntity
  8
Sc.1_5
 62
     9
  6
CONTINUOUS
370
    -2
100
AcDbLine
 10
2703.77564207
 20
-1798.54556432
 30
0.0
 11
2704.47192275
 21
-1798.53385127
 31
0.0
  0
LINE
  5
449
100
AcDbEntity
  8
Sc.1_5
 62
     9
  6
CONTINUOUS
370
    -2
100
AcDbLine
 10
2708.39444467
 20
-1801.2122312
 30
0.0
 11
2709.09072535
 21
-1801.20051815
 31
0.0
  0
LINE
  5
44A
100
AcDbEntity
  8
Sc.1_5
 62
     9
  6
CONTINUOUS
370
    -2
100
AcDbLine
 10
2713.01324727
 20
-1803.87889808
 30
0.0
 11
2713.70952795
 21
-1803.86718503
 31
0.0
  0
LINE
  5
44B
100
AcDbEntity
  8
Sc.1_5
 62
     9
  6
CONTINUOUS
370
    -2
100
AcDbLine
 10
2717.63204986
 20
-1806.54556497
 30
0.0
 11
2718.32833054
 21
-1806.53385191
 31
0.0
  0
LINE
  5
44C
100
AcDbEntity
  8
Sc.1_5
 62
     9
  6
CONTINUOUS
370
    -2
100
AcDbLine
 10
2722.25085246
 20
-1809.21223185
 30
0.0
 11
2722.94713314
 21
-1809.2005188
 31
0.0
  0
LINE
  5
44D
100
AcDbEntity
  8
Sc.1_5
 62
     9
  6
CONTINUOUS
370
    -2
100
AcDbLine
 10
2726.86965506
 20
-1811.87889873
 30
0.0
 11
2727.56593574
 21
-1811.86718568
 31
0.0
  0
LINE
  5
44E
100
AcDbEntity
  8
Sc.1_5
 62
     9
  6
CONTINUOUS
370
    -2
100
AcDbLine
 10
2683.46720269
 20
-1786.82048203
 30
0.0
 11
2683.12920619
 21
-1786.21162873
 31
0.0
  0
LINE
  5
44F
100
AcDbEntity
  8
Sc.1_5
 62
     9
  6
CONTINUOUS
370
    -2
100
AcDbLine
 10
2688.08600508
 20
-1789.48714928
 30
0.0
 11
2687.74800858
 21
-1788.87829598
 31
0.0
  0
LINE
  5
450
100
AcDbEntity
  8
Sc.1_5
 62
     9
  6
CONTINUOUS
370
    -2
100
AcDbLine
 10
2692.70480746
 20
-1792.15381653
 30
0.0
 11
2692.36681096
 21
-1791.54496323
 31
0.0
  0
LINE
  5
451
100
AcDbEntity
  8
Sc.1_5
 62
     9
  6
CONTINUOUS
370
    -2
100
AcDbLine
 10
2697.32360985
 20
-1794.82048379
 30
0.0
 11
2696.98561335
 21
-1794.21163048
 31
0.0
  0
LINE
  5
452
100
AcDbEntity
  8
Sc.1_5
 62
     9
  6
CONTINUOUS
370
    -2
100
AcDbLine
 10
2701.94241223
 20
-1797.48715104
 30
0.0
 11
2701.60441573
 21
-1796.87829773
 31
0.0
  0
LINE
  5
453
100
AcDbEntity
  8
Sc.1_5
 62
     9
  6
CONTINUOUS
370
    -2
100
AcDbLine
 10
2706.56121462
 20
-1800.15381829
 30
0.0
 11
2706.22321811
 21
-1799.54496498
 31
0.0
  0
LINE
  5
454
100
AcDbEntity
  8
Sc.1_5
 62
     9
  6
CONTINUOUS
370
    -2
100
AcDbLine
 10
2711.180017
 20
-1802.82048554
 30
0.0
 11
2710.8420205
 21
-1802.21163223
 31
0.0
  0
LINE
  5
455
100
AcDbEntity
  8
Sc.1_5
 62
     9
  6
CONTINUOUS
370
    -2
100
AcDbLine
 10
2715.79881939
 20
-1805.48715279
 30
0.0
 11
2715.46082288
 21
-1804.87829948
 31
0.0
  0
LINE
  5
456
100
AcDbEntity
  8
Sc.1_5
 62
     9
  6
CONTINUOUS
370
    -2
100
AcDbLine
 10
2720.41762177
 20
-1808.15382004
 30
0.0
 11
2720.07962527
 21
-1807.54496673
 31
0.0
  0
LINE
  5
457
100
AcDbEntity
  8
Sc.1_5
 62
     9
  6
CONTINUOUS
370
    -2
100
AcDbLine
 10
2725.03642415
 20
-1810.82048729
 30
0.0
 11
2724.69842765
 21
-1810.21163399
 31
0.0
  0
LINE
  5
458
100
AcDbEntity
  8
Sc.1_5
 62
     9
  6
CONTINUOUS
370
    -2
100
AcDbLine
 10
2688.27421938
 20
-1771.97477692
 30
0.0
 11
2688.97050007
 21
-1771.96306387
 31
0.0
  0
LINE
  5
459
100
AcDbEntity
  8
Sc.1_5
 62
     9
  6
CONTINUOUS
370
    -2
100
AcDbLine
 10
2692.89302198
 20
-1774.6414438
 30
0.0
 11
2693.58930266
 21
-1774.62973075
 31
0.0
  0
LINE
  5
45A
100
AcDbEntity
  8
Sc.1_5
 62
     9
  6
CONTINUOUS
370
    -2
100
AcDbLine
 10
2697.51182458
 20
-1777.30811068
 30
0.0
 11
2698.20810526
 21
-1777.29639763
 31
0.0
  0
LINE
  5
45B
100
AcDbEntity
  8
Sc.1_5
 62
     9
  6
CONTINUOUS
370
    -2
100
AcDbLine
 10
2702.13062718
 20
-1779.97477757
 30
0.0
 11
2702.82690786
 21
-1779.96306452
 31
0.0
  0
LINE
  5
45C
100
AcDbEntity
  8
Sc.1_5
 62
     9
  6
CONTINUOUS
370
    -2
100
AcDbLine
 10
2706.74942978
 20
-1782.64144445
 30
0.0
 11
2707.44571046
 21
-1782.6297314
 31
0.0
  0
LINE
  5
45D
100
AcDbEntity
  8
Sc.1_5
 62
     9
  6
CONTINUOUS
370
    -2
100
AcDbLine
 10
2711.36823237
 20
-1785.30811133
 30
0.0
 11
2712.06451305
 21
-1785.29639828
 31
0.0
  0
LINE
  5
45E
100
AcDbEntity
  8
Sc.1_5
 62
     9
  6
CONTINUOUS
370
    -2
100
AcDbLine
 10
2715.98703497
 20
-1787.97477821
 30
0.0
 11
2716.68331565
 21
-1787.96306516
 31
0.0
  0
LINE
  5
45F
100
AcDbEntity
  8
Sc.1_5
 62
     9
  6
CONTINUOUS
370
    -2
100
AcDbLine
 10
2720.60583757
 20
-1790.64144509
 30
0.0
 11
2721.30211825
 21
-1790.62973204
 31
0.0
  0
LINE
  5
460
100
AcDbEntity
  8
Sc.1_5
 62
     9
  6
CONTINUOUS
370
    -2
100
AcDbLine
 10
2725.22464017
 20
-1793.30811198
 30
0.0
 11
2725.92092085
 21
-1793.29639893
 31
0.0
  0
LINE
  5
461
100
AcDbEntity
  8
Sc.1_5
 62
     9
  6
CONTINUOUS
370
    -2
100
AcDbLine
 10
2729.84344276
 20
-1795.97477886
 30
0.0
 11
2730.53972345
 21
-1795.96306581
 31
0.0
  0
LINE
  5
462
100
AcDbEntity
  8
Sc.1_5
 62
     9
  6
CONTINUOUS
370
    -2
100
AcDbLine
 10
2734.46224536
 20
-1798.64144574
 30
0.0
 11
2735.15852604
 21
-1798.62973269
 31
0.0
  0
LINE
  5
463
100
AcDbEntity
  8
Sc.1_5
 62
     9
  6
CONTINUOUS
370
    -2
100
AcDbLine
 10
2732.3695235
 20
-1797.01950049
 30
0.0
 11
2732.70752004
 21
-1797.62835378
 31
0.0
  0
LINE
  5
464
100
AcDbEntity
  8
Sc.1_5
 62
     9
  6
CONTINUOUS
370
    -2
100
AcDbLine
 10
2727.75072093
 20
-1794.35283355
 30
0.0
 11
2728.08871748
 21
-1794.96168683
 31
0.0
  0
LINE
  5
465
100
AcDbEntity
  8
Sc.1_5
 62
     9
  6
CONTINUOUS
370
    -2
100
AcDbLine
 10
2723.13191837
 20
-1791.68616661
 30
0.0
 11
2723.46991491
 21
-1792.29501989
 31
0.0
  0
LINE
  5
466
100
AcDbEntity
  8
Sc.1_5
 62
     9
  6
CONTINUOUS
370
    -2
100
AcDbLine
 10
2718.51311581
 20
-1789.01949966
 30
0.0
 11
2718.85111235
 21
-1789.62835295
 31
0.0
  0
LINE
  5
467
100
AcDbEntity
  8
Sc.1_5
 62
     9
  6
CONTINUOUS
370
    -2
100
AcDbLine
 10
2713.89431325
 20
-1786.35283272
 30
0.0
 11
2714.23230979
 21
-1786.961686
 31
0.0
  0
LINE
  5
468
100
AcDbEntity
  8
Sc.1_5
 62
     9
  6
CONTINUOUS
370
    -2
100
AcDbLine
 10
2709.27551069
 20
-1783.68616578
 30
0.0
 11
2709.61350723
 21
-1784.29501906
 31
0.0
  0
LINE
  5
469
100
AcDbEntity
  8
Sc.1_5
 62
     9
  6
CONTINUOUS
370
    -2
100
AcDbLine
 10
2704.65670812
 20
-1781.01949883
 30
0.0
 11
2704.99470466
 21
-1781.62835212
 31
0.0
  0
LINE
  5
46A
100
AcDbEntity
  8
Sc.1_5
 62
     9
  6
CONTINUOUS
370
    -2
100
AcDbLine
 10
2700.03790556
 20
-1778.35283189
 30
0.0
 11
2700.3759021
 21
-1778.96168517
 31
0.0
  0
LINE
  5
46B
100
AcDbEntity
  8
Sc.1_5
 62
     9
  6
CONTINUOUS
370
    -2
100
AcDbLine
 10
2695.419103
 20
-1775.68616495
 30
0.0
 11
2695.75709954
 21
-1776.29501823
 31
0.0
  0
LINE
  5
46C
100
AcDbEntity
  8
Sc.1_5
 62
     9
  6
CONTINUOUS
370
    -2
100
AcDbLine
 10
2690.80030044
 20
-1773.019498
 30
0.0
 11
2691.13829698
 21
-1773.62835129
 31
0.0
  0
LINE
  5
46D
100
AcDbEntity
  8
Sc.1_5
 62
     9
  6
CONTINUOUS
370
    -2
100
AcDbLine
 10
2681.37790759
 20
-1785.20051637
 30
0.0
 11
2681.94993504
 21
-1785.04724208
 31
0.0
  0
LINE
  5
46E
100
AcDbEntity
  8
Sc.1_5
 62
     9
  6
CONTINUOUS
370
    -2
100
AcDbLine
 10
2685.99671059
 20
-1787.86718353
 30
0.0
 11
2686.56873804
 21
-1787.71390923
 31
0.0
  0
LINE
  5
46F
100
AcDbEntity
  8
Sc.1_5
 62
     9
  6
CONTINUOUS
370
    -2
100
AcDbLine
 10
2690.61551359
 20
-1790.53385068
 30
0.0
 11
2691.18754104
 21
-1790.38057639
 31
0.0
  0
LINE
  5
470
100
AcDbEntity
  8
Sc.1_5
 62
     9
  6
CONTINUOUS
370
    -2
100
AcDbLine
 10
2695.23431659
 20
-1793.20051784
 30
0.0
 11
2695.80634404
 21
-1793.04724354
 31
0.0
  0
LINE
  5
471
100
AcDbEntity
  8
Sc.1_5
 62
     9
  6
CONTINUOUS
370
    -2
100
AcDbLine
 10
2699.85311959
 20
-1795.86718499
 30
0.0
 11
2700.42514704
 21
-1795.7139107
 31
0.0
  0
LINE
  5
472
100
AcDbEntity
  8
Sc.1_5
 62
     9
  6
CONTINUOUS
370
    -2
100
AcDbLine
 10
2704.47192259
 20
-1798.53385215
 30
0.0
 11
2705.04395004
 21
-1798.38057785
 31
0.0
  0
LINE
  5
473
100
AcDbEntity
  8
Sc.1_5
 62
     9
  6
CONTINUOUS
370
    -2
100
AcDbLine
 10
2709.09072559
 20
-1801.2005193
 30
0.0
 11
2709.66275304
 21
-1801.04724501
 31
0.0
  0
LINE
  5
474
100
AcDbEntity
  8
Sc.1_5
 62
     9
  6
CONTINUOUS
370
    -2
100
AcDbLine
 10
2713.70952859
 20
-1803.86718646
 30
0.0
 11
2714.28155604
 21
-1803.71391216
 31
0.0
  0
LINE
  5
475
100
AcDbEntity
  8
Sc.1_5
 62
     9
  6
CONTINUOUS
370
    -2
100
AcDbLine
 10
2718.32833159
 20
-1806.53385361
 30
0.0
 11
2718.90035904
 21
-1806.38057932
 31
0.0
  0
LINE
  5
476
100
AcDbEntity
  8
Sc.1_5
 62
     9
  6
CONTINUOUS
370
    -2
100
AcDbLine
 10
2722.94713459
 20
-1809.20052077
 30
0.0
 11
2723.51916204
 21
-1809.04724647
 31
0.0
  0
LINE
  5
477
100
AcDbEntity
  8
Sc.1_5
 62
     9
  6
CONTINUOUS
370
    -2
100
AcDbLine
 10
2727.56593759
 20
-1811.86718792
 30
0.0
 11
2728.02079066
 21
-1811.74531041
 31
0.0
  0
LINE
  5
478
100
AcDbEntity
  8
Sc.1_5
 62
     9
  6
CONTINUOUS
370
    -2
100
AcDbLine
 10
2683.13262614
 20
-1786.21360359
 30
0.0
 11
2682.97935184
 21
-1785.64157615
 31
0.0
  0
LINE
  5
479
100
AcDbEntity
  8
Sc.1_5
 62
     9
  6
CONTINUOUS
370
    -2
100
AcDbLine
 10
2687.75142914
 20
-1788.88027075
 30
0.0
 11
2687.59815484
 21
-1788.3082433
 31
0.0
  0
LINE
  5
47A
100
AcDbEntity
  8
Sc.1_5
 62
     9
  6
CONTINUOUS
370
    -2
100
AcDbLine
 10
2692.37023214
 20
-1791.5469379
 30
0.0
 11
2692.21695784
 21
-1790.97491046
 31
0.0
  0
LINE
  5
47B
100
AcDbEntity
  8
Sc.1_5
 62
     9
  6
CONTINUOUS
370
    -2
100
AcDbLine
 10
2696.98903513
 20
-1794.21360506
 30
0.0
 11
2696.83576084
 21
-1793.64157761
 31
0.0
  0
LINE
  5
47C
100
AcDbEntity
  8
Sc.1_5
 62
     9
  6
CONTINUOUS
370
    -2
100
AcDbLine
 10
2701.60783813
 20
-1796.88027222
 30
0.0
 11
2701.45456384
 21
-1796.30824477
 31
0.0
  0
LINE
  5
47D
100
AcDbEntity
  8
Sc.1_5
 62
     9
  6
CONTINUOUS
370
    -2
100
AcDbLine
 10
2706.22664113
 20
-1799.54693937
 30
0.0
 11
2706.07336684
 21
-1798.97491192
 31
0.0
  0
LINE
  5
47E
100
AcDbEntity
  8
Sc.1_5
 62
     9
  6
CONTINUOUS
370
    -2
100
AcDbLine
 10
2710.84544413
 20
-1802.21360653
 30
0.0
 11
2710.69216984
 21
-1801.64157908
 31
0.0
  0
LINE
  5
47F
100
AcDbEntity
  8
Sc.1_5
 62
     9
  6
CONTINUOUS
370
    -2
100
AcDbLine
 10
2715.46424713
 20
-1804.88027368
 30
0.0
 11
2715.31097284
 21
-1804.30824623
 31
0.0
  0
LINE
  5
480
100
AcDbEntity
  8
Sc.1_5
 62
     9
  6
CONTINUOUS
370
    -2
100
AcDbLine
 10
2720.08305013
 20
-1807.54694084
 30
0.0
 11
2719.92977584
 21
-1806.97491339
 31
0.0
  0
LINE
  5
481
100
AcDbEntity
  8
Sc.1_5
 62
     9
  6
CONTINUOUS
370
    -2
100
AcDbLine
 10
2724.70185313
 20
-1810.21360799
 30
0.0
 11
2724.54857884
 21
-1809.64158054
 31
0.0
  0
LINE
  5
482
100
AcDbEntity
  8
Sc.1_5
 62
     9
  6
CONTINUOUS
370
    -2
100
AcDbLine
 10
2687.70219211
 20
-1772.12805098
 30
0.0
 11
2688.27421955
 21
-1771.97477669
 31
0.0
  0
LINE
  5
483
100
AcDbEntity
  8
Sc.1_5
 62
     9
  6
CONTINUOUS
370
    -2
100
AcDbLine
 10
2692.32099511
 20
-1774.79471813
 30
0.0
 11
2692.89302255
 21
-1774.64144384
 31
0.0
  0
LINE
  5
484
100
AcDbEntity
  8
Sc.1_5
 62
     9
  6
CONTINUOUS
370
    -2
100
AcDbLine
 10
2696.93979811
 20
-1777.46138529
 30
0.0
 11
2697.51182555
 21
-1777.308111
 31
0.0
  0
LINE
  5
485
100
AcDbEntity
  8
Sc.1_5
 62
     9
  6
CONTINUOUS
370
    -2
100
AcDbLine
 10
2701.55860111
 20
-1780.12805245
 30
0.0
 11
2702.13062855
 21
-1779.97477815
 31
0.0
  0
LINE
  5
486
100
AcDbEntity
  8
Sc.1_5
 62
     9
  6
CONTINUOUS
370
    -2
100
AcDbLine
 10
2706.17740411
 20
-1782.7947196
 30
0.0
 11
2706.74943155
 21
-1782.64144531
 31
0.0
  0
LINE
  5
487
100
AcDbEntity
  8
Sc.1_5
 62
     9
  6
CONTINUOUS
370
    -2
100
AcDbLine
 10
2710.79620711
 20
-1785.46138676
 30
0.0
 11
2711.36823455
 21
-1785.30811246
 31
0.0
  0
LINE
  5
488
100
AcDbEntity
  8
Sc.1_5
 62
     9
  6
CONTINUOUS
370
    -2
100
AcDbLine
 10
2715.41501011
 20
-1788.12805391
 30
0.0
 11
2715.98703755
 21
-1787.97477962
 31
0.0
  0
LINE
  5
489
100
AcDbEntity
  8
Sc.1_5
 62
     9
  6
CONTINUOUS
370
    -2
100
AcDbLine
 10
2720.0338131
 20
-1790.79472107
 30
0.0
 11
2720.60584055
 21
-1790.64144677
 31
0.0
  0
LINE
  5
48A
100
AcDbEntity
  8
Sc.1_5
 62
     9
  6
CONTINUOUS
370
    -2
100
AcDbLine
 10
2724.6526161
 20
-1793.46138822
 30
0.0
 11
2725.22464355
 21
-1793.30811393
 31
0.0
  0
LINE
  5
48B
100
AcDbEntity
  8
Sc.1_5
 62
     9
  6
CONTINUOUS
370
    -2
100
AcDbLine
 10
2729.2714191
 20
-1796.12805538
 30
0.0
 11
2729.84344655
 21
-1795.97478108
 31
0.0
  0
LINE
  5
48C
100
AcDbEntity
  8
Sc.1_5
 62
     9
  6
CONTINUOUS
370
    -2
100
AcDbLine
 10
2733.8902221
 20
-1798.79472253
 30
0.0
 11
2734.46224955
 21
-1798.64144824
 31
0.0
  0
LINE
  5
48D
100
AcDbEntity
  8
Sc.1_5
 62
     9
  6
CONTINUOUS
370
    -2
100
AcDbLine
 10
2732.70752279
 20
-1797.62835814
 30
0.0
 11
2732.86079708
 21
-1798.20038559
 31
0.0
  0
LINE
  5
48E
100
AcDbEntity
  8
Sc.1_5
 62
     9
  6
CONTINUOUS
370
    -2
100
AcDbLine
 10
2728.08871979
 20
-1794.96169099
 30
0.0
 11
2728.24199408
 21
-1795.53371844
 31
0.0
  0
LINE
  5
48F
100
AcDbEntity
  8
Sc.1_5
 62
     9
  6
CONTINUOUS
370
    -2
100
AcDbLine
 10
2723.46991679
 20
-1792.29502383
 30
0.0
 11
2723.62319108
 21
-1792.86705128
 31
0.0
  0
LINE
  5
490
100
AcDbEntity
  8
Sc.1_5
 62
     9
  6
CONTINUOUS
370
    -2
100
AcDbLine
 10
2718.85111379
 20
-1789.62835668
 30
0.0
 11
2719.00438808
 21
-1790.20038413
 31
0.0
  0
LINE
  5
491
100
AcDbEntity
  8
Sc.1_5
 62
     9
  6
CONTINUOUS
370
    -2
100
AcDbLine
 10
2714.23231079
 20
-1786.96168952
 30
0.0
 11
2714.38558508
 21
-1787.53371697
 31
0.0
  0
LINE
  5
492
100
AcDbEntity
  8
Sc.1_5
 62
     9
  6
CONTINUOUS
370
    -2
100
AcDbLine
 10
2709.61350779
 20
-1784.29502237
 30
0.0
 11
2709.76678208
 21
-1784.86704982
 31
0.0
  0
LINE
  5
493
100
AcDbEntity
  8
Sc.1_5
 62
     9
  6
CONTINUOUS
370
    -2
100
AcDbLine
 10
2704.99470479
 20
-1781.62835521
 30
0.0
 11
2705.14797908
 21
-1782.20038266
 31
0.0
  0
LINE
  5
494
100
AcDbEntity
  8
Sc.1_5
 62
     9
  6
CONTINUOUS
370
    -2
100
AcDbLine
 10
2700.37590179
 20
-1778.96168806
 30
0.0
 11
2700.52917608
 21
-1779.53371551
 31
0.0
  0
LINE
  5
495
100
AcDbEntity
  8
Sc.1_5
 62
     9
  6
CONTINUOUS
370
    -2
100
AcDbLine
 10
2695.75709879
 20
-1776.2950209
 30
0.0
 11
2695.91037308
 21
-1776.86704835
 31
0.0
  0
LINE
  5
496
100
AcDbEntity
  8
Sc.1_5
 62
     9
  6
CONTINUOUS
370
    -2
100
AcDbLine
 10
2691.13829579
 20
-1773.62835375
 30
0.0
 11
2691.29157008
 21
-1774.2003812
 31
0.0
  0
LINE
  5
497
100
AcDbEntity
  8
Sc.1_5
 62
     9
  6
CONTINUOUS
370
    -2
100
AcDbLine
 10
2681.94993487
 20
-1785.04724078
 30
0.0
 11
2682.50675442
 21
-1784.77192329
 31
0.0
  0
LINE
  5
498
100
AcDbEntity
  8
Sc.1_5
 62
     9
  6
CONTINUOUS
370
    -2
100
AcDbLine
 10
2686.56873762
 20
-1787.7139071
 30
0.0
 11
2687.12555718
 21
-1787.43858961
 31
0.0
  0
LINE
  5
499
100
AcDbEntity
  8
Sc.1_5
 62
     9
  6
CONTINUOUS
370
    -2
100
AcDbLine
 10
2691.18754038
 20
-1790.38057341
 30
0.0
 11
2691.74435993
 21
-1790.10525593
 31
0.0
  0
LINE
  5
49A
100
AcDbEntity
  8
Sc.1_5
 62
     9
  6
CONTINUOUS
370
    -2
100
AcDbLine
 10
2695.80634314
 20
-1793.04723973
 30
0.0
 11
2696.36316269
 21
-1792.77192225
 31
0.0
  0
LINE
  5
49B
100
AcDbEntity
  8
Sc.1_5
 62
     9
  6
CONTINUOUS
370
    -2
100
AcDbLine
 10
2700.42514589
 20
-1795.71390605
 30
0.0
 11
2700.98196545
 21
-1795.43858857
 31
0.0
  0
LINE
  5
49C
100
AcDbEntity
  8
Sc.1_5
 62
     9
  6
CONTINUOUS
370
    -2
100
AcDbLine
 10
2705.04394865
 20
-1798.38057237
 30
0.0
 11
2705.60076821
 21
-1798.10525489
 31
0.0
  0
LINE
  5
49D
100
AcDbEntity
  8
Sc.1_5
 62
     9
  6
CONTINUOUS
370
    -2
100
AcDbLine
 10
2709.66275141
 20
-1801.04723869
 30
0.0
 11
2710.21957096
 21
-1800.7719212
 31
0.0
  0
LINE
  5
49E
100
AcDbEntity
  8
Sc.1_5
 62
     9
  6
CONTINUOUS
370
    -2
100
AcDbLine
 10
2714.28155417
 20
-1803.713905
 30
0.0
 11
2714.83837372
 21
-1803.43858752
 31
0.0
  0
LINE
  5
49F
100
AcDbEntity
  8
Sc.1_5
 62
     9
  6
CONTINUOUS
370
    -2
100
AcDbLine
 10
2718.90035692
 20
-1806.38057132
 30
0.0
 11
2719.45717648
 21
-1806.10525384
 31
0.0
  0
LINE
  5
4A0
100
AcDbEntity
  8
Sc.1_5
 62
     9
  6
CONTINUOUS
370
    -2
100
AcDbLine
 10
2723.51915968
 20
-1809.04723764
 30
0.0
 11
2724.07597924
 21
-1808.77192016
 31
0.0
  0
LINE
  5
4A1
100
AcDbEntity
  8
Sc.1_5
 62
     9
  6
CONTINUOUS
370
    -2
100
AcDbLine
 10
2682.97935111
 20
-1785.64157563
 30
0.0
 11
2682.93937331
 21
-1785.02169701
 31
0.0
  0
LINE
  5
4A2
100
AcDbEntity
  8
Sc.1_5
 62
     9
  6
CONTINUOUS
370
    -2
100
AcDbLine
 10
2687.59815308
 20
-1788.3082433
 30
0.0
 11
2687.55817528
 21
-1787.68836468
 31
0.0
  0
LINE
  5
4A3
100
AcDbEntity
  8
Sc.1_5
 62
     9
  6
CONTINUOUS
370
    -2
100
AcDbLine
 10
2692.21695506
 20
-1790.97491097
 30
0.0
 11
2692.17697726
 21
-1790.35503235
 31
0.0
  0
LINE
  5
4A4
100
AcDbEntity
  8
Sc.1_5
 62
     9
  6
CONTINUOUS
370
    -2
100
AcDbLine
 10
2696.83575704
 20
-1793.64157864
 30
0.0
 11
2696.79577923
 21
-1793.02170002
 31
0.0
  0
LINE
  5
4A5
100
AcDbEntity
  8
Sc.1_5
 62
     9
  6
CONTINUOUS
370
    -2
100
AcDbLine
 10
2701.45455901
 20
-1796.30824632
 30
0.0
 11
2701.41458121
 21
-1795.68836769
 31
0.0
  0
LINE
  5
4A6
100
AcDbEntity
  8
Sc.1_5
 62
     9
  6
CONTINUOUS
370
    -2
100
AcDbLine
 10
2706.07336099
 20
-1798.97491399
 30
0.0
 11
2706.03338319
 21
-1798.35503536
 31
0.0
  0
LINE
  5
4A7
100
AcDbEntity
  8
Sc.1_5
 62
     9
  6
CONTINUOUS
370
    -2
100
AcDbLine
 10
2710.69216296
 20
-1801.64158166
 30
0.0
 11
2710.65218516
 21
-1801.02170303
 31
0.0
  0
LINE
  5
4A8
100
AcDbEntity
  8
Sc.1_5
 62
     9
  6
CONTINUOUS
370
    -2
100
AcDbLine
 10
2715.31096494
 20
-1804.30824933
 30
0.0
 11
2715.27098714
 21
-1803.68837071
 31
0.0
  0
LINE
  5
4A9
100
AcDbEntity
  8
Sc.1_5
 62
     9
  6
CONTINUOUS
370
    -2
100
AcDbLine
 10
2719.92976692
 20
-1806.974917
 30
0.0
 11
2719.88978911
 21
-1806.35503838
 31
0.0
  0
LINE
  5
4AA
100
AcDbEntity
  8
Sc.1_5
 62
     9
  6
CONTINUOUS
370
    -2
100
AcDbLine
 10
2724.54856889
 20
-1809.64158467
 30
0.0
 11
2724.50859109
 21
-1809.02170605
 31
0.0
  0
LINE
  5
4AB
100
AcDbEntity
  8
Sc.1_5
 62
     9
  6
CONTINUOUS
370
    -2
100
AcDbLine
 10
2687.14537168
 20
-1772.40336653
 30
0.0
 11
2687.70219124
 21
-1772.12804905
 31
0.0
  0
LINE
  5
4AC
100
AcDbEntity
  8
Sc.1_5
 62
     9
  6
CONTINUOUS
370
    -2
100
AcDbLine
 10
2691.76417444
 20
-1775.07003285
 30
0.0
 11
2692.32099399
 21
-1774.79471537
 31
0.0
  0
LINE
  5
4AD
100
AcDbEntity
  8
Sc.1_5
 62
     9
  6
CONTINUOUS
370
    -2
100
AcDbLine
 10
2696.3829772
 20
-1777.73669917
 30
0.0
 11
2696.93979675
 21
-1777.46138168
 31
0.0
  0
LINE
  5
4AE
100
AcDbEntity
  8
Sc.1_5
 62
     9
  6
CONTINUOUS
370
    -2
100
AcDbLine
 10
2701.00177995
 20
-1780.40336549
 30
0.0
 11
2701.55859951
 21
-1780.128048
 31
0.0
  0
LINE
  5
4AF
100
AcDbEntity
  8
Sc.1_5
 62
     9
  6
CONTINUOUS
370
    -2
100
AcDbLine
 10
2705.62058271
 20
-1783.0700318
 30
0.0
 11
2706.17740227
 21
-1782.79471432
 31
0.0
  0
LINE
  5
4B0
100
AcDbEntity
  8
Sc.1_5
 62
     9
  6
CONTINUOUS
370
    -2
100
AcDbLine
 10
2710.23938547
 20
-1785.73669812
 30
0.0
 11
2710.79620502
 21
-1785.46138064
 31
0.0
  0
LINE
  5
4B1
100
AcDbEntity
  8
Sc.1_5
 62
     9
  6
CONTINUOUS
370
    -2
100
AcDbLine
 10
2714.85818823
 20
-1788.40336444
 30
0.0
 11
2715.41500778
 21
-1788.12804696
 31
0.0
  0
LINE
  5
4B2
100
AcDbEntity
  8
Sc.1_5
 62
     9
  6
CONTINUOUS
370
    -2
100
AcDbLine
 10
2719.47699098
 20
-1791.07003076
 30
0.0
 11
2720.03381054
 21
-1790.79471327
 31
0.0
  0
LINE
  5
4B3
100
AcDbEntity
  8
Sc.1_5
 62
     9
  6
CONTINUOUS
370
    -2
100
AcDbLine
 10
2724.09579374
 20
-1793.73669708
 30
0.0
 11
2724.65261329
 21
-1793.46137959
 31
0.0
  0
LINE
  5
4B4
100
AcDbEntity
  8
Sc.1_5
 62
     9
  6
CONTINUOUS
370
    -2
100
AcDbLine
 10
2728.7145965
 20
-1796.40336339
 30
0.0
 11
2729.27141605
 21
-1796.12804591
 31
0.0
  0
LINE
  5
4B5
100
AcDbEntity
  8
Sc.1_5
 62
     9
  6
CONTINUOUS
370
    -2
100
AcDbLine
 10
2733.33339925
 20
-1799.07002971
 30
0.0
 11
2733.89021881
 21
-1798.79471223
 31
0.0
  0
LINE
  5
4B6
100
AcDbEntity
  8
Sc.1_5
 62
     9
  6
CONTINUOUS
370
    -2
100
AcDbLine
 10
2732.86079272
 20
-1798.20038495
 30
0.0
 11
2732.90077056
 21
-1798.82026357
 31
0.0
  0
LINE
  5
4B7
100
AcDbEntity
  8
Sc.1_5
 62
     9
  6
CONTINUOUS
370
    -2
100
AcDbLine
 10
2728.24199057
 20
-1795.53371759
 30
0.0
 11
2728.28196841
 21
-1796.15359621
 31
0.0
  0
LINE
  5
4B8
100
AcDbEntity
  8
Sc.1_5
 62
     9
  6
CONTINUOUS
370
    -2
100
AcDbLine
 10
2723.62318841
 20
-1792.86705022
 30
0.0
 11
2723.66316626
 21
-1793.48692884
 31
0.0
  0
LINE
  5
4B9
100
AcDbEntity
  8
Sc.1_5
 62
     9
  6
CONTINUOUS
370
    -2
100
AcDbLine
 10
2719.00438626
 20
-1790.20038286
 30
0.0
 11
2719.0443641
 21
-1790.82026148
 31
0.0
  0
LINE
  5
4BA
100
AcDbEntity
  8
Sc.1_5
 62
     9
  6
CONTINUOUS
370
    -2
100
AcDbLine
 10
2714.38558411
 20
-1787.5337155
 30
0.0
 11
2714.42556195
 21
-1788.15359412
 31
0.0
  0
LINE
  5
4BB
100
AcDbEntity
  8
Sc.1_5
 62
     9
  6
CONTINUOUS
370
    -2
100
AcDbLine
 10
2709.76678195
 20
-1784.86704813
 30
0.0
 11
2709.80675979
 21
-1785.48692675
 31
0.0
  0
LINE
  5
4BC
100
AcDbEntity
  8
Sc.1_5
 62
     9
  6
CONTINUOUS
370
    -2
100
AcDbLine
 10
2705.1479798
 20
-1782.20038077
 30
0.0
 11
2705.18795764
 21
-1782.82025939
 31
0.0
  0
LINE
  5
4BD
100
AcDbEntity
  8
Sc.1_5
 62
     9
  6
CONTINUOUS
370
    -2
100
AcDbLine
 10
2700.52917764
 20
-1779.5337134
 30
0.0
 11
2700.56915549
 21
-1780.15359203
 31
0.0
  0
LINE
  5
4BE
100
AcDbEntity
  8
Sc.1_5
 62
     9
  6
CONTINUOUS
370
    -2
100
AcDbLine
 10
2695.91037549
 20
-1776.86704604
 30
0.0
 11
2695.95035333
 21
-1777.48692466
 31
0.0
  0
LINE
  5
4BF
100
AcDbEntity
  8
Sc.1_5
 62
     9
  6
CONTINUOUS
370
    -2
100
AcDbLine
 10
2691.29157334
 20
-1774.20037868
 30
0.0
 11
2691.33155118
 21
-1774.8202573
 31
0.0
  0
LINE
  5
4C0
100
AcDbEntity
  8
Sc.1_5
 62
     9
  6
CONTINUOUS
370
    -2
100
AcDbLine
 10
2682.50675253
 20
-1784.77192459
 30
0.0
 11
2683.09772514
 21
-1784.24787888
 31
0.0
  0
LINE
  5
4C1
100
AcDbEntity
  8
Sc.1_5
 62
     9
  6
CONTINUOUS
370
    -2
100
AcDbLine
 10
2687.12555544
 20
-1787.43859139
 30
0.0
 11
2687.71652806
 21
-1786.91454568
 31
0.0
  0
LINE
  5
4C2
100
AcDbEntity
  8
Sc.1_5
 62
     9
  6
CONTINUOUS
370
    -2
100
AcDbLine
 10
2691.74435836
 20
-1790.10525818
 30
0.0
 11
2692.33533097
 21
-1789.58121248
 31
0.0
  0
LINE
  5
4C3
100
AcDbEntity
  8
Sc.1_5
 62
     9
  6
CONTINUOUS
370
    -2
100
AcDbLine
 10
2696.36316128
 20
-1792.77192498
 30
0.0
 11
2696.95413389
 21
-1792.24787928
 31
0.0
  0
LINE
  5
4C4
100
AcDbEntity
  8
Sc.1_5
 62
     9
  6
CONTINUOUS
370
    -2
100
AcDbLine
 10
2700.9819642
 20
-1795.43859178
 30
0.0
 11
2701.57293681
 21
-1794.91454608
 31
0.0
  0
LINE
  5
4C5
100
AcDbEntity
  8
Sc.1_5
 62
     9
  6
CONTINUOUS
370
    -2
100
AcDbLine
 10
2705.60076711
 20
-1798.10525858
 30
0.0
 11
2706.19173972
 21
-1797.58121288
 31
0.0
  0
LINE
  5
4C6
100
AcDbEntity
  8
Sc.1_5
 62
     9
  6
CONTINUOUS
370
    -2
100
AcDbLine
 10
2710.21957003
 20
-1800.77192538
 30
0.0
 11
2710.81054264
 21
-1800.24787968
 31
0.0
  0
LINE
  5
4C7
100
AcDbEntity
  8
Sc.1_5
 62
     9
  6
CONTINUOUS
370
    -2
100
AcDbLine
 10
2714.83837295
 20
-1803.43859218
 30
0.0
 11
2715.42934556
 21
-1802.91454647
 31
0.0
  0
LINE
  5
4C8
100
AcDbEntity
  8
Sc.1_5
 62
     9
  6
CONTINUOUS
370
    -2
100
AcDbLine
 10
2719.45717586
 20
-1806.10525898
 30
0.0
 11
2720.04814847
 21
-1805.58121327
 31
0.0
  0
LINE
  5
4C9
100
AcDbEntity
  8
Sc.1_5
 62
     9
  6
CONTINUOUS
370
    -2
100
AcDbLine
 10
2724.07597878
 20
-1808.77192578
 30
0.0
 11
2724.66695139
 21
-1808.24788007
 31
0.0
  0
LINE
  5
4CA
100
AcDbEntity
  8
Sc.1_5
 62
     9
  6
CONTINUOUS
370
    -2
100
AcDbLine
 10
2682.93937469
 20
-1785.02169942
 30
0.0
 11
2683.09772528
 21
-1784.24787927
 31
0.0
  0
LINE
  5
4CB
100
AcDbEntity
  8
Sc.1_5
 62
     9
  6
CONTINUOUS
370
    -2
100
AcDbLine
 10
2687.55817734
 20
-1787.68836668
 30
0.0
 11
2687.71652793
 21
-1786.91454653
 31
0.0
  0
LINE
  5
4CC
100
AcDbEntity
  8
Sc.1_5
 62
     9
  6
CONTINUOUS
370
    -2
100
AcDbLine
 10
2692.17697999
 20
-1790.35503394
 30
0.0
 11
2692.33533058
 21
-1789.58121379
 31
0.0
  0
LINE
  5
4CD
100
AcDbEntity
  8
Sc.1_5
 62
     9
  6
CONTINUOUS
370
    -2
100
AcDbLine
 10
2696.79578264
 20
-1793.0217012
 30
0.0
 11
2696.95413322
 21
-1792.24788106
 31
0.0
  0
LINE
  5
4CE
100
AcDbEntity
  8
Sc.1_5
 62
     9
  6
CONTINUOUS
370
    -2
100
AcDbLine
 10
2701.41458529
 20
-1795.68836846
 30
0.0
 11
2701.57293587
 21
-1794.91454832
 31
0.0
  0
LINE
  5
4CF
100
AcDbEntity
  8
Sc.1_5
 62
     9
  6
CONTINUOUS
370
    -2
100
AcDbLine
 10
2706.03338794
 20
-1798.35503573
 30
0.0
 11
2706.19173852
 21
-1797.58121558
 31
0.0
  0
LINE
  5
4D0
100
AcDbEntity
  8
Sc.1_5
 62
     9
  6
CONTINUOUS
370
    -2
100
AcDbLine
 10
2710.65219059
 20
-1801.02170299
 30
0.0
 11
2710.81054117
 21
-1800.24788284
 31
0.0
  0
LINE
  5
4D1
100
AcDbEntity
  8
Sc.1_5
 62
     9
  6
CONTINUOUS
370
    -2
100
AcDbLine
 10
2715.27099324
 20
-1803.68837025
 30
0.0
 11
2715.42934382
 21
-1802.9145501
 31
0.0
  0
LINE
  5
4D2
100
AcDbEntity
  8
Sc.1_5
 62
     9
  6
CONTINUOUS
370
    -2
100
AcDbLine
 10
2719.88979589
 20
-1806.35503751
 30
0.0
 11
2720.04814647
 21
-1805.58121737
 31
0.0
  0
LINE
  5
4D3
100
AcDbEntity
  8
Sc.1_5
 62
     9
  6
CONTINUOUS
370
    -2
100
AcDbLine
 10
2724.50859854
 20
-1809.02170477
 30
0.0
 11
2724.66694912
 21
-1808.24788463
 31
0.0
  0
LINE
  5
4D4
100
AcDbEntity
  8
Sc.1_5
 62
     9
  6
CONTINUOUS
370
    -2
100
AcDbLine
 10
2686.55439797
 20
-1772.92741197
 30
0.0
 11
2687.14536982
 21
-1772.40336694
 31
0.0
  0
LINE
  5
4D5
100
AcDbEntity
  8
Sc.1_5
 62
     9
  6
CONTINUOUS
370
    -2
100
AcDbLine
 10
2691.17320013
 20
-1775.59407944
 30
0.0
 11
2691.76417274
 21
-1775.07003374
 31
0.0
  0
LINE
  5
4D6
100
AcDbEntity
  8
Sc.1_5
 62
     9
  6
CONTINUOUS
370
    -2
100
AcDbLine
 10
2695.79200304
 20
-1778.26074624
 30
0.0
 11
2696.38297565
 21
-1777.73670054
 31
0.0
  0
LINE
  5
4D7
100
AcDbEntity
  8
Sc.1_5
 62
     9
  6
CONTINUOUS
370
    -2
100
AcDbLine
 10
2700.41080596
 20
-1780.92741304
 30
0.0
 11
2701.00177857
 21
-1780.40336734
 31
0.0
  0
LINE
  5
4D8
100
AcDbEntity
  8
Sc.1_5
 62
     9
  6
CONTINUOUS
370
    -2
100
AcDbLine
 10
2705.02960888
 20
-1783.59407984
 30
0.0
 11
2705.62058149
 21
-1783.07003414
 31
0.0
  0
LINE
  5
4D9
100
AcDbEntity
  8
Sc.1_5
 62
     9
  6
CONTINUOUS
370
    -2
100
AcDbLine
 10
2709.64841179
 20
-1786.26074664
 30
0.0
 11
2710.2393844
 21
-1785.73670094
 31
0.0
  0
LINE
  5
4DA
100
AcDbEntity
  8
Sc.1_5
 62
     9
  6
CONTINUOUS
370
    -2
100
AcDbLine
 10
2714.26721471
 20
-1788.92741344
 30
0.0
 11
2714.85818732
 21
-1788.40336773
 31
0.0
  0
LINE
  5
4DB
100
AcDbEntity
  8
Sc.1_5
 62
     9
  6
CONTINUOUS
370
    -2
100
AcDbLine
 10
2718.88601763
 20
-1791.59408024
 30
0.0
 11
2719.47699024
 21
-1791.07003453
 31
0.0
  0
LINE
  5
4DC
100
AcDbEntity
  8
Sc.1_5
 62
     9
  6
CONTINUOUS
370
    -2
100
AcDbLine
 10
2723.50482054
 20
-1794.26074704
 30
0.0
 11
2724.09579316
 21
-1793.73670133
 31
0.0
  0
LINE
  5
4DD
100
AcDbEntity
  8
Sc.1_5
 62
     9
  6
CONTINUOUS
370
    -2
100
AcDbLine
 10
2728.12362346
 20
-1796.92741383
 30
0.0
 11
2728.71459607
 21
-1796.40336813
 31
0.0
  0
LINE
  5
4DE
100
AcDbEntity
  8
Sc.1_5
 62
     9
  6
CONTINUOUS
370
    -2
100
AcDbLine
 10
2732.74242638
 20
-1799.59408063
 30
0.0
 11
2733.33339899
 21
-1799.07003493
 31
0.0
  0
LINE
  5
4DF
100
AcDbEntity
  8
Sc.1_5
 62
     9
  6
CONTINUOUS
370
    -2
100
AcDbLine
 10
2732.90077371
 20
-1798.82026526
 30
0.0
 11
2732.74242313
 21
-1799.5940854
 31
0.0
  0
LINE
  5
4E0
100
AcDbEntity
  8
Sc.1_5
 62
     9
  6
CONTINUOUS
370
    -2
100
AcDbLine
 10
2728.28197106
 20
-1796.153598
 30
0.0
 11
2728.12362048
 21
-1796.92741814
 31
0.0
  0
LINE
  5
4E1
100
AcDbEntity
  8
Sc.1_5
 62
     9
  6
CONTINUOUS
370
    -2
100
AcDbLine
 10
2723.66316841
 20
-1793.48693073
 30
0.0
 11
2723.50481783
 21
-1794.26075088
 31
0.0
  0
LINE
  5
4E2
100
AcDbEntity
  8
Sc.1_5
 62
     9
  6
CONTINUOUS
370
    -2
100
AcDbLine
 10
2719.04436577
 20
-1790.82026347
 30
0.0
 11
2718.88601518
 21
-1791.59408362
 31
0.0
  0
LINE
  5
4E3
100
AcDbEntity
  8
Sc.1_5
 62
     9
  6
CONTINUOUS
370
    -2
100
AcDbLine
 10
2714.42556312
 20
-1788.15359621
 30
0.0
 11
2714.26721253
 21
-1788.92741636
 31
0.0
  0
LINE
  5
4E4
100
AcDbEntity
  8
Sc.1_5
 62
     9
  6
CONTINUOUS
370
    -2
100
AcDbLine
 10
2709.80676047
 20
-1785.48692895
 30
0.0
 11
2709.64840988
 21
-1786.26074909
 31
0.0
  0
LINE
  5
4E5
100
AcDbEntity
  8
Sc.1_5
 62
     9
  6
CONTINUOUS
370
    -2
100
AcDbLine
 10
2705.18795782
 20
-1782.82026169
 30
0.0
 11
2705.02960723
 21
-1783.59408183
 31
0.0
  0
LINE
  5
4E6
100
AcDbEntity
  8
Sc.1_5
 62
     9
  6
CONTINUOUS
370
    -2
100
AcDbLine
 10
2700.56915517
 20
-1780.15359442
 30
0.0
 11
2700.41080458
 21
-1780.92741457
 31
0.0
  0
LINE
  5
4E7
100
AcDbEntity
  8
Sc.1_5
 62
     9
  6
CONTINUOUS
370
    -2
100
AcDbLine
 10
2695.95035252
 20
-1777.48692716
 30
0.0
 11
2695.79200193
 21
-1778.26074731
 31
0.0
  0
LINE
  5
4E8
100
AcDbEntity
  8
Sc.1_5
 62
     9
  6
CONTINUOUS
370
    -2
100
AcDbLine
 10
2691.33154987
 20
-1774.8202599
 30
0.0
 11
2691.17319928
 21
-1775.59408005
 31
0.0
  0
LINE
  5
4E9
100
AcDbEntity
  8
Sc.1_5
 62
     9
  6
CONTINUOUS
370
    -2
100
AcDbLine
 10
2683.31409903
 20
-1783.8731076
 30
0.0
 11
2683.65515779
 21
-1783.40949438
 31
0.0
  0
LINE
  5
4EA
100
AcDbEntity
  8
Sc.1_5
 62
     9
  6
CONTINUOUS
370
    -2
100
AcDbLine
 10
2687.93290426
 20
-1786.53976851
 30
0.0
 11
2688.27396301
 21
-1786.07615529
 31
0.0
  0
LINE
  5
4EB
100
AcDbEntity
  8
Sc.1_5
 62
     9
  6
CONTINUOUS
370
    -2
100
AcDbLine
 10
2692.55170948
 20
-1789.20642942
 30
0.0
 11
2692.89276823
 21
-1788.74281621
 31
0.0
  0
LINE
  5
4EC
100
AcDbEntity
  8
Sc.1_5
 62
     9
  6
CONTINUOUS
370
    -2
100
AcDbLine
 10
2697.1705147
 20
-1791.87309033
 30
0.0
 11
2697.51157346
 21
-1791.40947712
 31
0.0
  0
LINE
  5
4ED
100
AcDbEntity
  8
Sc.1_5
 62
     9
  6
CONTINUOUS
370
    -2
100
AcDbLine
 10
2701.78931992
 20
-1794.53975124
 30
0.0
 11
2702.13037868
 21
-1794.07613803
 31
0.0
  0
LINE
  5
4EE
100
AcDbEntity
  8
Sc.1_5
 62
     9
  6
CONTINUOUS
370
    -2
100
AcDbLine
 10
2706.40812514
 20
-1797.20641216
 30
0.0
 11
2706.7491839
 21
-1796.74279894
 31
0.0
  0
LINE
  5
4EF
100
AcDbEntity
  8
Sc.1_5
 62
     9
  6
CONTINUOUS
370
    -2
100
AcDbLine
 10
2711.02693037
 20
-1799.87307307
 30
0.0
 11
2711.36798912
 21
-1799.40945986
 31
0.0
  0
LINE
  5
4F0
100
AcDbEntity
  8
Sc.1_5
 62
     9
  6
CONTINUOUS
370
    -2
100
AcDbLine
 10
2715.64573559
 20
-1802.53973398
 30
0.0
 11
2715.98679434
 21
-1802.07612077
 31
0.0
  0
LINE
  5
4F1
100
AcDbEntity
  8
Sc.1_5
 62
     9
  6
CONTINUOUS
370
    -2
100
AcDbLine
 10
2720.26454081
 20
-1805.20639489
 30
0.0
 11
2720.60559957
 21
-1804.74278168
 31
0.0
  0
LINE
  5
4F2
100
AcDbEntity
  8
Sc.1_5
 62
     9
  6
CONTINUOUS
370
    -2
100
AcDbLine
 10
2724.88334603
 20
-1807.87305581
 30
0.0
 11
2725.22440479
 21
-1807.40944259
 31
0.0
  0
LINE
  5
4F3
100
AcDbEntity
  8
Sc.1_5
 62
     9
  6
CONTINUOUS
370
    -2
100
AcDbLine
 10
2683.31409584
 20
-1783.87311328
 30
0.0
 11
2683.54506728
 21
-1783.34594112
 31
0.0
  0
LINE
  5
4F4
100
AcDbEntity
  8
Sc.1_5
 62
     9
  6
CONTINUOUS
370
    -2
100
AcDbLine
 10
2687.93289454
 20
-1786.53978548
 30
0.0
 11
2688.16386598
 21
-1786.01261332
 31
0.0
  0
LINE
  5
4F5
100
AcDbEntity
  8
Sc.1_5
 62
     9
  6
CONTINUOUS
370
    -2
100
AcDbLine
 10
2692.55169325
 20
-1789.20645768
 30
0.0
 11
2692.78266469
 21
-1788.67928552
 31
0.0
  0
LINE
  5
4F6
100
AcDbEntity
  8
Sc.1_5
 62
     9
  6
CONTINUOUS
370
    -2
100
AcDbLine
 10
2697.17049195
 20
-1791.87312988
 30
0.0
 11
2697.40146339
 21
-1791.34595773
 31
0.0
  0
LINE
  5
4F7
100
AcDbEntity
  8
Sc.1_5
 62
     9
  6
CONTINUOUS
370
    -2
100
AcDbLine
 10
2701.78929066
 20
-1794.53980208
 30
0.0
 11
2702.0202621
 21
-1794.01262993
 31
0.0
  0
LINE
  5
4F8
100
AcDbEntity
  8
Sc.1_5
 62
     9
  6
CONTINUOUS
370
    -2
100
AcDbLine
 10
2706.40808936
 20
-1797.20647428
 30
0.0
 11
2706.6390608
 21
-1796.67930213
 31
0.0
  0
LINE
  5
4F9
100
AcDbEntity
  8
Sc.1_5
 62
     9
  6
CONTINUOUS
370
    -2
100
AcDbLine
 10
2711.02688806
 20
-1799.87314648
 30
0.0
 11
2711.25785951
 21
-1799.34597433
 31
0.0
  0
LINE
  5
4FA
100
AcDbEntity
  8
Sc.1_5
 62
     9
  6
CONTINUOUS
370
    -2
100
AcDbLine
 10
2715.64568677
 20
-1802.53981869
 30
0.0
 11
2715.87665821
 21
-1802.01264653
 31
0.0
  0
LINE
  5
4FB
100
AcDbEntity
  8
Sc.1_5
 62
     9
  6
CONTINUOUS
370
    -2
100
AcDbLine
 10
2720.26448547
 20
-1805.20649089
 30
0.0
 11
2720.49545692
 21
-1804.67931873
 31
0.0
  0
LINE
  5
4FC
100
AcDbEntity
  8
Sc.1_5
 62
     9
  6
CONTINUOUS
370
    -2
100
AcDbLine
 10
2724.88328418
 20
-1807.87316309
 30
0.0
 11
2725.11425562
 21
-1807.34599093
 31
0.0
  0
LINE
  5
4FD
100
AcDbEntity
  8
Sc.1_5
 62
     9
  6
CONTINUOUS
370
    -2
100
AcDbLine
 10
2732.52609072
 20
-1799.9687736
 30
0.0
 11
2732.18503209
 21
-1800.4323869
 31
0.0
  0
LINE
  5
4FE
100
AcDbEntity
  8
Sc.1_5
 62
     9
  6
CONTINUOUS
370
    -2
100
AcDbLine
 10
2727.90728479
 20
-1797.30211391
 30
0.0
 11
2727.56622615
 21
-1797.76572722
 31
0.0
  0
LINE
  5
4FF
100
AcDbEntity
  8
Sc.1_5
 62
     9
  6
CONTINUOUS
370
    -2
100
AcDbLine
 10
2723.28847886
 20
-1794.63545423
 30
0.0
 11
2722.94742022
 21
-1795.09906754
 31
0.0
  0
LINE
  5
500
100
AcDbEntity
  8
Sc.1_5
 62
     9
  6
CONTINUOUS
370
    -2
100
AcDbLine
 10
2718.66967292
 20
-1791.96879455
 30
0.0
 11
2718.32861429
 21
-1792.43240785
 31
0.0
  0
LINE
  5
501
100
AcDbEntity
  8
Sc.1_5
 62
     9
  6
CONTINUOUS
370
    -2
100
AcDbLine
 10
2714.05086699
 20
-1789.30213487
 30
0.0
 11
2713.70980836
 21
-1789.76574817
 31
0.0
  0
LINE
  5
502
100
AcDbEntity
  8
Sc.1_5
 62
     9
  6
CONTINUOUS
370
    -2
100
AcDbLine
 10
2709.43206106
 20
-1786.63547518
 30
0.0
 11
2709.09100243
 21
-1787.09908849
 31
0.0
  0
LINE
  5
503
100
AcDbEntity
  8
Sc.1_5
 62
     9
  6
CONTINUOUS
370
    -2
100
AcDbLine
 10
2704.81325513
 20
-1783.9688155
 30
0.0
 11
2704.47219649
 21
-1784.43242881
 31
0.0
  0
LINE
  5
504
100
AcDbEntity
  8
Sc.1_5
 62
     9
  6
CONTINUOUS
370
    -2
100
AcDbLine
 10
2700.1944492
 20
-1781.30215582
 30
0.0
 11
2699.85339056
 21
-1781.76576912
 31
0.0
  0
LINE
  5
505
100
AcDbEntity
  8
Sc.1_5
 62
     9
  6
CONTINUOUS
370
    -2
100
AcDbLine
 10
2695.57564326
 20
-1778.63549614
 30
0.0
 11
2695.23458463
 21
-1779.09910944
 31
0.0
  0
LINE
  5
506
100
AcDbEntity
  8
Sc.1_5
 62
     9
  6
CONTINUOUS
370
    -2
100
AcDbLine
 10
2690.95683733
 20
-1775.96883646
 30
0.0
 11
2690.6157787
 21
-1776.43244976
 31
0.0
  0
LINE
  5
507
100
AcDbEntity
  8
Sc.1_5
 62
     9
  6
CONTINUOUS
370
    -2
100
AcDbLine
 10
2686.3380314
 20
-1773.30217677
 30
0.0
 11
2686.33801276
 21
-1773.30220211
 31
0.0
  0
LINE
  5
508
100
AcDbEntity
  8
Sc.1_5
 62
     9
  6
CONTINUOUS
370
    -2
100
AcDbLine
 10
2732.52601632
 20
-1799.96889756
 30
0.0
 11
2732.29504488
 21
-1800.49606971
 31
0.0
  0
LINE
  5
509
100
AcDbEntity
  8
Sc.1_5
 62
     9
  6
CONTINUOUS
370
    -2
100
AcDbLine
 10
2727.90721761
 20
-1797.30222536
 30
0.0
 11
2727.67624617
 21
-1797.82939751
 31
0.0
  0
LINE
  5
50A
100
AcDbEntity
  8
Sc.1_5
 62
     9
  6
CONTINUOUS
370
    -2
100
AcDbLine
 10
2723.28841891
 20
-1794.63555316
 30
0.0
 11
2723.05744747
 21
-1795.16272531
 31
0.0
  0
LINE
  5
50B
100
AcDbEntity
  8
Sc.1_5
 62
     9
  6
CONTINUOUS
370
    -2
100
AcDbLine
 10
2718.66962021
 20
-1791.96888096
 30
0.0
 11
2718.43864876
 21
-1792.49605311
 31
0.0
  0
LINE
  5
50C
100
AcDbEntity
  8
Sc.1_5
 62
     9
  6
CONTINUOUS
370
    -2
100
AcDbLine
 10
2714.0508215
 20
-1789.30220875
 30
0.0
 11
2713.81985006
 21
-1789.82938091
 31
0.0
  0
LINE
  5
50D
100
AcDbEntity
  8
Sc.1_5
 62
     9
  6
CONTINUOUS
370
    -2
100
AcDbLine
 10
2709.4320228
 20
-1786.63553655
 30
0.0
 11
2709.20105135
 21
-1787.16270871
 31
0.0
  0
LINE
  5
50E
100
AcDbEntity
  8
Sc.1_5
 62
     9
  6
CONTINUOUS
370
    -2
100
AcDbLine
 10
2704.81322409
 20
-1783.96886435
 30
0.0
 11
2704.58225265
 21
-1784.49603651
 31
0.0
  0
LINE
  5
50F
100
AcDbEntity
  8
Sc.1_5
 62
     9
  6
CONTINUOUS
370
    -2
100
AcDbLine
 10
2700.19442539
 20
-1781.30219215
 30
0.0
 11
2699.96345395
 21
-1781.82936431
 31
0.0
  0
LINE
  5
510
100
AcDbEntity
  8
Sc.1_5
 62
     9
  6
CONTINUOUS
370
    -2
100
AcDbLine
 10
2695.57562668
 20
-1778.63551995
 30
0.0
 11
2695.34465524
 21
-1779.1626921
 31
0.0
  0
LINE
  5
511
100
AcDbEntity
  8
Sc.1_5
 62
     9
  6
CONTINUOUS
370
    -2
100
AcDbLine
 10
2690.95682798
 20
-1775.96884775
 30
0.0
 11
2690.72585654
 21
-1776.4960199
 31
0.0
  0
LINE
  5
512
100
AcDbEntity
  8
Sc.1_5
 62
     9
  6
CONTINUOUS
370
    -2
100
AcDbLine
 10
2686.33802928
 20
-1773.30217555
 30
0.0
 11
2686.10705783
 21
-1773.8293477
 31
0.0
  0
ENDBLK
  5
513
100
AcDbEntity
100
AcDbBlockEnd
  0
BLOCK
  5
514
100
AcDbEntity
  8
Sc.1_5
100
AcDbBlockBegin
  2
*X2533
 70
     1
 10
0.0
 20
0.0
 30
0.0
  3
*X2533
  1

  4
Cadwork hatch
  0
LINE
  5
515
100
AcDbEntity
  8
Sc.1_5
 62
     9
  6
CONTINUOUS
370
    -2
100
AcDbLine
 10
2657.73117083
 20
-1753.1706527
 30
0.0
 11
2658.04070543
 21
-1753.34966664
 31
0.0
  0
LINE
  5
516
100
AcDbEntity
  8
Sc.1_5
 62
     9
  6
CONTINUOUS
370
    -2
100
AcDbLine
 10
2659.73301016
 20
-1754.32838155
 30
0.0
 11
2660.35208037
 21
-1754.68641
 31
0.0
  0
LINE
  5
517
100
AcDbEntity
  8
Sc.1_5
 62
     9
  6
CONTINUOUS
370
    -2
100
AcDbLine
 10
2662.0443851
 20
-1755.6651249
 30
0.0
 11
2662.6634553
 21
-1756.02315336
 31
0.0
  0
LINE
  5
518
100
AcDbEntity
  8
Sc.1_5
 62
     9
  6
CONTINUOUS
370
    -2
100
AcDbLine
 10
2664.35576003
 20
-1757.00186826
 30
0.0
 11
2664.97483024
 21
-1757.35989671
 31
0.0
  0
LINE
  5
519
100
AcDbEntity
  8
Sc.1_5
 62
     9
  6
CONTINUOUS
370
    -2
100
AcDbLine
 10
2666.66713497
 20
-1758.33861162
 30
0.0
 11
2667.28620518
 21
-1758.69664007
 31
0.0
  0
LINE
  5
51A
100
AcDbEntity
  8
Sc.1_5
 62
     9
  6
CONTINUOUS
370
    -2
100
AcDbLine
 10
2668.9785099
 20
-1759.67535498
 30
0.0
 11
2669.59758011
 21
-1760.03338343
 31
0.0
  0
LINE
  5
51B
100
AcDbEntity
  8
Sc.1_5
 62
     9
  6
CONTINUOUS
370
    -2
100
AcDbLine
 10
2671.28988484
 20
-1761.01209833
 30
0.0
 11
2671.90895505
 21
-1761.37012678
 31
0.0
  0
LINE
  5
51C
100
AcDbEntity
  8
Sc.1_5
 62
     9
  6
CONTINUOUS
370
    -2
100
AcDbLine
 10
2673.60125978
 20
-1762.34884169
 30
0.0
 11
2674.22032998
 21
-1762.70687014
 31
0.0
  0
LINE
  5
51D
100
AcDbEntity
  8
Sc.1_5
 62
     9
  6
CONTINUOUS
370
    -2
100
AcDbLine
 10
2675.91263471
 20
-1763.68558505
 30
0.0
 11
2676.53170492
 21
-1764.0436135
 31
0.0
  0
LINE
  5
51E
100
AcDbEntity
  8
Sc.1_5
 62
     9
  6
CONTINUOUS
370
    -2
100
AcDbLine
 10
2678.22400965
 20
-1765.02232841
 30
0.0
 11
2678.84307986
 21
-1765.38035686
 31
0.0
  0
LINE
  5
51F
100
AcDbEntity
  8
Sc.1_5
 62
     9
  6
CONTINUOUS
370
    -2
100
AcDbLine
 10
2657.76465533
 20
-1769.11283736
 30
0.0
 11
2657.98157905
 21
-1768.73775261
 31
0.0
  0
LINE
  5
520
100
AcDbEntity
  8
Sc.1_5
 62
     9
  6
CONTINUOUS
370
    -2
100
AcDbLine
 10
2662.3874038
 20
-1771.78632326
 30
0.0
 11
2662.60432752
 21
-1771.41123851
 31
0.0
  0
LINE
  5
521
100
AcDbEntity
  8
Sc.1_5
 62
     9
  6
CONTINUOUS
370
    -2
100
AcDbLine
 10
2667.01015227
 20
-1774.45980916
 30
0.0
 11
2667.22707599
 21
-1774.08472442
 31
0.0
  0
LINE
  5
522
100
AcDbEntity
  8
Sc.1_5
 62
     9
  6
CONTINUOUS
370
    -2
100
AcDbLine
 10
2671.63290074
 20
-1777.13329507
 30
0.0
 11
2671.84982445
 21
-1776.75821032
 31
0.0
  0
LINE
  5
523
100
AcDbEntity
  8
Sc.1_5
 62
     9
  6
CONTINUOUS
370
    -2
100
AcDbLine
 10
2661.01717683
 20
-1758.15551285
 30
0.0
 11
2661.23410055
 21
-1757.7804281
 31
0.0
  0
LINE
  5
524
100
AcDbEntity
  8
Sc.1_5
 62
     9
  6
CONTINUOUS
370
    -2
100
AcDbLine
 10
2665.63992529
 20
-1760.82899875
 30
0.0
 11
2665.85684901
 21
-1760.453914
 31
0.0
  0
LINE
  5
525
100
AcDbEntity
  8
Sc.1_5
 62
     9
  6
CONTINUOUS
370
    -2
100
AcDbLine
 10
2670.26267376
 20
-1763.50248465
 30
0.0
 11
2670.47959748
 21
-1763.1273999
 31
0.0
  0
LINE
  5
526
100
AcDbEntity
  8
Sc.1_5
 62
     9
  6
CONTINUOUS
370
    -2
100
AcDbLine
 10
2674.88542223
 20
-1766.17597055
 30
0.0
 11
2675.10234595
 21
-1765.80088581
 31
0.0
  0
LINE
  5
527
100
AcDbEntity
  8
Sc.1_5
 62
     9
  6
CONTINUOUS
370
    -2
100
AcDbLine
 10
2658.21352533
 20
-1768.21015681
 30
0.0
 11
2660.78581224
 21
-1758.68326912
 31
0.0
  0
LINE
  5
528
100
AcDbEntity
  8
Sc.1_5
 62
     9
  6
CONTINUOUS
370
    -2
100
AcDbLine
 10
2662.83626827
 20
-1770.88365009
 30
0.0
 11
2665.40855518
 21
-1761.35676241
 31
0.0
  0
LINE
  5
529
100
AcDbEntity
  8
Sc.1_5
 62
     9
  6
CONTINUOUS
370
    -2
100
AcDbLine
 10
2667.45901121
 20
-1773.55714338
 30
0.0
 11
2670.03129812
 21
-1764.03025569
 31
0.0
  0
LINE
  5
52A
100
AcDbEntity
  8
Sc.1_5
 62
     9
  6
CONTINUOUS
370
    -2
100
AcDbLine
 10
2672.08175415
 20
-1776.23063666
 30
0.0
 11
2674.65404106
 21
-1766.70374898
 31
0.0
  0
LINE
  5
52B
100
AcDbEntity
  8
Sc.1_5
 62
     9
  6
CONTINUOUS
370
    -2
100
AcDbLine
 10
2657.71702719
 20
-1761.57996399
 30
0.0
 11
2660.67512733
 21
-1758.61924585
 31
0.0
  0
LINE
  5
52C
100
AcDbEntity
  8
Sc.1_5
 62
     9
  6
CONTINUOUS
370
    -2
100
AcDbLine
 10
2658.32320724
 20
-1768.27356827
 30
0.0
 11
2665.29787944
 21
-1761.29272328
 31
0.0
  0
LINE
  5
52D
100
AcDbEntity
  8
Sc.1_5
 62
     9
  6
CONTINUOUS
370
    -2
100
AcDbLine
 10
2662.94595935
 20
-1770.9470457
 30
0.0
 11
2669.92063155
 21
-1763.96620071
 31
0.0
  0
LINE
  5
52E
100
AcDbEntity
  8
Sc.1_5
 62
     9
  6
CONTINUOUS
370
    -2
100
AcDbLine
 10
2667.56871146
 20
-1773.62052313
 30
0.0
 11
2674.54338366
 21
-1766.63967814
 31
0.0
  0
LINE
  5
52F
100
AcDbEntity
  8
Sc.1_5
 62
     9
  6
CONTINUOUS
370
    -2
100
AcDbLine
 10
2672.19146358
 20
-1776.29400056
 30
0.0
 11
2676.9930328
 21
-1771.4881818
 31
0.0
  0
LINE
  5
530
100
AcDbEntity
  8
Sc.1_5
 62
     9
  6
CONTINUOUS
370
    -2
100
AcDbLine
 10
2659.27302361
 20
-1772.56680622
 30
0.0
 11
2659.96749222
 21
-1772.75012513
 31
0.0
  0
LINE
  5
531
100
AcDbEntity
  8
Sc.1_5
 62
     9
  6
CONTINUOUS
370
    -2
100
AcDbLine
 10
2663.91726625
 20
-1775.24596603
 30
0.0
 11
2664.59024047
 21
-1775.42361107
 31
0.0
  0
LINE
  5
532
100
AcDbEntity
  8
Sc.1_5
 62
     9
  6
CONTINUOUS
370
    -2
100
AcDbLine
 10
2668.56150889
 20
-1777.92512585
 30
0.0
 11
2669.21298872
 21
-1778.09709701
 31
0.0
  0
LINE
  5
533
100
AcDbEntity
  8
Sc.1_5
 62
     9
  6
CONTINUOUS
370
    -2
100
AcDbLine
 10
2658.64350522
 20
-1772.20365113
 30
0.0
 11
2658.13613842
 21
-1771.69099142
 31
0.0
  0
LINE
  5
534
100
AcDbEntity
  8
Sc.1_5
 62
     9
  6
CONTINUOUS
370
    -2
100
AcDbLine
 10
2663.25074357
 20
-1774.86146399
 30
0.0
 11
2662.75888717
 21
-1774.3644765
 31
0.0
  0
LINE
  5
535
100
AcDbEntity
  8
Sc.1_5
 62
     9
  6
CONTINUOUS
370
    -2
100
AcDbLine
 10
2667.85798191
 20
-1777.51927685
 30
0.0
 11
2667.38163592
 21
-1777.03796158
 31
0.0
  0
LINE
  5
536
100
AcDbEntity
  8
Sc.1_5
 62
     9
  6
CONTINUOUS
370
    -2
100
AcDbLine
 10
2672.15655561
 20
-1779.86520506
 30
0.0
 11
2672.00438466
 21
-1779.71144665
 31
0.0
  0
LINE
  5
537
100
AcDbEntity
  8
Sc.1_5
 62
     9
  6
CONTINUOUS
370
    -2
100
AcDbLine
 10
2659.0312462
 20
-1754.14313534
 30
0.0
 11
2659.73300238
 21
-1754.32837795
 31
0.0
  0
LINE
  5
538
100
AcDbEntity
  8
Sc.1_5
 62
     9
  6
CONTINUOUS
370
    -2
100
AcDbLine
 10
2663.65399445
 20
-1756.81662128
 30
0.0
 11
2664.35575063
 21
-1757.00186389
 31
0.0
  0
LINE
  5
539
100
AcDbEntity
  8
Sc.1_5
 62
     9
  6
CONTINUOUS
370
    -2
100
AcDbLine
 10
2668.2767427
 20
-1759.49010722
 30
0.0
 11
2668.97849888
 21
-1759.67534983
 31
0.0
  0
LINE
  5
53A
100
AcDbEntity
  8
Sc.1_5
 62
     9
  6
CONTINUOUS
370
    -2
100
AcDbLine
 10
2672.89949095
 20
-1762.16359316
 30
0.0
 11
2673.60124713
 21
-1762.34883577
 31
0.0
  0
LINE
  5
53B
100
AcDbEntity
  8
Sc.1_5
 62
     9
  6
CONTINUOUS
370
    -2
100
AcDbLine
 10
2677.5222392
 20
-1764.8370791
 30
0.0
 11
2678.22399538
 21
-1765.02232171
 31
0.0
  0
LINE
  5
53C
100
AcDbEntity
  8
Sc.1_5
 62
     9
  6
CONTINUOUS
370
    -2
100
AcDbLine
 10
2678.84307863
 20
-1765.38035705
 30
0.0
 11
2679.35362231
 21
-1765.89622691
 31
0.0
  0
LINE
  5
53D
100
AcDbEntity
  8
Sc.1_5
 62
     9
  6
CONTINUOUS
370
    -2
100
AcDbLine
 10
2674.22033023
 20
-1762.70687135
 30
0.0
 11
2674.73087392
 21
-1763.22274122
 31
0.0
  0
LINE
  5
53E
100
AcDbEntity
  8
Sc.1_5
 62
     9
  6
CONTINUOUS
370
    -2
100
AcDbLine
 10
2669.59758184
 20
-1760.03338566
 30
0.0
 11
2670.10812552
 21
-1760.54925552
 31
0.0
  0
LINE
  5
53F
100
AcDbEntity
  8
Sc.1_5
 62
     9
  6
CONTINUOUS
370
    -2
100
AcDbLine
 10
2664.97483345
 20
-1757.35989997
 30
0.0
 11
2665.48537713
 21
-1757.87576983
 31
0.0
  0
LINE
  5
540
100
AcDbEntity
  8
Sc.1_5
 62
     9
  6
CONTINUOUS
370
    -2
100
AcDbLine
 10
2660.35208505
 20
-1754.68641427
 30
0.0
 11
2660.86262874
 21
-1755.20228413
 31
0.0
  0
LINE
  5
541
100
AcDbEntity
  8
Sc.1_5
 62
     9
  6
CONTINUOUS
370
    -2
100
AcDbLine
 10
2659.96750489
 20
-1772.75012819
 30
0.0
 11
2660.66468558
 21
-1772.73891354
 31
0.0
  0
LINE
  5
542
100
AcDbEntity
  8
Sc.1_5
 62
     9
  6
CONTINUOUS
370
    -2
100
AcDbLine
 10
2664.59025418
 20
-1775.42361452
 30
0.0
 11
2665.28743486
 21
-1775.41239987
 31
0.0
  0
LINE
  5
543
100
AcDbEntity
  8
Sc.1_5
 62
     9
  6
CONTINUOUS
370
    -2
100
AcDbLine
 10
2669.21300346
 20
-1778.09710086
 30
0.0
 11
2669.91018415
 21
-1778.08588621
 31
0.0
  0
LINE
  5
544
100
AcDbEntity
  8
Sc.1_5
 62
     9
  6
CONTINUOUS
370
    -2
100
AcDbLine
 10
2658.13270923
 20
-1771.68900713
 30
0.0
 11
2657.79472896
 21
-1771.07912516
 31
0.0
  0
LINE
  5
545
100
AcDbEntity
  8
Sc.1_5
 62
     9
  6
CONTINUOUS
370
    -2
100
AcDbLine
 10
2662.7554583
 20
-1774.36249383
 30
0.0
 11
2662.41747803
 21
-1773.75261186
 31
0.0
  0
LINE
  5
546
100
AcDbEntity
  8
Sc.1_5
 62
     9
  6
CONTINUOUS
370
    -2
100
AcDbLine
 10
2667.37820737
 20
-1777.03598053
 30
0.0
 11
2667.0402271
 21
-1776.42609856
 31
0.0
  0
LINE
  5
547
100
AcDbEntity
  8
Sc.1_5
 62
     9
  6
CONTINUOUS
370
    -2
100
AcDbLine
 10
2672.00095644
 20
-1779.70946723
 30
0.0
 11
2671.66297617
 21
-1779.09958526
 31
0.0
  0
LINE
  5
548
100
AcDbEntity
  8
Sc.1_5
 62
     9
  6
CONTINUOUS
370
    -2
100
AcDbLine
 10
2658.33407704
 20
-1754.15435446
 30
0.0
 11
2659.03125773
 21
-1754.14313981
 31
0.0
  0
LINE
  5
549
100
AcDbEntity
  8
Sc.1_5
 62
     9
  6
CONTINUOUS
370
    -2
100
AcDbLine
 10
2662.95682633
 20
-1756.82784079
 30
0.0
 11
2663.65400701
 21
-1756.81662614
 31
0.0
  0
LINE
  5
54A
100
AcDbEntity
  8
Sc.1_5
 62
     9
  6
CONTINUOUS
370
    -2
100
AcDbLine
 10
2667.57957561
 20
-1759.50132712
 30
0.0
 11
2668.27675629
 21
-1759.49011247
 31
0.0
  0
LINE
  5
54B
100
AcDbEntity
  8
Sc.1_5
 62
     9
  6
CONTINUOUS
370
    -2
100
AcDbLine
 10
2672.20232489
 20
-1762.17481346
 30
0.0
 11
2672.89950558
 21
-1762.16359881
 31
0.0
  0
LINE
  5
54C
100
AcDbEntity
  8
Sc.1_5
 62
     9
  6
CONTINUOUS
370
    -2
100
AcDbLine
 10
2676.82507417
 20
-1764.84829979
 30
0.0
 11
2677.52225486
 21
-1764.83708514
 31
0.0
  0
LINE
  5
54D
100
AcDbEntity
  8
Sc.1_5
 62
     9
  6
CONTINUOUS
370
    -2
100
AcDbLine
 10
2679.35361862
 20
-1765.89622113
 30
0.0
 11
2679.69159893
 21
-1766.50610308
 31
0.0
  0
LINE
  5
54E
100
AcDbEntity
  8
Sc.1_5
 62
     9
  6
CONTINUOUS
370
    -2
100
AcDbLine
 10
2674.73086937
 20
-1763.22273474
 30
0.0
 11
2675.06884968
 21
-1763.83261669
 31
0.0
  0
LINE
  5
54F
100
AcDbEntity
  8
Sc.1_5
 62
     9
  6
CONTINUOUS
370
    -2
100
AcDbLine
 10
2670.10812013
 20
-1760.54924834
 30
0.0
 11
2670.44610044
 21
-1761.15913029
 31
0.0
  0
LINE
  5
550
100
AcDbEntity
  8
Sc.1_5
 62
     9
  6
CONTINUOUS
370
    -2
100
AcDbLine
 10
2665.48537088
 20
-1757.87576195
 30
0.0
 11
2665.82335119
 21
-1758.4856439
 31
0.0
  0
LINE
  5
551
100
AcDbEntity
  8
Sc.1_5
 62
     9
  6
CONTINUOUS
370
    -2
100
AcDbLine
 10
2660.86262163
 20
-1755.20227556
 30
0.0
 11
2661.20060194
 21
-1755.8121575
 31
0.0
  0
LINE
  5
552
100
AcDbEntity
  8
Sc.1_5
 62
     9
  6
CONTINUOUS
370
    -2
100
AcDbLine
 10
2660.66468421
 20
-1772.7389136
 30
0.0
 11
2661.23755697
 21
-1772.58586487
 31
0.0
  0
LINE
  5
553
100
AcDbEntity
  8
Sc.1_5
 62
     9
  6
CONTINUOUS
370
    -2
100
AcDbLine
 10
2665.2874339
 20
-1775.41240021
 30
0.0
 11
2665.86030666
 21
-1775.25935147
 31
0.0
  0
LINE
  5
554
100
AcDbEntity
  8
Sc.1_5
 62
     9
  6
CONTINUOUS
370
    -2
100
AcDbLine
 10
2669.91018358
 20
-1778.08588681
 30
0.0
 11
2670.48305635
 21
-1777.93283808
 31
0.0
  0
LINE
  5
555
100
AcDbEntity
  8
Sc.1_5
 62
     9
  6
CONTINUOUS
370
    -2
100
AcDbLine
 10
2657.79815244
 20
-1771.08110498
 30
0.0
 11
2657.7016547
 21
-1770.71990677
 31
0.0
  0
LINE
  5
556
100
AcDbEntity
  8
Sc.1_5
 62
     9
  6
CONTINUOUS
370
    -2
100
AcDbLine
 10
2662.42090213
 20
-1773.75459158
 30
0.0
 11
2662.2678534
 21
-1773.18171882
 31
0.0
  0
LINE
  5
557
100
AcDbEntity
  8
Sc.1_5
 62
     9
  6
CONTINUOUS
370
    -2
100
AcDbLine
 10
2667.04365182
 20
-1776.42807819
 30
0.0
 11
2666.89060308
 21
-1775.85520543
 31
0.0
  0
LINE
  5
558
100
AcDbEntity
  8
Sc.1_5
 62
     9
  6
CONTINUOUS
370
    -2
100
AcDbLine
 10
2671.6664015
 20
-1779.1015648
 30
0.0
 11
2671.51335277
 21
-1778.52869203
 31
0.0
  0
LINE
  5
559
100
AcDbEntity
  8
Sc.1_5
 62
     9
  6
CONTINUOUS
370
    -2
100
AcDbLine
 10
2657.76120445
 20
-1754.30740296
 30
0.0
 11
2658.33407721
 21
-1754.15435422
 31
0.0
  0
LINE
  5
55A
100
AcDbEntity
  8
Sc.1_5
 62
     9
  6
CONTINUOUS
370
    -2
100
AcDbLine
 10
2662.38395413
 20
-1756.98088957
 30
0.0
 11
2662.9568269
 21
-1756.82784083
 31
0.0
  0
LINE
  5
55B
100
AcDbEntity
  8
Sc.1_5
 62
     9
  6
CONTINUOUS
370
    -2
100
AcDbLine
 10
2667.00670382
 20
-1759.65437617
 30
0.0
 11
2667.57957658
 21
-1759.50132744
 31
0.0
  0
LINE
  5
55C
100
AcDbEntity
  8
Sc.1_5
 62
     9
  6
CONTINUOUS
370
    -2
100
AcDbLine
 10
2671.6294535
 20
-1762.32786278
 30
0.0
 11
2672.20232627
 21
-1762.17481405
 31
0.0
  0
LINE
  5
55D
100
AcDbEntity
  8
Sc.1_5
 62
     9
  6
CONTINUOUS
370
    -2
100
AcDbLine
 10
2676.25220319
 20
-1765.00134939
 30
0.0
 11
2676.82507595
 21
-1764.84830065
 31
0.0
  0
LINE
  5
55E
100
AcDbEntity
  8
Sc.1_5
 62
     9
  6
CONTINUOUS
370
    -2
100
AcDbLine
 10
2679.69159949
 20
-1766.50610639
 30
0.0
 11
2679.74785781
 21
-1766.71668546
 31
0.0
  0
LINE
  5
55F
100
AcDbEntity
  8
Sc.1_5
 62
     9
  6
CONTINUOUS
370
    -2
100
AcDbLine
 10
2675.06884981
 20
-1763.83261979
 30
0.0
 11
2675.22189854
 21
-1764.40549255
 31
0.0
  0
LINE
  5
560
100
AcDbEntity
  8
Sc.1_5
 62
     9
  6
CONTINUOUS
370
    -2
100
AcDbLine
 10
2670.44610012
 20
-1761.15913318
 30
0.0
 11
2670.59914886
 21
-1761.73200594
 31
0.0
  0
LINE
  5
561
100
AcDbEntity
  8
Sc.1_5
 62
     9
  6
CONTINUOUS
370
    -2
100
AcDbLine
 10
2665.82335044
 20
-1758.48564657
 30
0.0
 11
2665.97639917
 21
-1759.05851934
 31
0.0
  0
LINE
  5
562
100
AcDbEntity
  8
Sc.1_5
 62
     9
  6
CONTINUOUS
370
    -2
100
AcDbLine
 10
2661.20060075
 20
-1755.81215996
 30
0.0
 11
2661.35364948
 21
-1756.38503273
 31
0.0
  0
LINE
  5
563
100
AcDbEntity
  8
Sc.1_5
 62
     9
  6
CONTINUOUS
370
    -2
100
AcDbLine
 10
2661.23755632
 20
-1772.58586189
 30
0.0
 11
2661.79529171
 21
-1772.31060251
 31
0.0
  0
LINE
  5
564
100
AcDbEntity
  8
Sc.1_5
 62
     9
  6
CONTINUOUS
370
    -2
100
AcDbLine
 10
2665.86030576
 20
-1775.25934766
 30
0.0
 11
2666.41804115
 21
-1774.98408828
 31
0.0
  0
LINE
  5
565
100
AcDbEntity
  8
Sc.1_5
 62
     9
  6
CONTINUOUS
370
    -2
100
AcDbLine
 10
2670.4830552
 20
-1777.93283342
 30
0.0
 11
2671.04079059
 21
-1777.65757405
 31
0.0
  0
LINE
  5
566
100
AcDbEntity
  8
Sc.1_5
 62
     9
  6
CONTINUOUS
370
    -2
100
AcDbLine
 10
2662.26785061
 20
-1773.18171934
 30
0.0
 11
2662.22827869
 21
-1772.56101767
 31
0.0
  0
LINE
  5
567
100
AcDbEntity
  8
Sc.1_5
 62
     9
  6
CONTINUOUS
370
    -2
100
AcDbLine
 10
2666.89059927
 20
-1775.85520646
 30
0.0
 11
2666.85102735
 21
-1775.2345048
 31
0.0
  0
LINE
  5
568
100
AcDbEntity
  8
Sc.1_5
 62
     9
  6
CONTINUOUS
370
    -2
100
AcDbLine
 10
2671.51334793
 20
-1778.52869358
 30
0.0
 11
2671.47377601
 21
-1777.90799192
 31
0.0
  0
LINE
  5
569
100
AcDbEntity
  8
Sc.1_5
 62
     9
  6
CONTINUOUS
370
    -2
100
AcDbLine
 10
2657.72923239
 20
-1754.32317978
 30
0.0
 11
2657.76120358
 21
-1754.30740102
 31
0.0
  0
LINE
  5
56A
100
AcDbEntity
  8
Sc.1_5
 62
     9
  6
CONTINUOUS
370
    -2
100
AcDbLine
 10
2661.82621763
 20
-1757.25614617
 30
0.0
 11
2662.38395302
 21
-1756.98088679
 31
0.0
  0
LINE
  5
56B
100
AcDbEntity
  8
Sc.1_5
 62
     9
  6
CONTINUOUS
370
    -2
100
AcDbLine
 10
2666.44896708
 20
-1759.92963194
 30
0.0
 11
2667.00670247
 21
-1759.65437256
 31
0.0
  0
LINE
  5
56C
100
AcDbEntity
  8
Sc.1_5
 62
     9
  6
CONTINUOUS
370
    -2
100
AcDbLine
 10
2671.07171652
 20
-1762.6031177
 30
0.0
 11
2671.62945191
 21
-1762.32785833
 31
0.0
  0
LINE
  5
56D
100
AcDbEntity
  8
Sc.1_5
 62
     9
  6
CONTINUOUS
370
    -2
100
AcDbLine
 10
2675.69446596
 20
-1765.27660347
 30
0.0
 11
2676.25220135
 21
-1765.0013441
 31
0.0
  0
LINE
  5
56E
100
AcDbEntity
  8
Sc.1_5
 62
     9
  6
CONTINUOUS
370
    -2
100
AcDbLine
 10
2675.22189926
 20
-1764.40549065
 30
0.0
 11
2675.26147122
 21
-1765.02619231
 31
0.0
  0
LINE
  5
56F
100
AcDbEntity
  8
Sc.1_5
 62
     9
  6
CONTINUOUS
370
    -2
100
AcDbLine
 10
2670.59915042
 20
-1761.73200384
 30
0.0
 11
2670.63872238
 21
-1762.3527055
 31
0.0
  0
LINE
  5
570
100
AcDbEntity
  8
Sc.1_5
 62
     9
  6
CONTINUOUS
370
    -2
100
AcDbLine
 10
2665.97640158
 20
-1759.05851702
 30
0.0
 11
2666.01597354
 21
-1759.67921868
 31
0.0
  0
LINE
  5
571
100
AcDbEntity
  8
Sc.1_5
 62
     9
  6
CONTINUOUS
370
    -2
100
AcDbLine
 10
2661.35365274
 20
-1756.38503021
 30
0.0
 11
2661.39322471
 21
-1757.00573187
 31
0.0
  0
LINE
  5
572
100
AcDbEntity
  8
Sc.1_5
 62
     9
  6
CONTINUOUS
370
    -2
100
AcDbLine
 10
2657.7042677
 20
-1769.16630778
 30
0.0
 11
2657.76465609
 21
-1769.11283768
 31
0.0
  0
LINE
  5
573
100
AcDbEntity
  8
Sc.1_5
 62
     9
  6
CONTINUOUS
370
    -2
100
AcDbLine
 10
2661.79529013
 20
-1772.31060477
 30
0.0
 11
2662.38740569
 21
-1771.78632393
 31
0.0
  0
LINE
  5
574
100
AcDbEntity
  8
Sc.1_5
 62
     9
  6
CONTINUOUS
370
    -2
100
AcDbLine
 10
2666.41803973
 20
-1774.98409102
 30
0.0
 11
2667.0101553
 21
-1774.45981018
 31
0.0
  0
LINE
  5
575
100
AcDbEntity
  8
Sc.1_5
 62
     9
  6
CONTINUOUS
370
    -2
100
AcDbLine
 10
2671.04078933
 20
-1777.65757727
 30
0.0
 11
2671.6329049
 21
-1777.13329643
 31
0.0
  0
LINE
  5
576
100
AcDbEntity
  8
Sc.1_5
 62
     9
  6
CONTINUOUS
370
    -2
100
AcDbLine
 10
2657.70385981
 20
-1769.40882436
 30
0.0
 11
2657.76465596
 21
-1769.11283854
 31
0.0
  0
LINE
  5
577
100
AcDbEntity
  8
Sc.1_5
 62
     9
  6
CONTINUOUS
370
    -2
100
AcDbLine
 10
2662.22828142
 20
-1772.56101927
 30
0.0
 11
2662.38740529
 21
-1771.78632525
 31
0.0
  0
LINE
  5
578
100
AcDbEntity
  8
Sc.1_5
 62
     9
  6
CONTINUOUS
370
    -2
100
AcDbLine
 10
2666.85103076
 20
-1775.23450598
 30
0.0
 11
2667.01015463
 21
-1774.45981196
 31
0.0
  0
LINE
  5
579
100
AcDbEntity
  8
Sc.1_5
 62
     9
  6
CONTINUOUS
370
    -2
100
AcDbLine
 10
2671.47378009
 20
-1777.9079927
 30
0.0
 11
2671.63290396
 21
-1777.13329868
 31
0.0
  0
LINE
  5
57A
100
AcDbEntity
  8
Sc.1_5
 62
     9
  6
CONTINUOUS
370
    -2
100
AcDbLine
 10
2661.23410036
 20
-1757.78042789
 30
0.0
 11
2661.82621593
 21
-1757.25614706
 31
0.0
  0
LINE
  5
57B
100
AcDbEntity
  8
Sc.1_5
 62
     9
  6
CONTINUOUS
370
    -2
100
AcDbLine
 10
2665.85684997
 20
-1760.45391414
 30
0.0
 11
2666.44896553
 21
-1759.92963331
 31
0.0
  0
LINE
  5
57C
100
AcDbEntity
  8
Sc.1_5
 62
     9
  6
CONTINUOUS
370
    -2
100
AcDbLine
 10
2670.47959957
 20
-1763.12740039
 30
0.0
 11
2671.07171513
 21
-1762.60311956
 31
0.0
  0
LINE
  5
57D
100
AcDbEntity
  8
Sc.1_5
 62
     9
  6
CONTINUOUS
370
    -2
100
AcDbLine
 10
2675.10234917
 20
-1765.80088664
 30
0.0
 11
2675.69446474
 21
-1765.27660581
 31
0.0
  0
LINE
  5
57E
100
AcDbEntity
  8
Sc.1_5
 62
     9
  6
CONTINUOUS
370
    -2
100
AcDbLine
 10
2675.26147139
 20
-1765.02619461
 30
0.0
 11
2675.10234752
 21
-1765.80088863
 31
0.0
  0
LINE
  5
57F
100
AcDbEntity
  8
Sc.1_5
 62
     9
  6
CONTINUOUS
370
    -2
100
AcDbLine
 10
2670.63872206
 20
-1762.3527079
 30
0.0
 11
2670.47959819
 21
-1763.12740192
 31
0.0
  0
LINE
  5
580
100
AcDbEntity
  8
Sc.1_5
 62
     9
  6
CONTINUOUS
370
    -2
100
AcDbLine
 10
2666.01597272
 20
-1759.67922119
 30
0.0
 11
2665.85684885
 21
-1760.45391521
 31
0.0
  0
LINE
  5
581
100
AcDbEntity
  8
Sc.1_5
 62
     9
  6
CONTINUOUS
370
    -2
100
AcDbLine
 10
2661.39322339
 20
-1757.00573447
 30
0.0
 11
2661.23409952
 21
-1757.78042849
 31
0.0
  0
LINE
  5
582
100
AcDbEntity
  8
Sc.1_5
 62
     9
  6
CONTINUOUS
370
    -2
100
AcDbLine
 10
2657.98158563
 20
-1768.73774027
 30
0.0
 11
2658.32342285
 21
-1768.27378502
 31
0.0
  0
LINE
  5
583
100
AcDbEntity
  8
Sc.1_5
 62
     9
  6
CONTINUOUS
370
    -2
100
AcDbLine
 10
2662.60433755
 20
-1771.41122063
 30
0.0
 11
2662.94617476
 21
-1770.94726538
 31
0.0
  0
LINE
  5
584
100
AcDbEntity
  8
Sc.1_5
 62
     9
  6
CONTINUOUS
370
    -2
100
AcDbLine
 10
2667.22708946
 20
-1774.08470098
 30
0.0
 11
2667.56892668
 21
-1773.62074573
 31
0.0
  0
LINE
  5
585
100
AcDbEntity
  8
Sc.1_5
 62
     9
  6
CONTINUOUS
370
    -2
100
AcDbLine
 10
2671.84984138
 20
-1776.75818134
 30
0.0
 11
2672.19167859
 21
-1776.29422609
 31
0.0
  0
LINE
  5
586
100
AcDbEntity
  8
Sc.1_5
 62
     9
  6
CONTINUOUS
370
    -2
100
AcDbLine
 10
2657.98157589
 20
-1768.73775725
 30
0.0
 11
2658.21323173
 21
-1768.21008053
 31
0.0
  0
LINE
  5
587
100
AcDbEntity
  8
Sc.1_5
 62
     9
  6
CONTINUOUS
370
    -2
100
AcDbLine
 10
2662.60432127
 20
-1771.41124891
 30
0.0
 11
2662.83597711
 21
-1770.88357218
 31
0.0
  0
LINE
  5
588
100
AcDbEntity
  8
Sc.1_5
 62
     9
  6
CONTINUOUS
370
    -2
100
AcDbLine
 10
2667.22706665
 20
-1774.08474057
 30
0.0
 11
2667.45872249
 21
-1773.55706384
 31
0.0
  0
LINE
  5
589
100
AcDbEntity
  8
Sc.1_5
 62
     9
  6
CONTINUOUS
370
    -2
100
AcDbLine
 10
2671.84981204
 20
-1776.75823222
 30
0.0
 11
2672.08146787
 21
-1776.23055549
 31
0.0
  0
LINE
  5
58A
100
AcDbEntity
  8
Sc.1_5
 62
     9
  6
CONTINUOUS
370
    -2
100
AcDbLine
 10
2674.88544214
 20
-1766.17594251
 30
0.0
 11
2674.54360505
 21
-1766.63989785
 31
0.0
  0
LINE
  5
58B
100
AcDbEntity
  8
Sc.1_5
 62
     9
  6
CONTINUOUS
370
    -2
100
AcDbLine
 10
2670.26268952
 20
-1763.50246338
 30
0.0
 11
2669.92085242
 21
-1763.96641872
 31
0.0
  0
LINE
  5
58C
100
AcDbEntity
  8
Sc.1_5
 62
     9
  6
CONTINUOUS
370
    -2
100
AcDbLine
 10
2665.63993689
 20
-1760.82898425
 30
0.0
 11
2665.2980998
 21
-1761.29293959
 31
0.0
  0
LINE
  5
58D
100
AcDbEntity
  8
Sc.1_5
 62
     9
  6
CONTINUOUS
370
    -2
100
AcDbLine
 10
2661.01718426
 20
-1758.15550513
 30
0.0
 11
2660.67534717
 21
-1758.61946047
 31
0.0
  0
LINE
  5
58E
100
AcDbEntity
  8
Sc.1_5
 62
     9
  6
CONTINUOUS
370
    -2
100
AcDbLine
 10
2674.88541103
 20
-1766.1759914
 30
0.0
 11
2674.6537552
 21
-1766.70366813
 31
0.0
  0
LINE
  5
58F
100
AcDbEntity
  8
Sc.1_5
 62
     9
  6
CONTINUOUS
370
    -2
100
AcDbLine
 10
2670.26266565
 20
-1763.50249974
 30
0.0
 11
2670.03100982
 21
-1764.03017647
 31
0.0
  0
LINE
  5
590
100
AcDbEntity
  8
Sc.1_5
 62
     9
  6
CONTINUOUS
370
    -2
100
AcDbLine
 10
2665.63992027
 20
-1760.82900809
 30
0.0
 11
2665.40826444
 21
-1761.35668481
 31
0.0
  0
LINE
  5
591
100
AcDbEntity
  8
Sc.1_5
 62
     9
  6
CONTINUOUS
370
    -2
100
AcDbLine
 10
2661.01717489
 20
-1758.15551643
 30
0.0
 11
2660.78551906
 21
-1758.68319316
 31
0.0
  0
ENDBLK
  5
592
100
AcDbEntity
100
AcDbBlockEnd
  0
ENDSEC
  0
SECTION
  2
ENTITIES
  0
3DFACE
  5
593
100
AcDbEntity
  8
Sc.1_5
 62
     9
  6
CONTINUOUS
370
    20
100
AcDbFace
 70
     0
 10
2625.63835284
 20
-1771.6950456
 30
914.4
 11
2579.05404655
 21
-1798.59050738
 31
914.4
 12
2587.0540474
 22
-1812.44691372
 32
914.4
 13
2633.6383536
 23
-1785.55145199
 33
914.4
  0
INSERT
  5
594
100
AcDbEntity
  8
Sc.1_5
 62
     0
370
    20
100
AcDbBlockReference
  2
*X2531
 10
0.0
 20
0.0
 30
0.0
  0
3DFACE
  5
595
100
AcDbEntity
  8
Sc.1_5
 62
     9
  6
CONTINUOUS
370
    20
100
AcDbFace
 70
     0
 10
2657.66897828
 20
-1753.17065155
 30
914.4
 11
2633.42925005
 21
-1767.18927535
 31
914.4
 12
2641.4292509
 22
-1781.04568169
 32
914.4
 13
2657.70007455
 23
-1771.65940705
 33
914.4
  0
INSERT
  5
596
100
AcDbEntity
  8
Sc.1_5
 62
     0
370
    20
100
AcDbBlockReference
  2
*X2530
 10
0.0
 20
0.0
 30
0.0
  0
3DFACE
  5
597
100
AcDbEntity
  8
Sc.1_5
 62
     9
  6
CONTINUOUS
370
    20
100
AcDbFace
 70
     0
 10
2687.67136087
 20
-1770.99277567
 30
914.4
 11
2735.57979904
 21
-1798.65272534
 31
914.4
 12
2727.57979819
 22
-1812.50913168
 32
914.4
 13
2679.67136011
 23
-1784.84918206
 33
914.4
  0
INSERT
  5
598
100
AcDbEntity
  8
Sc.1_5
 62
     0
370
    20
100
AcDbBlockReference
  2
*X2532
 10
0.0
 20
0.0
 30
0.0
  0
3DFACE
  5
599
100
AcDbEntity
  8
Sc.1_5
 62
     9
  6
CONTINUOUS
370
    20
100
AcDbFace
 70
     0
 10
2657.73117083
 20
-1753.17065155
 30
914.4
 11
2680.09977659
 21
-1766.10714433
 31
914.4
 12
2672.09859672
 22
-1779.96559279
 32
914.4
 13
2657.70007455
 23
-1771.65940705
 33
914.4
  0
INSERT
  5
59A
100
AcDbEntity
  8
Sc.1_5
 62
     0
370
    20
100
AcDbBlockReference
  2
*X2533
 10
0.0
 20
0.0
 30
0.0
  0
LINE
  5
59B
100
AcDbEntity
  8
Sc.1_5
 62
     7
  6
CONTINUOUS
100
AcDbLine
 10
2587.71868437
 20
-1822.50341718
 30
0.0
 11
2587.99235463
 21
-1822.97742785
 31
0.0
  0
LINE
  5
59C
100
AcDbEntity
  8
Sc.1_5
 62
     7
  6
CONTINUOUS
100
AcDbLine
 10
2648.69992921
 20
-1819.17936318
 30
0.0
 11
2648.69992921
 21
-1852.40464261
 31
0.0
  0
LINE
  5
59D
100
AcDbEntity
  8
Sc.1_5
 62
     7
  6
CONTINUOUS
100
AcDbLine
 10
2666.69992921
 20
-1852.40464261
 30
0.0
 11
2666.69992921
 21
-1819.17936318
 31
0.0
  0
LINE
  5
59E
100
AcDbEntity
  8
Sc.1_5
 62
     7
  6
CONTINUOUS
370
    35
100
AcDbLine
 10
2648.69992921
 20
-1810.17936318
 30
0.0
 11
2648.69992921
 21
-1806.08694816
 31
0.0
  0
LINE
  5
59F
100
AcDbEntity
  8
Sc.1_5
 62
     7
  6
CONTINUOUS
370
    35
100
AcDbLine
 10
2648.69992921
 20
-1806.08694816
 30
0.0
 11
2657.19997537
 21
-1801.17944285
 31
0.0
  0
LINE
  5
5A0
100
AcDbEntity
  8
Sc.1_5
 62
     7
  6
CONTINUOUS
370
    35
100
AcDbLine
 10
2666.69992921
 20
-1810.17936318
 30
0.0
 11
2666.69992921
 21
-1806.08677233
 31
0.0
  0
LINE
  5
5A1
100
AcDbEntity
  8
Sc.1_5
 62
     7
  6
CONTINUOUS
370
    35
100
AcDbLine
 10
2666.69992921
 20
-1806.08677233
 30
0.0
 11
2658.2001876
 21
-1801.17944285
 31
0.0
  0
LINE
  5
5A2
100
AcDbEntity
  8
Sc.1_5
 62
     7
  6
CONTINUOUS
370
    35
100
AcDbLine
 10
2658.2001876
 20
-1801.17944285
 30
0.0
 11
2657.19997537
 21
-1801.17944285
 31
0.0
  0
LINE
  5
5A3
100
AcDbEntity
  8
Sc.1_5
 62
     9
  6
CONTINUOUS
100
AcDbLine
 10
2653.25517844
 20
-1803.45697306
 30
0.0
 11
2666.69992921
 21
-1810.17936318
 31
0.0
  0
LINE
  5
5A4
100
AcDbEntity
  8
Sc.1_5
 62
     9
  6
CONTINUOUS
100
AcDbLine
 10
2648.69992921
 20
-1810.17936318
 30
0.0
 11
2662.1449597
 21
-1803.45695872
 31
0.0
  0
LINE
  5
5A5
100
AcDbEntity
  8
Sc.1_5
 62
     7
  6
CONTINUOUS
100
AcDbLine
 10
2604.57763038
 20
-1842.79864898
 30
0.0
 11
2648.30525249
 21
-1817.55249459
 31
0.0
  0
LINE
  5
5A6
100
AcDbEntity
  8
Sc.1_5
 62
     7
  6
CONTINUOUS
100
AcDbLine
 10
2648.30525249
 20
-1817.55249459
 30
0.0
 11
2648.30525249
 21
-1815.47403362
 31
0.0
  0
LINE
  5
5A7
100
AcDbEntity
  8
Sc.1_5
 62
     7
  6
CONTINUOUS
100
AcDbLine
 10
2648.30525249
 20
-1815.47403362
 30
0.0
 11
2603.67763038
 21
-1841.23980326
 31
0.0
  0
LINE
  5
5A8
100
AcDbEntity
  8
Sc.1_5
 62
     7
  6
CONTINUOUS
100
AcDbLine
 10
2660.71957242
 20
-1743.06740389
 30
0.0
 11
2662.76676697
 21
-1750.70764167
 31
0.0
  0
LINE
  5
5A9
100
AcDbEntity
  8
Sc.1_5
 62
     7
  6
CONTINUOUS
100
AcDbLine
 10
2662.76676697
 20
-1750.70764167
 30
0.0
 11
2738.13736477
 21
-1794.22288873
 31
0.0
  0
LINE
  5
5AA
100
AcDbEntity
  8
Sc.1_5
 62
     7
  6
CONTINUOUS
100
AcDbLine
 10
2740.93388566
 20
-1789.37917214
 30
0.0
 11
2660.71957242
 21
-1743.06740389
 31
0.0
  0
LINE
  5
5AB
100
AcDbEntity
  8
Sc.1_5
 62
     7
  6
CADWORK_13
370
    25
100
AcDbLine
 10
2737.62499255
 20
-1795.11034352
 30
0.0
 11
2656.45212895
 21
-1748.24516887
 31
0.0
  0
LINE
  5
5AC
100
AcDbEntity
  8
Sc.1_5
 62
     7
  6
CONTINUOUS
100
AcDbLine
 10
2660.79140129
 20
-1743.10083998
 30
0.0
 11
2657.99140071
 21
-1747.9505819
 31
0.0
  0
LINE
  5
5AD
100
AcDbEntity
  8
Sc.1_5
 62
     7
  6
CONTINUOUS
100
AcDbLine
 10
2692.87055805
 20
-1760.64610354
 30
0.0
 11
2660.73873532
 21
-1742.09478187
 31
0.0
  0
LINE
  5
5AE
100
AcDbEntity
  8
Sc.1_5
 62
     7
  6
CONTINUOUS
100
AcDbLine
 10
2692.87055805
 20
-1760.64610354
 30
0.0
 11
2692.76584289
 21
-1766.6451897
 31
0.0
  0
LINE
  5
5AF
100
AcDbEntity
  8
Sc.1_5
 62
     7
  6
CONTINUOUS
100
AcDbLine
 10
2657.99140071
 20
-1747.9505819
 30
0.0
 11
2662.76676697
 21
-1750.70764167
 31
0.0
  0
LINE
  5
5B0
100
AcDbEntity
  8
Sc.1_5
 62
     7
  6
DASHED
370
    25
100
AcDbLine
 10
2727.39073376
 20
-1812.8366013
 30
0.0
 11
2657.7000874
 21
-1772.60067665
 31
0.0
  0
ARC
  5
5B1
100
AcDbEntity
  8
Sc.1_5
 62
     7
  6
CONTINUOUS
100
AcDbCircle
 10
2655.7535464
 20
-1741.71021531
 30
0.0
 40
5.0
100
AcDbArc
 50
355.58883546
 51
193.01067867
  0
LINE
  5
5B2
100
AcDbEntity
  8
Sc.1_5
 62
     7
  6
CONTINUOUS
100
AcDbLine
 10
2650.98764996
 20
-1743.75851286
 30
0.0
 11
2573.29450203
 21
-1788.61468525
 31
0.0
  0
LINE
  5
5B3
100
AcDbEntity
  8
Sc.1_5
 62
     7
  6
CONTINUOUS
100
AcDbLine
 10
2576.09102334
 20
-1793.45840159
 30
0.0
 11
2648.94045541
 21
-1751.39875065
 31
0.0
  0
LINE
  5
5B4
100
AcDbEntity
  8
Sc.1_5
 62
     7
  6
CONTINUOUS
100
AcDbLine
 10
2648.94045541
 20
-1751.39875065
 30
0.0
 11
2650.98764996
 21
-1743.75851286
 31
0.0
  0
LINE
  5
5B5
100
AcDbEntity
  8
Sc.1_5
 62
     7
  6
CADWORK_13
370
    25
100
AcDbLine
 10
2576.60339573
 20
-1794.34585649
 30
0.0
 11
2656.45212895
 21
-1748.24516887
 31
0.0
  0
LINE
  5
5B6
100
AcDbEntity
  8
Sc.1_5
 62
     7
  6
CONTINUOUS
100
AcDbLine
 10
2650.91582109
 20
-1743.79194896
 30
0.0
 11
2653.71582167
 21
-1748.64169088
 31
0.0
  0
LINE
  5
5B7
100
AcDbEntity
  8
Sc.1_5
 62
     7
  6
CONTINUOUS
100
AcDbLine
 10
2620.03369985
 20
-1760.64610354
 30
0.0
 11
2650.88190579
 21
-1742.83587857
 31
0.0
  0
LINE
  5
5B8
100
AcDbEntity
  8
Sc.1_5
 62
     7
  6
CONTINUOUS
100
AcDbLine
 10
2620.03369985
 20
-1760.64610354
 30
0.0
 11
2620.13841502
 21
-1766.6451897
 31
0.0
  0
LINE
  5
5B9
100
AcDbEntity
  8
Sc.1_5
 62
     7
  6
CONTINUOUS
100
AcDbLine
 10
2653.71582167
 20
-1748.64169088
 30
0.0
 11
2648.94045541
 21
-1751.39875065
 31
0.0
  0
LINE
  5
5BA
100
AcDbEntity
  8
Sc.1_5
 62
     7
  6
DASHED
370
    25
100
AcDbLine
 10
2657.7000874
 20
-1772.60067665
 30
0.0
 11
2587.46163556
 21
-1813.15287703
 31
0.0
  0
LINE
  5
5BB
100
AcDbEntity
  8
Sc.1_5
 62
     7
  6
CONTINUOUS
100
AcDbLine
 10
2648.26691654
 20
-1852.40464261
 30
0.0
 11
2648.26691654
 21
-1818.04256743
 31
0.0
  0
LINE
  5
5BC
100
AcDbEntity
  8
Sc.1_5
 62
     7
  6
CONTINUOUS
100
AcDbLine
 10
2648.26691654
 20
-1818.04256743
 30
0.0
 11
2646.46691654
 21
-1819.08179791
 31
0.0
  0
LINE
  5
5BD
100
AcDbEntity
  8
Sc.1_5
 62
     7
  6
CONTINUOUS
100
AcDbLine
 10
2646.46691654
 20
-1819.08179791
 30
0.0
 11
2646.46691654
 21
-1852.40464261
 31
0.0
  0
LINE
  5
5BE
100
AcDbEntity
  8
Sc.1_5
 62
     7
  6
CONTINUOUS
100
AcDbLine
 10
2668.93294189
 20
-1852.40464261
 30
0.0
 11
2668.93294189
 21
-1819.08179791
 31
0.0
  0
LINE
  5
5BF
100
AcDbEntity
  8
Sc.1_5
 62
     7
  6
CONTINUOUS
100
AcDbLine
 10
2667.13294189
 20
-1818.04256743
 30
0.0
 11
2667.13294189
 21
-1852.40464261
 31
0.0
  0
LINE
  5
5C0
100
AcDbEntity
  8
Sc.1_5
 62
     7
  6
CONTINUOUS
100
AcDbLine
 10
2721.6225013
 20
-1822.82747328
 30
0.0
 11
2713.55577629
 21
-1836.79945178
 31
0.0
  0
LINE
  5
5C1
100
AcDbEntity
  8
Sc.1_5
 62
     7
  6
CONTINUOUS
100
AcDbLine
 10
2741.55573795
 20
-1788.30209232
 30
0.0
 11
2726.62250112
 21
-1814.16721897
 31
0.0
  0
LINE
  5
5C2
100
AcDbEntity
  8
Sc.1_5
 62
     7
  6
CONTINUOUS
100
AcDbLine
 10
2726.62250112
 20
-1814.16721897
 30
0.0
 11
2721.04237401
 21
-1813.83228263
 31
0.0
  0
LINE
  5
5C3
100
AcDbEntity
  8
Sc.1_5
 62
     7
  6
CONTINUOUS
100
AcDbLine
 10
2721.04237401
 20
-1813.83228263
 30
0.0
 11
2727.20262841
 21
-1823.16240961
 31
0.0
  0
LINE
  5
5C4
100
AcDbEntity
  8
Sc.1_5
 62
     7
  6
CONTINUOUS
100
AcDbLine
 10
2727.20262841
 20
-1823.16240961
 30
0.0
 11
2721.6225013
 21
-1822.82747328
 31
0.0
  0
LINE
  5
5C5
100
AcDbEntity
  8
Sc.1_5
 62
     7
  6
CONTINUOUS
100
AcDbLine
 10
2592.96163611
 20
-1822.67915613
 30
0.0
 11
2587.38150902
 21
-1823.01409295
 31
0.0
  0
LINE
  5
5C6
100
AcDbEntity
  8
Sc.1_5
 62
     7
  6
CONTINUOUS
100
AcDbLine
 10
2587.38150902
 20
-1823.01409295
 30
0.0
 11
2593.54176261
 21
-1813.68396544
 31
0.0
  0
LINE
  5
5C7
100
AcDbEntity
  8
Sc.1_5
 62
     7
  6
CONTINUOUS
100
AcDbLine
 10
2593.54176261
 20
-1813.68396544
 30
0.0
 11
2587.96163553
 21
-1814.01890226
 31
0.0
  0
LINE
  5
5C8
100
AcDbEntity
  8
Sc.1_5
 62
     7
  6
CONTINUOUS
100
AcDbLine
 10
2587.96163553
 20
-1814.01890226
 30
0.0
 11
2573.29510583
 21
-1788.61573107
 31
0.0
  0
LINE
  5
5C9
100
AcDbEntity
  8
Sc.1_5
 62
     7
  6
CONTINUOUS
100
AcDbLine
 10
2607.02205767
 20
-1847.03251737
 30
0.0
 11
2592.96163611
 21
-1822.67915613
 31
0.0
  0
LINE
  5
5CA
100
AcDbEntity
  8
Sc.1_5
 62
     7
  6
CONTINUOUS
100
AcDbLine
 10
2664.69989699
 20
-1852.40464217
 30
0.0
 11
2662.19989739
 21
-1857.40464247
 31
0.0
  0
LINE
  5
5CB
100
AcDbEntity
  8
Sc.1_5
 62
     7
  6
CONTINUOUS
100
AcDbLine
 10
2662.19989739
 20
-1857.40464247
 30
0.0
 11
2657.19989644
 21
-1847.40464275
 31
0.0
  0
LINE
  5
5CC
100
AcDbEntity
  8
Sc.1_5
 62
     7
  6
CONTINUOUS
100
AcDbLine
 10
2657.19989644
 20
-1847.40464275
 30
0.0
 11
2654.69989684
 21
-1852.40464305
 31
0.0
  0
LINE
  5
5CD
100
AcDbEntity
  8
Sc.1_5
 62
     7
  6
CONTINUOUS
100
AcDbLine
 10
2654.69989684
 20
-1852.40464305
 30
0.0
 11
2642.60573001
 21
-1852.40464411
 31
0.0
  0
LINE
  5
5CE
100
AcDbEntity
  8
Sc.1_5
 62
     7
  6
CONTINUOUS
100
AcDbLine
 10
2676.07460073
 20
-1852.40464118
 30
0.0
 11
2664.69989699
 21
-1852.40464217
 31
0.0
  0
LWPOLYLINE
  5
5CF
102
{ACAD_REACTORS
330
5D0
102
}
100
AcDbEntity
  8
Sc.1_5
 62
     7
  6
CONTINUOUS
100
AcDbPolyline
 90
        4
 70
     1
 43
0.0
 10
2668.93294189
 20
-1852.40464118
 10
2668.93294189
 20
-1808.01935963
 10
2667.13294189
 20
-1806.98012914
 10
2667.13294189
 20
-1852.40464118
  0
HATCH
  5
5D0
100
AcDbEntity
  8
Sc.1_5
 62
     9
  6
CONTINUOUS
100
AcDbHatch
 10
0.0
 20
0.0
 30
0.0
210
0.0
220
0.0
230
1.0
  2
CDWK12A
 70
     0
 71
     1
 91
        1
 92
        7
 72
     0
 73
     1
 93
        4
 10
2668.93294189
 20
-1852.40464118
 10
2668.93294189
 20
-1808.01935963
 10
2667.13294189
 20
-1806.98012914
 10
2667.13294189
 20
-1852.40464118
 97
        1
330
5CF
 75
     0
 76
     2
 52
0.0
 41
1.0
 77
     0
 78
    15
 53
0.0
 43
0.0
 44
0.0
 45
2.70000005
 46
4.9000001
 79
     2
 49
0.0
 49
-3.70000005
 53
0.0
 43
0.0
 44
0.0
 45
4.4000001
 46
4.80000019
 79
     2
 49
0.0
 49
-5.4000001
 53
0.0
 43
0.0
 44
0.0
 45
1.39999998
 46
4.5999999
 79
     2
 49
0.0
 49
-2.4000001
 53
0.0
 43
0.0
 44
0.0
 45
2.20000005
 46
4.19999981
 79
     2
 49
0.0
 49
-3.20000005
 53
0.0
 43
0.0
 44
0.0
 45
3.79999995
 46
4.0
 79
     2
 49
0.0
 49
-4.80000019
 53
0.0
 43
0.0
 44
0.0
 45
1.20000005
 46
3.79999995
 79
     2
 49
0.0
 49
-2.20000005
 53
0.0
 43
0.0
 44
0.0
 45
2.9000001
 46
3.5
 79
     2
 49
0.0
 49
-3.9000001
 53
0.0
 43
0.0
 44
0.0
 45
4.5999999
 46
3.4000001
 79
     2
 49
0.0
 49
-5.5999999
 53
0.0
 43
0.0
 44
0.0
 45
1.89999998
 46
2.9000001
 79
     2
 49
0.0
 49
-2.9000001
 53
0.0
 43
0.0
 44
0.0
 45
3.20000005
 46
2.79999995
 79
     2
 49
0.0
 49
-4.19999981
 53
0.0
 43
0.0
 44
0.0
 45
3.9000001
 46
2.4000001
 79
     2
 49
0.0
 49
-4.9000001
 53
0.0
 43
0.0
 44
0.0
 45
2.4000001
 46
2.0999999
 79
     2
 49
0.0
 49
-3.4000001
 53
0.0
 43
0.0
 44
0.0
 45
4.9000001
 46
2.0999999
 79
     2
 49
0.0
 49
-5.9000001
 53
0.0
 43
0.0
 44
0.0
 45
3.5999999
 46
1.5
 79
     2
 49
0.0
 49
-4.5999999
 53
0.0
 43
0.0
 44
0.0
 45
1.60000002
 46
1.39999998
 79
     2
 49
0.0
 49
-2.5999999
 47
0.775229
 98
        1
 10
0.0
 20
0.0
  0
LWPOLYLINE
  5
5D1
102
{ACAD_REACTORS
330
5D2
102
}
100
AcDbEntity
  8
Sc.1_5
 62
     7
  6
CONTINUOUS
100
AcDbPolyline
 90
        4
 70
     1
 43
0.0
 10
2603.76468701
 20
-1843.26800206
 10
2648.30525249
 20
-1817.55249459
 10
2648.30525249
 20
-1815.47403362
 10
2602.86468701
 20
-1841.70915634
  0
HATCH
  5
5D2
100
AcDbEntity
  8
Sc.1_5
 62
     9
  6
CONTINUOUS
100
AcDbHatch
 10
0.0
 20
0.0
 30
0.0
210
0.0
220
0.0
230
1.0
  2
CDWK12A
 70
     0
 71
     1
 91
        1
 92
        7
 72
     0
 73
     1
 93
        4
 10
2603.76468701
 20
-1843.26800206
 10
2648.30525249
 20
-1817.55249459
 10
2648.30525249
 20
-1815.47403362
 10
2602.86468701
 20
-1841.70915634
 97
        1
330
5D1
 75
     0
 76
     2
 52
0.0
 41
1.0
 77
     0
 78
    15
 53
0.0
 43
0.0
 44
0.0
 45
2.70000005
 46
4.9000001
 79
     2
 49
0.0
 49
-3.70000005
 53
0.0
 43
0.0
 44
0.0
 45
4.4000001
 46
4.80000019
 79
     2
 49
0.0
 49
-5.4000001
 53
0.0
 43
0.0
 44
0.0
 45
1.39999998
 46
4.5999999
 79
     2
 49
0.0
 49
-2.4000001
 53
0.0
 43
0.0
 44
0.0
 45
2.20000005
 46
4.19999981
 79
     2
 49
0.0
 49
-3.20000005
 53
0.0
 43
0.0
 44
0.0
 45
3.79999995
 46
4.0
 79
     2
 49
0.0
 49
-4.80000019
 53
0.0
 43
0.0
 44
0.0
 45
1.20000005
 46
3.79999995
 79
     2
 49
0.0
 49
-2.20000005
 53
0.0
 43
0.0
 44
0.0
 45
2.9000001
 46
3.5
 79
     2
 49
0.0
 49
-3.9000001
 53
0.0
 43
0.0
 44
0.0
 45
4.5999999
 46
3.4000001
 79
     2
 49
0.0
 49
-5.5999999
 53
0.0
 43
0.0
 44
0.0
 45
1.89999998
 46
2.9000001
 79
     2
 49
0.0
 49
-2.9000001
 53
0.0
 43
0.0
 44
0.0
 45
3.20000005
 46
2.79999995
 79
     2
 49
0.0
 49
-4.19999981
 53
0.0
 43
0.0
 44
0.0
 45
3.9000001
 46
2.4000001
 79
     2
 49
0.0
 49
-4.9000001
 53
0.0
 43
0.0
 44
0.0
 45
2.4000001
 46
2.0999999
 79
     2
 49
0.0
 49
-3.4000001
 53
0.0
 43
0.0
 44
0.0
 45
4.9000001
 46
2.0999999
 79
     2
 49
0.0
 49
-5.9000001
 53
0.0
 43
0.0
 44
0.0
 45
3.5999999
 46
1.5
 79
     2
 49
0.0
 49
-4.5999999
 53
0.0
 43
0.0
 44
0.0
 45
1.60000002
 46
1.39999998
 79
     2
 49
0.0
 49
-2.5999999
 47
0.775229
 98
        1
 10
0.0
 20
0.0
  0
LWPOLYLINE
  5
5D3
102
{ACAD_REACTORS
330
5D4
102
}
100
AcDbEntity
  8
Sc.1_5
 62
     7
  6
CONTINUOUS
100
AcDbPolyline
 90
        4
 70
     1
 43
0.0
 10
2648.26691654
 20
-1852.40464411
 10
2648.26691654
 20
-1818.04256743
 10
2646.46691654
 20
-1819.08179791
 10
2646.46691654
 20
-1852.40464411
  0
HATCH
  5
5D4
100
AcDbEntity
  8
Sc.1_5
 62
     9
  6
CONTINUOUS
100
AcDbHatch
 10
0.0
 20
0.0
 30
0.0
210
0.0
220
0.0
230
1.0
  2
CDWK12A
 70
     0
 71
     1
 91
        1
 92
        7
 72
     0
 73
     1
 93
        4
 10
2648.26691654
 20
-1852.40464411
 10
2648.26691654
 20
-1818.04256743
 10
2646.46691654
 20
-1819.08179791
 10
2646.46691654
 20
-1852.40464411
 97
        1
330
5D3
 75
     0
 76
     2
 52
0.0
 41
1.0
 77
     0
 78
    15
 53
0.0
 43
0.0
 44
0.0
 45
2.70000005
 46
4.9000001
 79
     2
 49
0.0
 49
-3.70000005
 53
0.0
 43
0.0
 44
0.0
 45
4.4000001
 46
4.80000019
 79
     2
 49
0.0
 49
-5.4000001
 53
0.0
 43
0.0
 44
0.0
 45
1.39999998
 46
4.5999999
 79
     2
 49
0.0
 49
-2.4000001
 53
0.0
 43
0.0
 44
0.0
 45
2.20000005
 46
4.19999981
 79
     2
 49
0.0
 49
-3.20000005
 53
0.0
 43
0.0
 44
0.0
 45
3.79999995
 46
4.0
 79
     2
 49
0.0
 49
-4.80000019
 53
0.0
 43
0.0
 44
0.0
 45
1.20000005
 46
3.79999995
 79
     2
 49
0.0
 49
-2.20000005
 53
0.0
 43
0.0
 44
0.0
 45
2.9000001
 46
3.5
 79
     2
 49
0.0
 49
-3.9000001
 53
0.0
 43
0.0
 44
0.0
 45
4.5999999
 46
3.4000001
 79
     2
 49
0.0
 49
-5.5999999
 53
0.0
 43
0.0
 44
0.0
 45
1.89999998
 46
2.9000001
 79
     2
 49
0.0
 49
-2.9000001
 53
0.0
 43
0.0
 44
0.0
 45
3.20000005
 46
2.79999995
 79
     2
 49
0.0
 49
-4.19999981
 53
0.0
 43
0.0
 44
0.0
 45
3.9000001
 46
2.4000001
 79
     2
 49
0.0
 49
-4.9000001
 53
0.0
 43
0.0
 44
0.0
 45
2.4000001
 46
2.0999999
 79
     2
 49
0.0
 49
-3.4000001
 53
0.0
 43
0.0
 44
0.0
 45
4.9000001
 46
2.0999999
 79
     2
 49
0.0
 49
-5.9000001
 53
0.0
 43
0.0
 44
0.0
 45
3.5999999
 46
1.5
 79
     2
 49
0.0
 49
-4.5999999
 53
0.0
 43
0.0
 44
0.0
 45
1.60000002
 46
1.39999998
 79
     2
 49
0.0
 49
-2.5999999
 47
0.775229
 98
        1
 10
0.0
 20
0.0
  0
LINE
  5
5D5
100
AcDbEntity
  8
Sc.1_5
 62
     7
  6
CONTINUOUS
100
AcDbLine
 10
2624.3913657
 20
-1769.53520138
 30
0.0
 11
2623.18770168
 21
-1767.45039446
 31
0.0
  0
LINE
  5
5D6
100
AcDbEntity
  8
Sc.1_5
 62
     7
  6
CONTINUOUS
100
AcDbLine
 10
2632.18559434
 20
-1765.03520138
 30
0.0
 11
2630.98193031
 21
-1762.95039446
 31
0.0
  0
LINE
  5
5D7
100
AcDbEntity
  8
Sc.1_5
 62
     7
  6
CONTINUOUS
100
AcDbLine
 10
2623.18770176
 20
-1767.45039487
 30
0.0
 11
2624.39136578
 21
-1769.53520179
 31
0.0
  0
LINE
  5
5D8
100
AcDbEntity
  8
Sc.1_5
 62
     7
  6
CONTINUOUS
100
AcDbLine
 10
2624.39136578
 20
-1769.53520179
 30
0.0
 11
2632.18559434
 21
-1765.03520138
 31
0.0
  0
LINE
  5
5D9
100
AcDbEntity
  8
Sc.1_5
 62
     9
  6
CONTINUOUS
100
AcDbLine
 10
2632.18559434
 20
-1765.03520138
 30
0.0
 11
2623.18770168
 21
-1767.45039446
 31
0.0
  0
LINE
  5
5DA
100
AcDbEntity
  8
Sc.1_5
 62
     7
  6
CONTINUOUS
100
AcDbLine
 10
2630.98193031
 20
-1762.95039446
 30
0.0
 11
2623.18770176
 21
-1767.45039487
 31
0.0
  0
LINE
  5
5DB
100
AcDbEntity
  8
Sc.1_5
 62
     7
  6
CONTINUOUS
100
AcDbLine
 10
2642.09016711
 20
-1782.19042195
 30
0.0
 11
2641.1855956
 21
-1780.6236584
 31
0.0
  0
LINE
  5
5DC
100
AcDbEntity
  8
Sc.1_5
 62
     7
  6
CONTINUOUS
100
AcDbLine
 10
2633.39136705
 20
-1785.1236588
 30
0.0
 11
2634.29593855
 21
-1786.69042236
 31
0.0
  0
LINE
  5
5DD
100
AcDbEntity
  8
Sc.1_5
 62
     7
  6
CONTINUOUS
100
AcDbLine
 10
2634.29593855
 20
-1786.69042236
 30
0.0
 11
2642.09016711
 21
-1782.19042195
 31
0.0
  0
LINE
  5
5DE
100
AcDbEntity
  8
Sc.1_5
 62
     9
  6
CONTINUOUS
100
AcDbLine
 10
2642.09016711
 20
-1782.19042195
 30
0.0
 11
2633.39136697
 21
-1785.1236584
 31
0.0
  0
LINE
  5
5DF
100
AcDbEntity
  8
Sc.1_5
 62
     7
  6
CONTINUOUS
100
AcDbLine
 10
2641.1855956
 20
-1780.6236584
 30
0.0
 11
2633.39136705
 21
-1785.1236588
 31
0.0
  0
LINE
  5
5E0
100
AcDbEntity
  8
Sc.1_5
 62
     7
  6
CONTINUOUS
 48
0.5
370
    -3
100
AcDbLine
 10
2709.73088648
 20
-1753.11523481
 30
500.0
 11
2680.34227679
 21
-1760.55164391
 31
500.0
  0
INSERT
  5
5E1
100
AcDbEntity
  8
Sc.1_5
 62
     7
  6
CONTINUOUS
370
    -3
100
AcDbBlockReference
  2
CDWK_EXTR_2
 10
2680.34227679
 20
-1760.55164391
 30
500.0
 41
1.0
 42
1.0
 43
1.0
 50
14.199904
  0
LINE
  5
5E2
100
AcDbEntity
  8
Sc.1_5
 62
     7
  6
CONTINUOUS
 48
0.5
370
    -3
100
AcDbLine
 10
2709.73088648
 20
-1763.97297985
 30
500.0
 11
2682.73466092
 21
-1793.92767703
 31
500.0
  0
INSERT
  5
5E3
100
AcDbEntity
  8
Sc.1_5
 62
     7
  6
CONTINUOUS
370
    -3
100
AcDbBlockReference
  2
CDWK_EXTR_2
 10
2682.73466092
 20
-1793.92767703
 30
500.0
 41
1.0
 42
1.0
 43
1.0
 50
47.97371315
  0
LINE
  5
5E4
100
AcDbEntity
  8
Sc.1_5
 62
     7
  6
CONTINUOUS
 48
0.5
370
    -3
100
AcDbLine
 10
2687.76751387
 20
-1837.62941245
 30
500.0
 11
2664.4753875
 21
-1807.80921006
 31
500.0
  0
INSERT
  5
5E5
100
AcDbEntity
  8
Sc.1_5
 62
     7
  6
CONTINUOUS
370
    -3
100
AcDbBlockReference
  2
CDWK_EXTR_2
 10
2664.4753875
 20
-1807.80921006
 30
500.0
 41
1.0
 42
1.0
 43
1.0
 50
307.99287755
  0
LINE
  5
5E6
100
AcDbEntity
  8
Sc.1_5
 62
     7
  6
CONTINUOUS
 48
0.5
370
    -3
100
AcDbLine
 10
2687.90609712
 20
-1854.16890221
 30
500.0
 11
2661.90959571
 21
-1837.40134207
 31
500.0
  0
INSERT
  5
5E7
100
AcDbEntity
  8
Sc.1_5
 62
     7
  6
CONTINUOUS
370
    -3
100
AcDbBlockReference
  2
CDWK_EXTR_2
 10
2661.90959571
 20
-1837.40134207
 30
500.0
 41
1.0
 42
1.0
 43
1.0
 50
327.17826917
  0
LINE
  5
5E8
100
AcDbEntity
  8
Sc.1_5
 62
     7
  6
CONTINUOUS
100
AcDbLine
 10
2688.51289221
 20
-1769.53520138
 30
0.0
 11
2689.71655623
 21
-1767.45039446
 31
0.0
  0
LINE
  5
5E9
100
AcDbEntity
  8
Sc.1_5
 62
     7
  6
CONTINUOUS
100
AcDbLine
 10
2680.71866357
 20
-1765.03520138
 30
0.0
 11
2681.9223276
 21
-1762.95039446
 31
0.0
  0
LINE
  5
5EA
100
AcDbEntity
  8
Sc.1_5
 62
     7
  6
CONTINUOUS
100
AcDbLine
 10
2689.71655615
 20
-1767.45039487
 30
0.0
 11
2688.51289213
 21
-1769.53520179
 31
0.0
  0
LINE
  5
5EB
100
AcDbEntity
  8
Sc.1_5
 62
     7
  6
CONTINUOUS
100
AcDbLine
 10
2688.51289213
 20
-1769.53520179
 30
0.0
 11
2680.71866357
 21
-1765.03520138
 31
0.0
  0
LINE
  5
5EC
100
AcDbEntity
  8
Sc.1_5
 62
     9
  6
CONTINUOUS
100
AcDbLine
 10
2680.71866357
 20
-1765.03520138
 30
0.0
 11
2689.71655623
 21
-1767.45039446
 31
0.0
  0
LINE
  5
5ED
100
AcDbEntity
  8
Sc.1_5
 62
     7
  6
CONTINUOUS
100
AcDbLine
 10
2681.9223276
 20
-1762.95039446
 30
0.0
 11
2689.71655615
 21
-1767.45039487
 31
0.0
  0
LINE
  5
5EE
100
AcDbEntity
  8
Sc.1_5
 62
     7
  6
CONTINUOUS
100
AcDbLine
 10
2671.4248458
 20
-1781.13256343
 30
0.0
 11
2672.3294173
 21
-1779.56579987
 31
0.0
  0
LINE
  5
5EF
100
AcDbEntity
  8
Sc.1_5
 62
     7
  6
CONTINUOUS
100
AcDbLine
 10
2680.12364586
 20
-1784.06580028
 30
0.0
 11
2679.21907436
 21
-1785.63256383
 31
0.0
  0
LINE
  5
5F0
100
AcDbEntity
  8
Sc.1_5
 62
     7
  6
CONTINUOUS
100
AcDbLine
 10
2679.21907436
 20
-1785.63256383
 30
0.0
 11
2671.4248458
 21
-1781.13256343
 31
0.0
  0
LINE
  5
5F1
100
AcDbEntity
  8
Sc.1_5
 62
     9
  6
CONTINUOUS
100
AcDbLine
 10
2671.4248458
 20
-1781.13256343
 30
0.0
 11
2680.12364594
 21
-1784.06579987
 31
0.0
  0
LINE
  5
5F2
100
AcDbEntity
  8
Sc.1_5
 62
     7
  6
CONTINUOUS
100
AcDbLine
 10
2672.3294173
 20
-1779.56579987
 30
0.0
 11
2680.12364586
 21
-1784.06580028
 31
0.0
  0
LINE
  5
5F3
100
AcDbEntity
  8
Sc.1_5
 62
     7
  6
CONTINUOUS
 48
0.5
370
    -3
100
AcDbLine
 10
2605.73147163
 20
-1753.1382119
 30
500.0
 11
2627.84902302
 21
-1770.65411385
 31
500.0
  0
INSERT
  5
5F4
100
AcDbEntity
  8
Sc.1_5
 62
     7
  6
CONTINUOUS
370
    -3
100
AcDbBlockReference
  2
CDWK_EXTR_2
 10
2627.84902302
 20
-1770.65411385
 30
500.0
 41
1.0
 42
1.0
 43
1.0
 50
141.62268449
  0
LINE
  5
5F5
100
AcDbEntity
  8
Sc.1_5
 62
     7
  6
CONTINUOUS
 48
0.5
370
    -3
100
AcDbLine
 10
2626.12825714
 20
-1858.63593509
 30
500.0
 11
2609.32169412
 21
-1838.79338493
 31
500.0
  0
INSERT
  5
5F6
100
AcDbEntity
  8
Sc.1_5
 62
     7
  6
CONTINUOUS
370
    -3
100
AcDbBlockReference
  2
CDWK_EXTR_2
 10
2609.32169412
 20
-1838.79338493
 30
500.0
 41
1.0
 42
1.0
 43
1.0
 50
310.26446985
  0
LWPOLYLINE
  5
5F7
100
AcDbEntity
  8
Sc.1_1
 62
     7
  6
DASHDOT
370
     5
100
AcDbPolyline
 90
        4
 70
     1
 43
0.0
 10
2559.55250533
 20
-1941.58930711
 10
2591.45460319
 20
-1941.58930711
 10
2591.45460319
 20
-1925.59035714
 10
2559.55250533
 20
-1925.59035714
  0
LWPOLYLINE
  5
5F8
100
AcDbEntity
  8
Sc.1_1
 62
     7
  6
DASHDOT
370
     5
100
AcDbPolyline
 90
        4
 70
     1
 43
0.0
 10
2559.55250533
 20
-1941.58736414
 10
2591.45557744
 20
-1941.58736414
 10
2591.45557744
 20
-1925.59035714
 10
2559.55250533
 20
-1925.59035714
  0
LWPOLYLINE
  5
5F9
100
AcDbEntity
  8
LEGEND
 62
     5
  6
CONTINUOUS
370
    -3
100
AcDbPolyline
 90
        4
 70
     1
 43
0.0
 10
2591.1378018
 20
-1942.22101287
 10
2648.95315604
 20
-1942.22101287
 10
2648.95315604
 20
-1924.95865138
 10
2591.1378018
 20
-1924.95865138
  0
LWPOLYLINE
  5
5FA
100
AcDbEntity
  8
LEGEND
 62
     5
  6
CONTINUOUS
370
    -3
100
AcDbPolyline
 90
        4
 70
     1
 43
0.0
 10
2648.95315604
 20
-1942.22101287
 10
2722.34530759
 20
-1942.22101287
 10
2722.34530759
 20
-1924.95865138
 10
2648.95315604
 20
-1924.95865138
  0
LWPOLYLINE
  5
5FB
100
AcDbEntity
  8
LEGEND
 62
     5
  6
CONTINUOUS
370
    -3
100
AcDbPolyline
 90
        4
 70
     1
 43
0.0
 10
2722.34530759
 20
-1942.22101287
 10
2756.86930672
 20
-1942.22101287
 10
2756.86930672
 20
-1933.58983213
 10
2722.34530759
 20
-1933.58983213
  0
LWPOLYLINE
  5
5FC
100
AcDbEntity
  8
LEGEND
 62
     5
  6
CONTINUOUS
370
    -3
100
AcDbPolyline
 90
        4
 70
     1
 43
0.0
 10
2722.34530759
 20
-1933.58983213
 10
2737.25355626
 20
-1933.58983213
 10
2737.25355626
 20
-1924.95865138
 10
2722.34530759
 20
-1924.95865138
  0
LWPOLYLINE
  5
5FD
100
AcDbEntity
  8
LEGEND
 62
     5
  6
CONTINUOUS
370
    -3
100
AcDbPolyline
 90
        4
 70
     1
 43
0.0
 10
2559.86930672
 20
-1942.22101287
 10
2756.86930672
 20
-1942.22101287
 10
2756.86930672
 20
-1671.22101287
 10
2559.86930672
 20
-1671.22101287
  0
LWPOLYLINE
  5
5FE
100
AcDbEntity
  8
LEGEND
 62
     5
  6
CONTINUOUS
370
    -3
100
AcDbPolyline
 90
        4
 70
     1
 43
0.0
 10
2737.25355626
 20
-1933.58983213
 10
2756.86930672
 20
-1933.58983213
 10
2756.86930672
 20
-1924.95865138
 10
2737.25355626
 20
-1924.95865138
  0
LWPOLYLINE
  5
5FF
100
AcDbEntity
  8
LEGEND
 62
     5
  6
CONTINUOUS
370
    -3
100
AcDbPolyline
 90
        4
 70
     1
 43
0.0
 10
2559.86930672
 20
-1942.22101287
 10
2591.1378018
 20
-1942.22101287
 10
2591.1378018
 20
-1924.95865138
 10
2559.86930672
 20
-1924.95865138
  0
3DFACE
  5
600
100
AcDbEntity
  8
Sc.1_5
 62
     7
  6
CONTINUOUS
370
    20
100
AcDbFace
 70
     0
 10
2632.642561
 20
-1815.93398969
 30
548.63999023
 11
2636.14256049
 21
-1821.99616793
 31
548.63999023
 12
2648.26691698
 22
-1814.99616895
 32
548.63999023
 13
2644.76691749
 23
-1808.93399071
 33
548.63999023
  0
INSERT
  5
601
100
AcDbEntity
  8
Sc.1_5
 62
     0
370
    20
100
AcDbBlockReference
  2
*X2243
 10
0.0
 20
0.0
 30
0.0
  0
3DFACE
  5
602
100
AcDbEntity
  8
Sc.1_5
 62
     7
  6
CONTINUOUS
370
    20
100
AcDbFace
 70
     0
 10
2648.69992855
 20
-1810.17936383
 30
548.63999023
 11
2648.69992895
 21
-1819.17936397
 31
548.63999023
 12
2666.69992921
 22
-1819.17936318
 32
548.63999023
 13
2666.69992921
 23
-1810.17936318
 33
548.63999023
  0
INSERT
  5
603
100
AcDbEntity
  8
Sc.1_5
 62
     0
370
    20
100
AcDbBlockReference
  2
*X2244
 10
0.0
 20
0.0
 30
0.0
  0
3DFACE
  5
604
100
AcDbEntity
  8
Sc.1_5
 62
     7
  6
CONTINUOUS
370
    20
100
AcDbFace
 70
     0
 10
2624.39136578
 20
-1769.53520179
 30
548.63999023
 11
2632.18559434
 21
-1765.03520138
 31
548.63999023
 12
2641.1855956
 22
-1780.6236584
 32
548.63999023
 13
2633.39136713
 23
-1785.12365921
 33
548.63999023
  0
INSERT
  5
605
100
AcDbEntity
  8
Sc.1_5
 62
     0
370
    20
100
AcDbBlockReference
  2
*X2307
 10
0.0
 20
0.0
 30
0.0
  0
3DFACE
  5
606
100
AcDbEntity
  8
Sc.1_5
 62
     7
  6
CONTINUOUS
370
    20
100
AcDbFace
 70
     0
 10
2680.71866357
 20
-1765.03520138
 30
548.63999023
 11
2672.3294173
 21
-1779.56579987
 31
548.63999023
 12
2680.12364594
 22
-1784.06579987
 32
548.63999023
 13
2688.51289221
 23
-1769.53520138
 33
548.63999023
  0
INSERT
  5
607
100
AcDbEntity
  8
Sc.1_5
 62
     0
370
    20
100
AcDbBlockReference
  2
*X2308
 10
0.0
 20
0.0
 30
0.0
  0
3DFACE
  5
608
102
{ACAD_REACTORS
330
609
102
}
100
AcDbEntity
  8
Sc.1_5
 62
     7
  6
CONTINUOUS
100
AcDbFace
 70
     0
 10
2657.19996151
 20
-1773.46677485
 30
975.35996094
 11
2587.71163587
 21
-1813.58588956
 31
975.35996094
 12
2599.71157574
 22
-1834.37039511
 32
975.35996094
 13
2657.19997537
 23
-1801.17944285
 33
975.35996094
  0
HATCH
  5
609
100
AcDbEntity
  8
Sc.1_5
 62
     9
  6
CONTINUOUS
100
AcDbHatch
 10
0.0
 20
0.0
 30
0.0
210
0.0
220
0.0
230
1.0
  2
Wood
 70
     0
 71
     1
 91
        1
 92
        7
 72
     0
 73
     1
 93
        4
 10
2657.19996151
 20
-1773.46677485
 10
2587.71163587
 20
-1813.58588956
 10
2599.71157574
 20
-1834.37039511
 10
2657.19997537
 20
-1801.17944285
 97
        1
330
608
 75
     0
 76
     2
 52
29.84139633
 41
1.0
 77
     0
 78
    66
 53
29.84139633
 43
0.0
 44
0.0
 45
-20.51662718
 46
35.76410863
 79
     4
 49
8.24619961
 49
-12.36929989
 49
4.1230998
 49
-16.49239922
 53
29.84139633
 43
24.52188959
 44
15.25572712
 45
-20.51662718
 46
35.76410863
 79
     2
 49
8.24619961
 49
-32.98479843
 53
29.84139633
 43
19.91968298
 44
14.99222691
 45
-20.51662718
 46
35.76410863
 79
     2
 49
4.1230998
 49
-37.10800171
 53
29.84139633
 43
-0.26341322
 44
4.60225596
 45
-20.51662718
 46
35.76410863
 79
     4
 49
2.06159997
 49
-28.86170006
 49
2.06159997
 49
-8.24619961
 53
29.84139633
 43
11.22809707
 44
13.57127784
 45
-20.51662718
 46
35.76410863
 79
     4
 49
8.24619961
 49
-12.36929989
 49
2.06159997
 49
-18.55400085
 53
29.84139633
 43
1.77425802
 44
9.33619425
 45
-20.51662718
 46
35.76410863
 79
     2
 49
6.18470001
 49
-35.04639816
 53
29.84139633
 43
10.20229324
 44
15.35943529
 45
-20.51662718
 46
35.76410863
 79
     2
 49
12.36929989
 49
-28.86170006
 53
29.84139633
 43
-1.0398406
 44
10.09858507
 45
-20.51662718
 46
35.76410863
 79
     2
 49
8.24619961
 49
-32.98479843
 53
29.84139633
 43
12.75284169
 44
19.19933841
 45
-20.51662718
 46
35.76410863
 79
     2
 49
20.6154995
 49
-20.6154995
 53
29.84139633
 43
0.99783091
 44
14.83252241
 45
-20.51662718
 46
35.76410863
 79
     4
 49
4.1230998
 49
-12.36929989
 49
8.24619961
 49
-16.49239922
 53
29.84139633
 43
25.51980907
 44
30.08830021
 45
-20.51662718
 46
35.76410863
 79
     2
 49
8.24619961
 49
-32.98479843
 53
29.84139633
 43
17.85398937
 44
26.87905611
 45
-20.51662718
 46
35.76410863
 79
     2
 49
4.1230998
 49
-37.10800171
 53
29.84139633
 43
10.18830671
 44
23.66977629
 45
-20.51662718
 46
35.76410863
 79
     2
 49
4.1230998
 49
-37.10800171
 53
29.84139633
 43
-8.20663094
 44
14.30560871
 45
-20.51662718
 46
35.76410863
 79
     2
 49
8.24619961
 49
-32.98479843
 53
29.84139633
 43
9.16245353
 44
25.45801978
 45
-20.51662718
 46
35.76410863
 79
     2
 49
8.24619961
 49
-32.98479843
 53
29.84139633
 43
8.13659891
 44
27.24626574
 45
-20.51662718
 46
35.76410863
 79
     4
 49
8.24619961
 49
-8.24619961
 49
8.24619961
 49
-16.49239922
 53
29.84139633
 43
-0.0420088
 44
24.9311069
 45
-20.51662718
 46
35.76410863
 79
     4
 49
4.1230998
 49
-20.6154995
 49
8.24619961
 49
-8.24619961
 53
29.84139633
 43
6.59786872
 44
29.92854452
 45
-20.51662718
 46
35.76410863
 79
     2
 49
12.36929989
 49
-28.86170006
 53
29.84139633
 43
5.57206441
 44
31.7167028
 45
-20.51662718
 46
35.76410863
 79
     2
 49
8.24619961
 49
-32.98479843
 53
29.84139633
 43
-9.24647154
 44
24.40419378
 45
-20.51662718
 46
35.76410863
 79
     4
 49
12.36929989
 49
-16.49239922
 49
4.1230998
 49
-8.24619961
 53
29.84139633
 43
-10.2723252
 44
26.19243809
 45
-20.51662718
 46
35.76410863
 79
     2
 49
20.6154995
 49
-20.6154995
 53
29.84139633
 43
10.67321162
 44
39.39642134
 45
-20.51662718
 46
35.76410863
 79
     2
 49
4.1230998
 49
-37.10800171
 53
29.84139633
 43
-0.56892298
 44
34.13556958
 45
-20.51662718
 46
35.76410863
 79
     2
 49
8.24619961
 49
-32.98479843
 53
29.84139633
 43
-8.23465417
 44
30.92637626
 45
-20.51662718
 46
35.76410863
 79
     4
 49
4.1230998
 49
-16.49239922
 49
4.1230998
 49
-16.49239922
 53
29.84139633
 43
-12.32398318
 44
29.76884068
 45
-20.51662718
 46
35.76410863
 79
     4
 49
4.1230998
 49
-12.36929989
 49
8.24619961
 49
-16.49239922
 53
29.84139633
 43
-5.68405494
 44
34.76619086
 45
-20.51662718
 46
35.76410863
 79
     4
 49
4.1230998
 49
-20.6154995
 49
4.1230998
 49
-12.36929989
 53
29.84139633
 43
0.95582258
 44
39.76362848
 45
-20.51662718
 46
35.76410863
 79
     2
 49
12.36929989
 49
-28.86170006
 53
29.84139633
 43
-14.3756421
 44
33.34524492
 45
-20.51662718
 46
35.76410863
 79
     2
 49
8.24619961
 49
-32.98479843
 53
29.84139633
 43
2.99344278
 44
44.49765623
 45
-20.51662718
 46
35.76410863
 79
     2
 49
4.1230998
 49
-37.10800171
 53
29.84139633
 43
9.63337073
 44
49.49500404
 45
-20.51662718
 46
35.76410863
 79
     2
 49
4.1230998
 49
-37.10800171
 53
43.8775959
 43
23.49608557
 44
17.04388488
 45
-35.76408799
 46
-20.51657892
 79
     2
 49
4.24679995
 49
-165.75320435
 53
43.8775959
 43
22.45624397
 44
27.14246883
 45
-35.76408799
 46
-20.51657892
 79
     2
 49
4.24679995
 49
-165.75320435
 53
43.8775959
 43
6.56984537
 44
46.5493142
 45
-35.76408799
 46
-20.51657892
 79
     2
 49
4.24679995
 49
-165.75320435
 53
43.8775959
 43
3.53439296
 44
26.98276439
 45
-35.76408799
 46
-20.51657892
 79
     2
 49
4.24679995
 49
-165.75320435
 53
43.8775959
 43
7.60968651
 44
36.45072724
 45
-35.76408799
 46
-20.51657892
 79
     2
 49
4.24679995
 49
-165.75320435
 53
43.8775959
 43
12.72486959
 44
35.82001875
 45
-35.76408799
 46
-20.51657892
 79
     2
 49
4.24679995
 49
-165.75320435
 53
43.8775959
 43
-8.747581
 44
31.82049842
 45
-35.76408799
 46
-20.51657892
 79
     2
 49
4.24679995
 49
-165.75320435
 53
43.8775959
 43
6.5838822
 44
38.23888552
 45
-35.76408799
 46
-20.51657892
 79
     2
 49
4.24679995
 49
-165.75320435
 53
43.8775959
 43
21.43039031
 44
28.93071314
 45
-35.76408799
 46
-20.51657892
 79
     2
 49
8.49359989
 49
-161.50639343
 53
43.8775959
 43
16.31525871
 44
29.56133572
 45
-35.76408799
 46
-20.51657892
 79
     2
 49
8.49359989
 49
-161.50639343
 53
43.8775959
 43
15.28940409
 44
31.34958169
 45
-35.76408799
 46
-20.51657892
 79
     2
 49
8.49359989
 49
-161.50639343
 53
195.80520248
 43
11.22809707
 44
13.57127784
 45
-35.7640545
 46
-20.51663729
 79
     4
 49
4.24679995
 49
-8.49359989
 49
4.24679995
 49
-153.01280212
 53
195.80520248
 43
0.99783091
 44
14.83252241
 45
-35.7640545
 46
-20.51663729
 79
     2
 49
4.24679995
 49
-165.75320435
 53
195.80520248
 43
-8.23465417
 44
30.92637626
 45
-35.7640545
 46
-20.51663729
 79
     2
 49
8.49359989
 49
-161.50639343
 53
223.87759018
 43
24.52188959
 44
15.25572712
 45
35.76409003
 46
20.51657535
 79
     2
 49
4.24679995
 49
-165.75320435
 53
375.80511093
 43
31.67478245
 44
19.35909337
 45
35.76408728
 46
20.51658015
 79
     2
 49
4.24679995
 49
-165.75320435
 53
375.80511093
 43
13.7647093
 44
25.72143427
 45
35.76408728
 46
20.51658015
 79
     2
 49
4.24679995
 49
-165.75320435
 53
375.80511093
 43
17.32707484
 44
36.08351749
 45
35.76408728
 46
20.51658015
 79
     2
 49
4.24679995
 49
-165.75320435
 53
375.80511093
 43
1.48273499
 44
30.55916698
 45
35.76408728
 46
20.51658015
 79
     2
 49
4.24679995
 49
-165.75320435
 53
375.80511093
 43
-4.65825158
 44
32.97803423
 45
35.76408728
 46
20.51658015
 79
     2
 49
4.24679995
 49
-165.75320435
 53
375.80511093
 43
-2.10765318
 44
36.81784836
 45
35.76408728
 46
20.51658015
 79
     2
 49
4.24679995
 49
-165.75320435
 53
375.80511093
 43
1.48273499
 44
30.55916698
 45
35.76408728
 46
20.51658015
 79
     2
 49
4.24679995
 49
-165.75320435
 53
375.80511093
 43
9.13443113
 44
42.0787878
 45
35.76408728
 46
20.51658015
 79
     2
 49
16.98719978
 49
-153.01280212
 53
375.80511093
 43
1.52474444
 44
5.62805991
 45
35.76408728
 46
20.51658015
 79
     2
 49
16.98719978
 49
-153.01280212
 53
375.80511093
 43
3.56241548
 44
10.36199808
 45
35.76408728
 46
20.51658015
 79
     2
 49
16.98719978
 49
-153.01280212
 53
375.80511093
 43
6.11296417
 44
14.20190078
 45
35.76408728
 46
20.51658015
 79
     4
 49
4.24679995
 49
-8.49359989
 49
8.49359989
 49
-148.76600647
 53
375.80511093
 43
4.5742335
 44
16.88418039
 45
35.76408728
 46
20.51658015
 79
     4
 49
8.49359989
 49
-8.49359989
 49
8.49359989
 49
-144.51919556
 53
375.80511093
 43
-1.05382659
 44
18.40892418
 45
35.76408728
 46
20.51658015
 79
     2
 49
16.98719978
 49
-153.01280212
 53
375.80511093
 43
-6.16901021
 44
19.03963456
 45
35.76408728
 46
20.51658015
 79
     2
 49
16.98719978
 49
-153.01280212
 53
375.80511093
 43
-7.19481357
 44
20.82779119
 45
35.76408728
 46
20.51658015
 79
     2
 49
16.98719978
 49
-153.01280212
 53
375.80511093
 43
11.6850287
 44
45.91860145
 45
35.76408728
 46
20.51658015
 79
     2
 49
4.24679995
 49
-165.75320435
 53
375.80520248
 43
13.20986266
 44
51.54671327
 45
35.7640545
 46
20.51663729
 79
     2
 49
8.49359989
 49
-161.50639343
 53
375.80520248
 43
-7.22283733
 44
37.44856063
 45
35.7640545
 46
20.51663729
 79
     2
 49
8.49359989
 49
-161.50639343
 53
375.80511093
 43
7.15280435
 44
4.10331547
 45
35.76408728
 46
20.51658015
 79
     2
 49
16.98719978
 49
-153.01280212
 53
375.80511093
 43
14.24961256
 44
41.44807836
 45
35.76408728
 46
20.51658015
 79
     2
 49
12.74040031
 49
-157.25959778
 53
375.80511093
 43
19.36483563
 44
40.81750715
 45
35.76408728
 46
20.51658015
 79
     2
 49
25.48080063
 49
-144.51919556
 47
0.775229
 98
        1
 10
0.0
 20
0.0
  0
3DFACE
  5
60A
102
{ACAD_REACTORS
330
60B
102
}
100
AcDbEntity
  8
Sc.1_5
 62
     7
  6
CONTINUOUS
100
AcDbFace
 70
     0
 10
2658.2001876
 20
-1773.4667791
 30
975.35996094
 11
2658.2001876
 21
-1801.17944285
 31
975.35996094
 12
2715.14079092
 22
-1834.05412468
 32
975.35996094
 13
2727.1407308
 23
-1813.26961913
 33
975.35996094
  0
HATCH
  5
60B
100
AcDbEntity
  8
Sc.1_5
 62
     9
  6
CONTINUOUS
100
AcDbHatch
 10
0.0
 20
0.0
 30
0.0
210
0.0
220
0.0
230
1.0
  2
Wood
 70
     0
 71
     1
 91
        1
 92
        7
 72
     0
 73
     1
 93
        4
 10
2658.2001876
 20
-1773.4667791
 10
2658.2001876
 20
-1801.17944285
 10
2715.14079092
 20
-1834.05412468
 10
2727.1407308
 20
-1813.26961913
 97
        1
330
60A
 75
     0
 76
     2
 52
150.0
 41
1.0
 77
     0
 78
    66
 53
150.0
 43
0.0
 44
0.0
 45
-20.61554909
 46
-35.70717845
 79
     4
 49
8.24619961
 49
-12.36929989
 49
4.1230998
 49
-16.49239922
 53
150.0
 43
-25.51036544
 44
13.53815106
 45
-20.61554909
 46
-35.70717845
 79
     2
 49
8.24619961
 49
-32.98479843
 53
150.0
 43
-22.97040583
 44
9.69128959
 45
-20.61554909
 46
-35.70717845
 79
     2
 49
4.1230998
 49
-37.10800171
 53
150.0
 43
-3.84694785
 44
-2.53990919
 45
-20.61554909
 46
-35.70717845
 79
     4
 49
2.06159997
 49
-28.86170006
 49
2.06159997
 49
-8.24619961
 53
150.0
 43
-17.3751867
 44
2.89009228
 45
-20.61554909
 46
-35.70717845
 79
     4
 49
8.24619961
 49
-12.36929989
 49
2.06159997
 49
-18.55400085
 53
150.0
 43
-8.96380743
 44
-3.15636988
 45
-20.61554909
 46
-35.70717845
 79
     2
 49
6.18470001
 49
-35.04639816
 53
150.0
 43
-18.40593649
 44
1.10478126
 45
-20.61554909
 46
-35.70717845
 79
     2
 49
12.36929989
 49
-28.86170006
 53
150.0
 43
-8.20920939
 44
-5.97256814
 45
-20.61554909
 46
-35.70717845
 79
     2
 49
8.24619961
 49
-32.98479843
 53
150.0
 43
-23.00744642
 44
1.38093284
 45
-20.61554909
 46
-35.70717845
 79
     2
 49
20.6154995
 49
-20.6154995
 53
150.0
 43
-13.32606829
 44
-6.58902813
 45
-20.61554909
 46
-35.70717845
 79
     4
 49
4.1230998
 49
-12.36929989
 49
8.24619961
 49
-16.49239922
 53
150.0
 43
-38.83652204
 44
6.94917405
 45
-20.61554909
 46
-35.70717845
 79
     2
 49
8.24619961
 49
-32.98479843
 53
150.0
 43
-32.21041526
 44
1.93332436
 45
-20.61554909
 46
-35.70717845
 79
     2
 49
4.1230998
 49
-37.10800171
 53
150.0
 43
-25.58434643
 44
-3.0823889
 45
-20.61554909
 46
-35.70717845
 79
     2
 49
4.1230998
 49
-37.10800171
 53
150.0
 43
-8.24619961
 44
-14.28283669
 45
-20.61554909
 46
-35.70717845
 79
     2
 49
8.24619961
 49
-32.98479843
 53
150.0
 43
-26.61514582
 44
-4.86778581
 45
-20.61554909
 46
-35.70717845
 79
     2
 49
8.24619961
 49
-32.98479843
 53
150.0
 43
-27.64594664
 44
-6.6531852
 45
-20.61554909
 46
-35.70717845
 79
     4
 49
8.24619961
 49
-8.24619961
 49
8.24619961
 49
-16.49239922
 53
150.0
 43
-21.53527761
 44
-12.5615952
 45
-20.61554909
 46
-35.70717845
 79
     4
 49
4.1230998
 49
-20.6154995
 49
8.24619961
 49
-8.24619961
 53
150.0
 43
-29.19209589
 44
-9.33119427
 45
-20.61554909
 46
-35.70717845
 79
     2
 49
12.36929989
 49
-28.86170006
 53
150.0
 43
-30.22284616
 44
-11.11650611
 45
-20.61554909
 46
-35.70717845
 79
     2
 49
8.24619961
 49
-32.98479843
 53
150.0
 43
-16.45540899
 44
-20.25540483
 45
-20.61554909
 46
-35.70717845
 79
     4
 49
12.36929989
 49
-16.49239922
 49
4.1230998
 49
-8.24619961
 53
150.0
 43
-17.48620886
 44
-22.04080257
 45
-20.61554909
 46
-35.70717845
 79
     2
 49
20.6154995
 49
-20.6154995
 53
150.0
 43
-39.42581548
 44
-10.56411542
 45
-20.61554909
 46
-35.70717845
 79
     2
 49
4.1230998
 49
-37.10800171
 53
150.0
 43
-29.22908665
 44
-17.64146471
 45
-20.61554909
 46
-35.70717845
 79
     2
 49
8.24619961
 49
-32.98479843
 53
150.0
 43
-22.60306824
 44
-22.65726338
 45
-20.61554909
 46
-35.70717845
 79
     4
 49
4.1230998
 49
-16.49239922
 49
4.1230998
 49
-16.49239922
 53
150.0
 43
-19.547759
 44
-25.61151215
 45
-20.61554909
 46
-35.70717845
 79
     4
 49
4.1230998
 49
-12.36929989
 49
8.24619961
 49
-16.49239922
 53
150.0
 43
-27.20452715
 44
-22.38102344
 45
-20.61554909
 46
-35.70717845
 79
     4
 49
4.1230998
 49
-20.6154995
 49
4.1230998
 49
-12.36929989
 53
150.0
 43
-34.86134542
 44
-19.1506225
 45
-20.61554909
 46
-35.70717845
 79
     2
 49
12.36929989
 49
-28.86170006
 53
150.0
 43
-21.60931009
 44
-29.18222339
 45
-20.61554909
 46
-35.70717845
 79
     2
 49
8.24619961
 49
-32.98479843
 53
150.0
 43
-39.97825672
 44
-19.76717228
 45
-20.61554909
 46
-35.70717845
 79
     2
 49
4.1230998
 49
-37.10800171
 53
150.0
 43
-47.63502267
 44
-16.53668262
 45
-20.61554909
 46
-35.70717845
 79
     2
 49
4.1230998
 49
-37.10800171
 53
164.03619957
 43
-26.54111542
 44
11.75283973
 45
35.70712635
 46
-20.61555549
 79
     2
 49
4.24679995
 49
-165.75320435
 53
164.03619957
 43
-34.75032332
 44
5.78027129
 45
35.70712635
 46
-20.61555549
 79
     2
 49
4.24679995
 49
-165.75320435
 53
164.03619957
 43
-43.5489663
 44
-17.70562213
 45
35.70712635
 46
-20.61555549
 79
     2
 49
4.24679995
 49
-165.75320435
 53
164.03619957
 43
-25.10598637
 44
-10.50004554
 45
35.70712635
 46
-20.61555549
 79
     2
 49
4.24679995
 49
-165.75320435
 53
164.03619957
 43
-35.33975555
 44
-11.73305258
 45
35.70712635
 46
-20.61555549
 79
     2
 49
4.24679995
 49
-165.75320435
 53
164.03619957
 43
-37.36426534
 44
-6.99340583
 45
35.70712635
 46
-20.61555549
 79
     2
 49
4.24679995
 49
-165.75320435
 53
164.03619957
 43
-23.11846817
 44
-23.54996225
 45
35.70712635
 46
-20.61555549
 79
     2
 49
4.24679995
 49
-165.75320435
 53
164.03619957
 43
-36.37050582
 44
-13.51836443
 45
35.70712635
 46
-20.61555549
 79
     2
 49
4.24679995
 49
-165.75320435
 53
164.03619957
 43
-35.78112319
 44
3.99487355
 45
35.70712635
 46
-20.61555549
 79
     2
 49
8.49359989
 49
-161.50639343
 53
164.03619957
 43
-33.75656499
 44
-0.74468553
 45
35.70712635
 46
-20.61555549
 79
     2
 49
8.49359989
 49
-161.50639343
 53
164.03619957
 43
-34.78736581
 44
-2.53008492
 45
35.70712635
 46
-20.61555549
 79
     2
 49
8.49359989
 49
-161.50639343
 53
315.96380615
 43
-17.3751867
 44
2.89009228
 45
35.70716
 46
-20.6154972
 79
     4
 49
4.24679995
 49
-8.49359989
 49
4.24679995
 49
-153.01280212
 53
315.96380615
 43
-13.32606829
 44
-6.58902813
 45
35.70716
 46
-20.6154972
 79
     2
 49
4.24679995
 49
-165.75320435
 53
315.96380615
 43
-22.60306824
 44
-22.65726338
 45
35.70716
 46
-20.6154972
 79
     2
 49
8.49359989
 49
-161.50639343
 53
344.03619385
 43
-25.51036544
 44
13.53815106
 45
-35.70712429
 46
20.61555905
 79
     2
 49
4.24679995
 49
-165.75320435
 53
495.9637146
 43
-32.65187216
 44
17.66130188
 45
-35.70712706
 46
20.61555426
 79
     2
 49
4.24679995
 49
-165.75320435
 53
495.9637146
 43
-29.15505601
 44
-1.02083876
 45
-35.70712706
 46
20.61555426
 79
     2
 49
4.24679995
 49
-165.75320435
 53
495.9637146
 43
-39.90422299
 44
-3.1465448
 45
-35.70712706
 46
20.61555426
 79
     2
 49
4.24679995
 49
-165.75320435
 53
495.9637146
 43
-27.16753651
 44
-14.07075512
 45
-35.70712706
 46
20.61555426
 79
     2
 49
4.24679995
 49
-165.75320435
 53
495.9637146
 43
-26.17377783
 44
-20.59571324
 45
-35.70712706
 46
20.61555426
 79
     2
 49
4.24679995
 49
-165.75320435
 53
495.9637146
 43
-30.77523591
 44
-20.31947377
 45
-35.70712706
 46
20.61555426
 79
     2
 49
4.24679995
 49
-165.75320435
 53
495.9637146
 43
-27.16753651
 44
-14.07075512
 45
-35.70712706
 46
20.61555426
 79
     2
 49
4.24679995
 49
-165.75320435
 53
495.9637146
 43
-40.97201527
 44
-13.24221203
 45
-35.70712706
 46
20.61555426
 79
     2
 49
16.98719978
 49
-153.01280212
 53
495.9637146
 43
-5.63225907
 44
-1.50915927
 45
-35.70712706
 46
20.61555426
 79
     2
 49
16.98719978
 49
-153.01280212
 53
495.9637146
 43
-10.74911845
 44
-2.12562008
 45
-35.70712706
 46
20.61555426
 79
     2
 49
16.98719978
 49
-153.01280212
 53
495.9637146
 43
-15.35062814
 44
-1.8494681
 45
-35.70712706
 46
20.61555426
 79
     4
 49
4.24679995
 49
-8.49359989
 49
8.49359989
 49
-148.76600647
 53
495.9637146
 43
-16.89677787
 44
-4.52747799
 45
-35.70712706
 46
20.61555426
 79
     4
 49
8.49359989
 49
-8.49359989
 49
8.49359989
 49
-144.51919556
 53
495.9637146
 43
-15.38761795
 44
-10.15973689
 45
-35.70712706
 46
20.61555426
 79
     2
 49
16.98719978
 49
-153.01280212
 53
495.9637146
 43
-13.36310953
 44
-14.89938505
 45
-35.70712706
 46
20.61555426
 79
     2
 49
16.98719978
 49
-153.01280212
 53
495.9637146
 43
-14.39385885
 44
-16.68469524
 45
-35.70712706
 46
20.61555426
 79
     2
 49
16.98719978
 49
-153.01280212
 53
495.9637146
 43
-45.57347253
 44
-12.96597303
 45
-35.70712706
 46
20.61555426
 79
     2
 49
4.24679995
 49
-165.75320435
 53
495.96380615
 43
-51.20582145
 44
-14.47508098
 45
-35.70716
 46
20.6154972
 79
     2
 49
8.49359989
 49
-161.50639343
 53
495.96380615
 43
-28.75072885
 44
-25.05912335
 45
-35.70716
 46
20.6154972
 79
     2
 49
8.49359989
 49
-161.50639343
 53
495.9637146
 43
-7.14141835
 44
4.1230998
 45
-35.70712706
 46
20.61555426
 79
     2
 49
16.98719978
 49
-153.01280212
 53
495.9637146
 43
-42.99652341
 44
-8.50256623
 45
-35.70712706
 46
20.61555426
 79
     2
 49
12.74040031
 49
-157.25959778
 53
495.9637146
 43
-45.02117199
 44
-3.76295388
 45
-35.70712706
 46
20.61555426
 79
     2
 49
25.48080063
 49
-144.51919556
 47
0.775229
 98
        1
 10
0.0
 20
0.0
  0
LWPOLYLINE
  5
60C
100
AcDbEntity
  8
Sc.1_5
 62
     9
  6
CONTINUOUS
370
    20
100
AcDbPolyline
 90
       11
 70
     1
 43
0.0
 38
548.63999023
 39
-548.63999023
 10
2669.924129
 20
-1781.91870025
 10
2658.23270656
 20
-1817.19871385
 10
2658.14647021
 20
-1817.4589405
 10
2657.83521054
 20
-1818.1388613
 10
2657.73167118
 20
-1818.30688211
 10
2657.09795793
 20
-1819.03344034
 10
2657.06249668
 20
-1817.90146156
 10
2657.08733967
 20
-1817.74852606
 10
2657.28060343
 20
-1816.89280089
 10
2657.34505492
 20
-1816.69831218
 10
2668.97581117
 20
-1781.60367288
  0
LWPOLYLINE
  5
60D
100
AcDbEntity
  8
Sc.1_5
 62
     9
  6
CONTINUOUS
370
    20
100
AcDbPolyline
 90
        8
 70
     1
 43
0.0
 38
548.63999023
 39
-548.63999023
 10
2657.22358742
 20
-1815.47536352
 10
2657.59343922
 20
-1815.94878821
 10
2658.46056468
 20
-1816.51112963
 10
2658.91536438
 20
-1816.72821568
 10
2658.54551259
 20
-1816.25479099
 10
2657.67838713
 20
-1815.69244957
 10
2657.22358742
 20
-1815.47536352
 10
2658.91536438
 20
-1816.72821568
  0
LWPOLYLINE
  5
60E
100
AcDbEntity
  8
Sc.1_5
 62
     9
  6
CONTINUOUS
370
    20
100
AcDbPolyline
 90
        8
 70
     1
 43
0.0
 38
548.63999023
 39
-548.63999023
 10
2657.612781
 20
-1814.30093375
 10
2657.98263279
 20
-1814.77435844
 10
2658.84975825
 20
-1815.33669986
 10
2659.30455796
 20
-1815.55378591
 10
2658.93470616
 20
-1815.08036122
 10
2658.0675807
 20
-1814.5180198
 10
2657.612781
 20
-1814.30093375
 10
2659.30455796
 20
-1815.55378591
  0
3DFACE
  5
60F
100
AcDbEntity
  8
Sc.1_5
 62
     9
  6
CONTINUOUS
370
    20
100
AcDbFace
 70
     0
 10
2671.56752835
 20
-1781.09225234
 30
548.63999023
 11
2669.92366814
 21
-1781.91778269
 31
548.63999023
 12
2668.97581117
 22
-1781.60367288
 32
548.63999023
 13
2668.15028084
 23
-1779.95981274
 33
548.63999023
  0
3DFACE
  5
610
100
AcDbEntity
  8
Sc.1_5
 62
     9
  6
CONTINUOUS
370
    20
100
AcDbFace
 70
     0
 10
2671.56752835
 20
-1781.09225234
 30
548.63999023
 11
2671.63044166
 21
-1780.90240525
 31
548.63999023
 12
2668.21319415
 22
-1779.76996566
 32
548.63999023
 13
2668.15028084
 23
-1779.95981274
 33
548.63999023
  0
LWPOLYLINE
  5
611
100
AcDbEntity
  8
Sc.1_5
 62
     9
  6
CADWORK_13
370
    -3
100
AcDbPolyline
 90
        4
 70
     0
 43
0.0
 38
510.0
 10
2669.44720019
 20
-1780.17890218
 10
2669.3764619
 20
-1781.02815741
 10
2669.94600316
 20
-1781.21689734
 10
2670.39643561
 20
-1780.49346873
  0
LINE
  5
612
100
AcDbEntity
  8
Sc.1_5
 62
     9
  6
CADWORK_13
370
    -3
100
AcDbLine
 10
2669.66123253
 20
-1781.12252737
 30
510.0
 11
2669.9218179
 21
-1780.33618546
 31
510.0
  0
LWPOLYLINE
  5
613
100
AcDbEntity
  8
Sc.1_5
 62
     9
  6
CONTINUOUS
370
    20
100
AcDbPolyline
 90
        8
 70
     1
 43
0.0
 38
548.63999023
 39
-548.63999023
 10
2658.00197457
 20
-1813.12650399
 10
2658.37182637
 20
-1813.59992868
 10
2659.23895182
 20
-1814.1622701
 10
2659.69375153
 20
-1814.37935615
 10
2659.32389973
 20
-1813.90593146
 10
2658.45677427
 20
-1813.34359004
 10
2658.00197457
 20
-1813.12650399
 10
2659.69375153
 20
-1814.37935615
  0
LWPOLYLINE
  5
614
100
AcDbEntity
  8
Sc.1_5
 62
     9
  6
CONTINUOUS
370
    20
100
AcDbPolyline
 90
        8
 70
     1
 43
0.0
 38
548.63999023
 39
-548.63999023
 10
2658.39116814
 20
-1811.95207423
 10
2658.76101994
 20
-1812.42549891
 10
2659.62814539
 20
-1812.98784033
 10
2660.0829451
 20
-1813.20492638
 10
2659.7130933
 20
-1812.7315017
 10
2658.84596784
 20
-1812.16916028
 10
2658.39116814
 20
-1811.95207423
 10
2660.0829451
 20
-1813.20492638
  0
LWPOLYLINE
  5
615
100
AcDbEntity
  8
Sc.1_5
 62
     9
  6
CONTINUOUS
370
    20
100
AcDbPolyline
 90
        8
 70
     1
 43
0.0
 38
548.63999023
 39
-548.63999023
 10
2658.78036171
 20
-1810.77764446
 10
2659.15021351
 20
-1811.25106915
 10
2660.01733897
 20
-1811.81341057
 10
2660.47213867
 20
-1812.03049662
 10
2660.10228687
 20
-1811.55707193
 10
2659.23516142
 20
-1810.99473051
 10
2658.78036171
 20
-1810.77764446
 10
2660.47213867
 20
-1812.03049662
  0
LWPOLYLINE
  5
616
100
AcDbEntity
  8
Sc.1_5
 62
     9
  6
CONTINUOUS
370
    20
100
AcDbPolyline
 90
        8
 70
     1
 43
0.0
 38
548.63999023
 39
-548.63999023
 10
2659.16955528
 20
-1809.6032147
 10
2659.53940708
 20
-1810.07663939
 10
2660.40653254
 20
-1810.63898081
 10
2660.86133224
 20
-1810.85606686
 10
2660.49148045
 20
-1810.38264217
 10
2659.62435499
 20
-1809.82030075
 10
2659.16955528
 20
-1809.6032147
 10
2660.86133224
 20
-1810.85606686
  0
LWPOLYLINE
  5
617
100
AcDbEntity
  8
Sc.1_5
 62
     9
  6
CONTINUOUS
370
    20
100
AcDbPolyline
 90
        8
 70
     1
 43
0.0
 38
548.63999023
 39
-548.63999023
 10
2659.55874885
 20
-1808.42878493
 10
2659.92860065
 20
-1808.90220962
 10
2660.79572611
 20
-1809.46455104
 10
2661.25052582
 20
-1809.68163709
 10
2660.88067402
 20
-1809.2082124
 10
2660.01354856
 20
-1808.64587098
 10
2659.55874885
 20
-1808.42878493
 10
2661.25052582
 20
-1809.68163709
  0
LWPOLYLINE
  5
618
100
AcDbEntity
  8
Sc.1_5
 62
     9
  6
CONTINUOUS
370
    20
100
AcDbPolyline
 90
        8
 70
     1
 43
0.0
 38
548.63999023
 39
-548.63999023
 10
2659.94794243
 20
-1807.25435517
 10
2660.31779422
 20
-1807.72777986
 10
2661.18491968
 20
-1808.29012128
 10
2661.63971939
 20
-1808.50720733
 10
2661.26986759
 20
-1808.03378264
 10
2660.40274213
 20
-1807.47144122
 10
2659.94794243
 20
-1807.25435517
 10
2661.63971939
 20
-1808.50720733
  0
LWPOLYLINE
  5
619
100
AcDbEntity
  8
Sc.1_5
 62
     9
  6
CONTINUOUS
370
    20
100
AcDbPolyline
 90
        8
 70
     1
 43
0.0
 38
548.63999023
 39
-548.63999023
 10
2660.337136
 20
-1806.0799254
 10
2660.7069878
 20
-1806.55335009
 10
2661.57411325
 20
-1807.11569151
 10
2662.02891296
 20
-1807.33277756
 10
2661.65906116
 20
-1806.85935287
 10
2660.7919357
 20
-1806.29701145
 10
2660.337136
 20
-1806.0799254
 10
2662.02891296
 20
-1807.33277756
  0
LWPOLYLINE
  5
61A
100
AcDbEntity
  8
Sc.1_5
 62
     9
  6
CONTINUOUS
370
    20
100
AcDbPolyline
 90
        8
 70
     1
 43
0.0
 38
548.63999023
 39
-548.63999023
 10
2660.72632957
 20
-1804.90549564
 10
2661.09618137
 20
-1805.37892033
 10
2661.96330683
 20
-1805.94126175
 10
2662.41810653
 20
-1806.1583478
 10
2662.04825473
 20
-1805.68492311
 10
2661.18112928
 20
-1805.12258169
 10
2660.72632957
 20
-1804.90549564
 10
2662.41810653
 20
-1806.1583478
  0
LWPOLYLINE
  5
61B
100
AcDbEntity
  8
Sc.1_5
 62
     9
  6
CONTINUOUS
370
    20
100
AcDbPolyline
 90
        8
 70
     1
 43
0.0
 38
548.63999023
 39
-548.63999023
 10
2661.11552314
 20
-1803.73106588
 10
2661.48537494
 20
-1804.20449056
 10
2662.3525004
 20
-1804.76683198
 10
2662.8073001
 20
-1804.98391803
 10
2662.4374483
 20
-1804.51049334
 10
2661.57032285
 20
-1803.94815193
 10
2661.11552314
 20
-1803.73106588
 10
2662.8073001
 20
-1804.98391803
  0
LWPOLYLINE
  5
61C
100
AcDbEntity
  8
Sc.1_5
 62
     9
  6
CONTINUOUS
370
    20
100
AcDbPolyline
 90
        8
 70
     1
 43
0.0
 38
548.63999023
 39
-548.63999023
 10
2661.50471671
 20
-1802.55663611
 10
2661.87456851
 20
-1803.0300608
 10
2662.74169397
 20
-1803.59240222
 10
2663.19649367
 20
-1803.80948827
 10
2662.82664188
 20
-1803.33606358
 10
2661.95951642
 20
-1802.77372216
 10
2661.50471671
 20
-1802.55663611
 10
2663.19649367
 20
-1803.80948827
  0
LWPOLYLINE
  5
61D
100
AcDbEntity
  8
Sc.1_5
 62
     9
  6
CONTINUOUS
370
    20
100
AcDbPolyline
 90
        8
 70
     1
 43
0.0
 38
548.63999023
 39
-548.63999023
 10
2661.89391029
 20
-1801.38220635
 10
2662.26376208
 20
-1801.85563104
 10
2663.13088754
 20
-1802.41797245
 10
2663.58568725
 20
-1802.6350585
 10
2663.21583545
 20
-1802.16163382
 10
2662.34870999
 20
-1801.5992924
 10
2661.89391029
 20
-1801.38220635
 10
2663.58568725
 20
-1802.6350585
  0
LWPOLYLINE
  5
61E
100
AcDbEntity
  8
Sc.1_5
 62
     9
  6
CONTINUOUS
370
    20
100
AcDbPolyline
 90
        8
 70
     1
 43
0.0
 38
548.63999023
 39
-548.63999023
 10
2662.28310386
 20
-1800.20777658
 10
2662.65295566
 20
-1800.68120127
 10
2663.52008111
 20
-1801.24354269
 10
2663.97488082
 20
-1801.46062874
 10
2663.60502902
 20
-1800.98720405
 10
2662.73790356
 20
-1800.42486263
 10
2662.28310386
 20
-1800.20777658
 10
2663.97488082
 20
-1801.46062874
  0
LWPOLYLINE
  5
61F
100
AcDbEntity
  8
Sc.1_5
 62
     9
  6
CONTINUOUS
370
    20
100
AcDbPolyline
 90
        8
 70
     1
 43
0.0
 38
548.63999023
 39
-548.63999023
 10
2662.67229743
 20
-1799.03334682
 10
2663.04214923
 20
-1799.50677151
 10
2663.90927468
 20
-1800.06911293
 10
2664.36407439
 20
-1800.28619898
 10
2663.99422259
 20
-1799.81277429
 10
2663.12709713
 20
-1799.25043287
 10
2662.67229743
 20
-1799.03334682
 10
2664.36407439
 20
-1800.28619898
  0
LWPOLYLINE
  5
620
100
AcDbEntity
  8
Sc.1_5
 62
     9
  6
CONTINUOUS
370
    20
100
AcDbPolyline
 90
        8
 70
     1
 43
0.0
 38
548.63999023
 39
-548.63999023
 10
2663.061491
 20
-1797.85891705
 10
2663.4313428
 20
-1798.33234174
 10
2664.29846826
 20
-1798.89468316
 10
2664.75326796
 20
-1799.11176921
 10
2664.38341616
 20
-1798.63834452
 10
2663.51629071
 20
-1798.0760031
 10
2663.061491
 20
-1797.85891705
 10
2664.75326796
 20
-1799.11176921
  0
LWPOLYLINE
  5
621
100
AcDbEntity
  8
Sc.1_5
 62
     9
  6
CONTINUOUS
370
    20
100
AcDbPolyline
 90
        8
 70
     1
 43
0.0
 38
548.63999023
 39
-548.63999023
 10
2663.45068457
 20
-1796.68448729
 10
2663.82053637
 20
-1797.15791198
 10
2664.68766183
 20
-1797.7202534
 10
2665.14246153
 20
-1797.93733945
 10
2664.77260973
 20
-1797.46391476
 10
2663.90548428
 20
-1796.90157334
 10
2663.45068457
 20
-1796.68448729
 10
2665.14246153
 20
-1797.93733945
  0
LWPOLYLINE
  5
622
100
AcDbEntity
  8
Sc.1_5
 62
     9
  6
CONTINUOUS
370
    20
100
AcDbPolyline
 90
        8
 70
     1
 43
0.0
 38
548.63999023
 39
-548.63999023
 10
2663.83987814
 20
-1795.51005752
 10
2664.20972994
 20
-1795.98348221
 10
2665.0768554
 20
-1796.54582363
 10
2665.5316551
 20
-1796.76290968
 10
2665.16180331
 20
-1796.28948499
 10
2664.29467785
 20
-1795.72714357
 10
2663.83987814
 20
-1795.51005752
 10
2665.5316551
 20
-1796.76290968
  0
LWPOLYLINE
  5
623
100
AcDbEntity
  8
Sc.1_5
 62
     9
  6
CONTINUOUS
370
    20
100
AcDbPolyline
 90
        8
 70
     1
 43
0.0
 38
548.63999023
 39
-548.63999023
 10
2664.22907172
 20
-1794.33562776
 10
2664.59892351
 20
-1794.80905245
 10
2665.46604897
 20
-1795.37139387
 10
2665.92084868
 20
-1795.58847992
 10
2665.55099688
 20
-1795.11505523
 10
2664.68387142
 20
-1794.55271381
 10
2664.22907172
 20
-1794.33562776
 10
2665.92084868
 20
-1795.58847992
  0
LWPOLYLINE
  5
624
100
AcDbEntity
  8
Sc.1_5
 62
     9
  6
CONTINUOUS
370
    20
100
AcDbPolyline
 90
        8
 70
     1
 43
0.0
 38
548.63999023
 39
-548.63999023
 10
2664.61826529
 20
-1793.161198
 10
2664.98811709
 20
-1793.63462268
 10
2665.85524254
 20
-1794.1969641
 10
2666.31004225
 20
-1794.41405015
 10
2665.94019045
 20
-1793.94062546
 10
2665.07306499
 20
-1793.37828405
 10
2664.61826529
 20
-1793.161198
 10
2666.31004225
 20
-1794.41405015
  0
LWPOLYLINE
  5
625
100
AcDbEntity
  8
Sc.1_5
 62
     9
  6
CONTINUOUS
370
    20
100
AcDbPolyline
 90
        8
 70
     1
 43
0.0
 38
548.63999023
 39
-548.63999023
 10
2665.00745886
 20
-1791.98676823
 10
2665.37731066
 20
-1792.46019292
 10
2666.24443611
 20
-1793.02253434
 10
2666.69923582
 20
-1793.23962039
 10
2666.32938402
 20
-1792.7661957
 10
2665.46225856
 20
-1792.20385428
 10
2665.00745886
 20
-1791.98676823
 10
2666.69923582
 20
-1793.23962039
  0
LWPOLYLINE
  5
626
100
AcDbEntity
  8
Sc.1_5
 62
     9
  6
CONTINUOUS
370
    20
100
AcDbPolyline
 90
        8
 70
     1
 43
0.0
 38
548.63999023
 39
-548.63999023
 10
2665.39665243
 20
-1790.81233847
 10
2665.76650423
 20
-1791.28576316
 10
2666.63362969
 20
-1791.84810457
 10
2667.08842939
 20
-1792.06519062
 10
2666.71857759
 20
-1791.59176594
 10
2665.85145214
 20
-1791.02942452
 10
2665.39665243
 20
-1790.81233847
 10
2667.08842939
 20
-1792.06519062
  0
LWPOLYLINE
  5
627
100
AcDbEntity
  8
Sc.1_5
 62
     9
  6
CONTINUOUS
370
    20
100
AcDbPolyline
 90
        8
 70
     1
 43
0.0
 38
548.63999023
 39
-548.63999023
 10
2665.785846
 20
-1789.6379087
 10
2666.1556978
 20
-1790.11133339
 10
2667.02282326
 20
-1790.67367481
 10
2667.47762296
 20
-1790.89076086
 10
2667.10777117
 20
-1790.41733617
 10
2666.24064571
 20
-1789.85499475
 10
2665.785846
 20
-1789.6379087
 10
2667.47762296
 20
-1790.89076086
  0
LWPOLYLINE
  5
628
100
AcDbEntity
  8
Sc.1_5
 62
     9
  6
CONTINUOUS
370
    20
100
AcDbPolyline
 90
        8
 70
     1
 43
0.0
 38
548.63999023
 39
-548.63999023
 10
2666.17503957
 20
-1788.46347894
 10
2666.54489137
 20
-1788.93690363
 10
2667.41201683
 20
-1789.49924505
 10
2667.86681654
 20
-1789.7163311
 10
2667.49696474
 20
-1789.24290641
 10
2666.62983928
 20
-1788.68056499
 10
2666.17503957
 20
-1788.46347894
 10
2667.86681654
 20
-1789.7163311
  0
LWPOLYLINE
  5
629
100
AcDbEntity
  8
Sc.1_5
 62
     9
  6
CONTINUOUS
370
    20
100
AcDbPolyline
 90
        8
 70
     1
 43
0.0
 38
548.63999023
 39
-548.63999023
 10
2666.56423315
 20
-1787.28904917
 10
2666.93408494
 20
-1787.76247386
 10
2667.8012104
 20
-1788.32481528
 10
2668.25601011
 20
-1788.54190133
 10
2667.88615831
 20
-1788.06847664
 10
2667.01903285
 20
-1787.50613522
 10
2666.56423315
 20
-1787.28904917
 10
2668.25601011
 20
-1788.54190133
  0
LWPOLYLINE
  5
62A
100
AcDbEntity
  8
Sc.1_5
 62
     9
  6
CONTINUOUS
370
    20
100
AcDbPolyline
 90
        8
 70
     1
 43
0.0
 38
548.63999023
 39
-548.63999023
 10
2666.95342672
 20
-1786.11461941
 10
2667.32327852
 20
-1786.5880441
 10
2668.19040397
 20
-1787.15038552
 10
2668.64520368
 20
-1787.36747157
 10
2668.27535188
 20
-1786.89404688
 10
2667.40822642
 20
-1786.33170546
 10
2666.95342672
 20
-1786.11461941
 10
2668.64520368
 20
-1787.36747157
  0
LWPOLYLINE
  5
62B
100
AcDbEntity
  8
Sc.1_5
 62
     9
  6
CONTINUOUS
370
    20
100
AcDbPolyline
 90
        8
 70
     1
 43
0.0
 38
548.63999023
 39
-548.63999023
 10
2667.34262029
 20
-1784.94018964
 10
2667.71247209
 20
-1785.41361433
 10
2668.57959755
 20
-1785.97595575
 10
2669.03439725
 20
-1786.1930418
 10
2668.66454545
 20
-1785.71961711
 10
2667.79742
 20
-1785.15727569
 10
2667.34262029
 20
-1784.94018964
 10
2669.03439725
 20
-1786.1930418
  0
LWPOLYLINE
  5
62C
100
AcDbEntity
  8
Sc.1_5
 62
     9
  6
CONTINUOUS
370
    20
100
AcDbPolyline
 90
        8
 70
     1
 43
0.0
 38
548.63999023
 39
-548.63999023
 10
2667.73181386
 20
-1783.76575988
 10
2668.10166566
 20
-1784.23918457
 10
2668.96879112
 20
-1784.80152599
 10
2669.42359082
 20
-1785.01861204
 10
2669.05373902
 20
-1784.54518735
 10
2668.18661357
 20
-1783.98284593
 10
2667.73181386
 20
-1783.76575988
 10
2669.42359082
 20
-1785.01861204
  0
LWPOLYLINE
  5
62D
100
AcDbEntity
  8
Sc.1_5
 62
     9
  6
CONTINUOUS
370
    20
100
AcDbPolyline
 90
        8
 70
     1
 43
0.0
 38
548.63999023
 39
-548.63999023
 10
2668.12100743
 20
-1782.59133012
 10
2668.49085923
 20
-1783.0647548
 10
2669.35798469
 20
-1783.62709622
 10
2669.81278439
 20
-1783.84418227
 10
2669.4429326
 20
-1783.37075759
 10
2668.57580714
 20
-1782.80841617
 10
2668.12100743
 20
-1782.59133012
 10
2669.81278439
 20
-1783.84418227
  0
LWPOLYLINE
  5
62E
100
AcDbEntity
  8
Sc.1_5
 62
     9
  6
CONTINUOUS
370
    20
100
AcDbPolyline
 90
        8
 70
     1
 43
0.0
 38
548.63999023
 39
-548.63999023
 10
2657.00246621
 20
-1816.58155782
 10
2657.34505492
 20
-1816.69831218
 10
2658.23270656
 20
-1817.19871385
 10
2658.51521537
 20
-1817.50996225
 10
2658.14647021
 20
-1817.4589405
 10
2657.28060343
 20
-1816.89280089
 10
2657.00246621
 20
-1816.58155782
 10
2658.51521537
 20
-1817.50996225
  0
LWPOLYLINE
  5
62F
100
AcDbEntity
  8
Sc.1_5
 62
     9
  6
CONTINUOUS
370
    20
100
AcDbPolyline
 90
       11
 70
     1
 43
0.0
 38
548.63999023
 39
-548.63999023
 10
2646.4252556
 20
-1781.60413373
 10
2658.11667799
 20
-1816.88414735
 10
2658.20291434
 20
-1817.144374
 10
2658.35929987
 20
-1817.87561844
 10
2658.37659265
 20
-1818.07222046
 10
2658.30219119
 20
-1819.03344039
 10
2657.59773532
 20
-1818.1466623
 10
2657.5263294
 20
-1818.00915726
 10
2657.17031028
 20
-1817.2073675
 10
2657.10585878
 20
-1817.01287879
 10
2645.47648097
 20
-1781.91778269
  0
LWPOLYLINE
  5
630
100
AcDbEntity
  8
Sc.1_5
 62
     9
  6
CONTINUOUS
370
    20
100
AcDbPolyline
 90
        8
 70
     1
 43
0.0
 38
548.63999023
 39
-548.63999023
 10
2656.27809087
 20
-1816.10449668
 10
2656.85747449
 20
-1816.26335481
 10
2657.88881987
 20
-1816.19656312
 10
2658.38325559
 20
-1816.09908262
 10
2657.80387196
 20
-1815.94022449
 10
2656.77252658
 20
-1816.00701617
 10
2656.27809087
 20
-1816.10449668
 10
2658.38325559
 20
-1816.09908262
  0
LWPOLYLINE
  5
631
100
AcDbEntity
  8
Sc.1_5
 62
     9
  6
CONTINUOUS
370
    20
100
AcDbPolyline
 90
        8
 70
     1
 43
0.0
 38
548.63999023
 39
-548.63999023
 10
2655.8888973
 20
-1814.93006691
 10
2656.46828092
 20
-1815.08892505
 10
2657.4996263
 20
-1815.02213336
 10
2657.99406202
 20
-1814.92465286
 10
2657.41467839
 20
-1814.76579472
 10
2656.38333301
 20
-1814.83258641
 10
2655.8888973
 20
-1814.93006691
 10
2657.99406202
 20
-1814.92465286
  0
3DFACE
  5
632
100
AcDbEntity
  8
Sc.1_5
 62
     9
  6
CONTINUOUS
370
    20
100
AcDbFace
 70
     0
 10
2647.24986834
 20
-1779.95981278
 30
548.63999023
 11
2646.42433797
 21
-1781.60367298
 31
548.63999023
 12
2645.47648097
 22
-1781.91778269
 32
548.63999023
 13
2643.83262083
 23
-1781.09225237
 33
548.63999023
  0
3DFACE
  5
633
100
AcDbEntity
  8
Sc.1_5
 62
     9
  6
CONTINUOUS
370
    20
100
AcDbFace
 70
     0
 10
2647.24986834
 20
-1779.95981278
 30
548.63999023
 11
2647.18695503
 21
-1779.7699657
 31
548.63999023
 12
2643.76970752
 22
-1780.90240529
 32
548.63999023
 13
2643.83262083
 23
-1781.09225237
 33
548.63999023
  0
LWPOLYLINE
  5
634
100
AcDbEntity
  8
Sc.1_5
 62
     9
  6
CADWORK_13
370
    -3
100
AcDbPolyline
 90
        4
 70
     0
 43
0.0
 38
510.0
 10
2645.00371356
 20
-1780.49346877
 10
2645.45414602
 20
-1781.21689737
 10
2646.02368727
 20
-1781.02815744
 10
2645.95294898
 20
-1780.17890222
  0
LINE
  5
635
100
AcDbEntity
  8
Sc.1_5
 62
     9
  6
CADWORK_13
370
    -3
100
AcDbLine
 10
2645.73891665
 20
-1781.12252741
 30
510.0
 11
2645.47833127
 21
-1780.33618549
 31
510.0
  0
LWPOLYLINE
  5
636
100
AcDbEntity
  8
Sc.1_5
 62
     9
  6
CONTINUOUS
370
    20
100
AcDbPolyline
 90
        8
 70
     1
 43
0.0
 38
548.63999023
 39
-548.63999023
 10
2655.49970372
 20
-1813.75563715
 10
2656.07908735
 20
-1813.91449528
 10
2657.11043273
 20
-1813.84770359
 10
2657.60486845
 20
-1813.75022309
 10
2657.02548482
 20
-1813.59136496
 10
2655.99413944
 20
-1813.65815664
 10
2655.49970372
 20
-1813.75563715
 10
2657.60486845
 20
-1813.75022309
  0
LWPOLYLINE
  5
637
100
AcDbEntity
  8
Sc.1_5
 62
     9
  6
CONTINUOUS
370
    20
100
AcDbPolyline
 90
        8
 70
     1
 43
0.0
 38
548.63999023
 39
-548.63999023
 10
2655.11051015
 20
-1812.58120738
 10
2655.68989378
 20
-1812.74006552
 10
2656.72123916
 20
-1812.67327383
 10
2657.21567488
 20
-1812.57579333
 10
2656.63629125
 20
-1812.41693519
 10
2655.60494587
 20
-1812.48372688
 10
2655.11051015
 20
-1812.58120738
 10
2657.21567488
 20
-1812.57579333
  0
LWPOLYLINE
  5
638
100
AcDbEntity
  8
Sc.1_5
 62
     9
  6
CONTINUOUS
370
    20
100
AcDbPolyline
 90
        8
 70
     1
 43
0.0
 38
548.63999023
 39
-548.63999023
 10
2654.72131658
 20
-1811.40677762
 10
2655.30070021
 20
-1811.56563575
 10
2656.33204559
 20
-1811.49884406
 10
2656.82648131
 20
-1811.40136356
 10
2656.24709768
 20
-1811.24250543
 10
2655.2157523
 20
-1811.30929711
 10
2654.72131658
 20
-1811.40677762
 10
2656.82648131
 20
-1811.40136356
  0
LWPOLYLINE
  5
639
100
AcDbEntity
  8
Sc.1_5
 62
     9
  6
CONTINUOUS
370
    20
100
AcDbPolyline
 90
        8
 70
     1
 43
0.0
 38
548.63999023
 39
-548.63999023
 10
2654.33212301
 20
-1810.23234785
 10
2654.91150664
 20
-1810.39120599
 10
2655.94285202
 20
-1810.3244143
 10
2656.43728773
 20
-1810.2269338
 10
2655.85790411
 20
-1810.06807566
 10
2654.82655873
 20
-1810.13486735
 10
2654.33212301
 20
-1810.23234785
 10
2656.43728773
 20
-1810.2269338
  0
LWPOLYLINE
  5
63A
100
AcDbEntity
  8
Sc.1_5
 62
     9
  6
CONTINUOUS
370
    20
100
AcDbPolyline
 90
        8
 70
     1
 43
0.0
 38
548.63999023
 39
-548.63999023
 10
2653.94292944
 20
-1809.05791809
 10
2654.52231307
 20
-1809.21677622
 10
2655.55365845
 20
-1809.14998453
 10
2656.04809416
 20
-1809.05250403
 10
2655.46871054
 20
-1808.8936459
 10
2654.43736516
 20
-1808.96043758
 10
2653.94292944
 20
-1809.05791809
 10
2656.04809416
 20
-1809.05250403
  0
LWPOLYLINE
  5
63B
100
AcDbEntity
  8
Sc.1_5
 62
     9
  6
CONTINUOUS
370
    20
100
AcDbPolyline
 90
        8
 70
     1
 43
0.0
 38
548.63999023
 39
-548.63999023
 10
2653.55373587
 20
-1807.88348832
 10
2654.1331195
 20
-1808.04234646
 10
2655.16446488
 20
-1807.97555477
 10
2655.65890059
 20
-1807.87807427
 10
2655.07951697
 20
-1807.71921613
 10
2654.04817159
 20
-1807.78600782
 10
2653.55373587
 20
-1807.88348832
 10
2655.65890059
 20
-1807.87807427
  0
LWPOLYLINE
  5
63C
100
AcDbEntity
  8
Sc.1_5
 62
     9
  6
CONTINUOUS
370
    20
100
AcDbPolyline
 90
        8
 70
     1
 43
0.0
 38
548.63999023
 39
-548.63999023
 10
2653.1645423
 20
-1806.70905856
 10
2653.74392593
 20
-1806.86791669
 10
2654.77527131
 20
-1806.801125
 10
2655.26970702
 20
-1806.7036445
 10
2654.6903234
 20
-1806.54478637
 10
2653.65897802
 20
-1806.61157805
 10
2653.1645423
 20
-1806.70905856
 10
2655.26970702
 20
-1806.7036445
  0
LWPOLYLINE
  5
63D
100
AcDbEntity
  8
Sc.1_5
 62
     9
  6
CONTINUOUS
370
    20
100
AcDbPolyline
 90
        8
 70
     1
 43
0.0
 38
548.63999023
 39
-548.63999023
 10
2652.77534873
 20
-1805.53462879
 10
2653.35473236
 20
-1805.69348693
 10
2654.38607774
 20
-1805.62669524
 10
2654.88051345
 20
-1805.52921474
 10
2654.30112983
 20
-1805.3703566
 10
2653.26978445
 20
-1805.43714829
 10
2652.77534873
 20
-1805.53462879
 10
2654.88051345
 20
-1805.52921474
  0
LWPOLYLINE
  5
63E
100
AcDbEntity
  8
Sc.1_5
 62
     9
  6
CONTINUOUS
370
    20
100
AcDbPolyline
 90
        8
 70
     1
 43
0.0
 38
548.63999023
 39
-548.63999023
 10
2652.38615516
 20
-1804.36019903
 10
2652.96553879
 20
-1804.51905716
 10
2653.99688417
 20
-1804.45226547
 10
2654.49131988
 20
-1804.35478497
 10
2653.91193626
 20
-1804.19592684
 10
2652.88059088
 20
-1804.26271852
 10
2652.38615516
 20
-1804.36019903
 10
2654.49131988
 20
-1804.35478497
  0
LWPOLYLINE
  5
63F
100
AcDbEntity
  8
Sc.1_5
 62
     9
  6
CONTINUOUS
370
    20
100
AcDbPolyline
 90
        8
 70
     1
 43
0.0
 38
548.63999023
 39
-548.63999023
 10
2651.99696159
 20
-1803.18576926
 10
2652.57634521
 20
-1803.3446274
 10
2653.6076906
 20
-1803.27783571
 10
2654.10212631
 20
-1803.18035521
 10
2653.52274269
 20
-1803.02149707
 10
2652.49139731
 20
-1803.08828876
 10
2651.99696159
 20
-1803.18576926
 10
2654.10212631
 20
-1803.18035521
  0
LWPOLYLINE
  5
640
100
AcDbEntity
  8
Sc.1_5
 62
     9
  6
CONTINUOUS
370
    20
100
AcDbPolyline
 90
        8
 70
     1
 43
0.0
 38
548.63999023
 39
-548.63999023
 10
2651.60776802
 20
-1802.0113395
 10
2652.18715164
 20
-1802.17019763
 10
2653.21849703
 20
-1802.10340595
 10
2653.71293274
 20
-1802.00592544
 10
2653.13354912
 20
-1801.84706731
 10
2652.10220374
 20
-1801.91385899
 10
2651.60776802
 20
-1802.0113395
 10
2653.71293274
 20
-1802.00592544
  0
LWPOLYLINE
  5
641
100
AcDbEntity
  8
Sc.1_5
 62
     9
  6
CONTINUOUS
370
    20
100
AcDbPolyline
 90
        8
 70
     1
 43
0.0
 38
548.63999023
 39
-548.63999023
 10
2651.21857445
 20
-1800.83690973
 10
2651.79795807
 20
-1800.99576787
 10
2652.82930346
 20
-1800.92897618
 10
2653.32373917
 20
-1800.83149568
 10
2652.74435555
 20
-1800.67263754
 10
2651.71301017
 20
-1800.73942923
 10
2651.21857445
 20
-1800.83690973
 10
2653.32373917
 20
-1800.83149568
  0
LWPOLYLINE
  5
642
100
AcDbEntity
  8
Sc.1_5
 62
     9
  6
CONTINUOUS
370
    20
100
AcDbPolyline
 90
        8
 70
     1
 43
0.0
 38
548.63999023
 39
-548.63999023
 10
2650.82938088
 20
-1799.66247997
 10
2651.4087645
 20
-1799.8213381
 10
2652.44010989
 20
-1799.75454642
 10
2652.9345456
 20
-1799.65706591
 10
2652.35516198
 20
-1799.49820778
 10
2651.3238166
 20
-1799.56499946
 10
2650.82938088
 20
-1799.66247997
 10
2652.9345456
 20
-1799.65706591
  0
LWPOLYLINE
  5
643
100
AcDbEntity
  8
Sc.1_5
 62
     9
  6
CONTINUOUS
370
    20
100
AcDbPolyline
 90
        8
 70
     1
 43
0.0
 38
548.63999023
 39
-548.63999023
 10
2650.44018731
 20
-1798.4880502
 10
2651.01957093
 20
-1798.64690834
 10
2652.05091632
 20
-1798.58011665
 10
2652.54535203
 20
-1798.48263615
 10
2651.96596841
 20
-1798.32377801
 10
2650.93462303
 20
-1798.3905697
 10
2650.44018731
 20
-1798.4880502
 10
2652.54535203
 20
-1798.48263615
  0
LWPOLYLINE
  5
644
100
AcDbEntity
  8
Sc.1_5
 62
     9
  6
CONTINUOUS
370
    20
100
AcDbPolyline
 90
        8
 70
     1
 43
0.0
 38
548.63999023
 39
-548.63999023
 10
2650.05099374
 20
-1797.31362044
 10
2650.63037736
 20
-1797.47247857
 10
2651.66172275
 20
-1797.40568689
 10
2652.15615846
 20
-1797.30820638
 10
2651.57677484
 20
-1797.14934825
 10
2650.54542946
 20
-1797.21613993
 10
2650.05099374
 20
-1797.31362044
 10
2652.15615846
 20
-1797.30820638
  0
LWPOLYLINE
  5
645
100
AcDbEntity
  8
Sc.1_5
 62
     9
  6
CONTINUOUS
370
    20
100
AcDbPolyline
 90
        8
 70
     1
 43
0.0
 38
548.63999023
 39
-548.63999023
 10
2649.66180017
 20
-1796.13919067
 10
2650.24118379
 20
-1796.29804881
 10
2651.27252918
 20
-1796.23125712
 10
2651.76696489
 20
-1796.13377662
 10
2651.18758127
 20
-1795.97491848
 10
2650.15623589
 20
-1796.04171017
 10
2649.66180017
 20
-1796.13919067
 10
2651.76696489
 20
-1796.13377662
  0
LWPOLYLINE
  5
646
100
AcDbEntity
  8
Sc.1_5
 62
     9
  6
CONTINUOUS
370
    20
100
AcDbPolyline
 90
        8
 70
     1
 43
0.0
 38
548.63999023
 39
-548.63999023
 10
2649.2726066
 20
-1794.96476091
 10
2649.85199022
 20
-1795.12361904
 10
2650.88333561
 20
-1795.05682736
 10
2651.37777132
 20
-1794.95934685
 10
2650.7983877
 20
-1794.80048872
 10
2649.76704232
 20
-1794.8672804
 10
2649.2726066
 20
-1794.96476091
 10
2651.37777132
 20
-1794.95934685
  0
LWPOLYLINE
  5
647
100
AcDbEntity
  8
Sc.1_5
 62
     9
  6
CONTINUOUS
370
    20
100
AcDbPolyline
 90
        8
 70
     1
 43
0.0
 38
548.63999023
 39
-548.63999023
 10
2648.88341303
 20
-1793.79033114
 10
2649.46279665
 20
-1793.94918928
 10
2650.49414204
 20
-1793.88239759
 10
2650.98857775
 20
-1793.78491709
 10
2650.40919413
 20
-1793.62605895
 10
2649.37784875
 20
-1793.69285064
 10
2648.88341303
 20
-1793.79033114
 10
2650.98857775
 20
-1793.78491709
  0
LWPOLYLINE
  5
648
100
AcDbEntity
  8
Sc.1_5
 62
     9
  6
CONTINUOUS
370
    20
100
AcDbPolyline
 90
        8
 70
     1
 43
0.0
 38
548.63999023
 39
-548.63999023
 10
2648.49421946
 20
-1792.61590138
 10
2649.07360308
 20
-1792.77475951
 10
2650.10494847
 20
-1792.70796783
 10
2650.59938418
 20
-1792.61048732
 10
2650.02000056
 20
-1792.45162919
 10
2648.98865518
 20
-1792.51842087
 10
2648.49421946
 20
-1792.61590138
 10
2650.59938418
 20
-1792.61048732
  0
LWPOLYLINE
  5
649
100
AcDbEntity
  8
Sc.1_5
 62
     9
  6
CONTINUOUS
370
    20
100
AcDbPolyline
 90
        8
 70
     1
 43
0.0
 38
548.63999023
 39
-548.63999023
 10
2648.10502589
 20
-1791.44147161
 10
2648.68440951
 20
-1791.60032975
 10
2649.7157549
 20
-1791.53353806
 10
2650.21019061
 20
-1791.43605756
 10
2649.63080699
 20
-1791.27719942
 10
2648.59946161
 20
-1791.34399111
 10
2648.10502589
 20
-1791.44147161
 10
2650.21019061
 20
-1791.43605756
  0
LWPOLYLINE
  5
64A
100
AcDbEntity
  8
Sc.1_5
 62
     9
  6
CONTINUOUS
370
    20
100
AcDbPolyline
 90
        8
 70
     1
 43
0.0
 38
548.63999023
 39
-548.63999023
 10
2647.71583232
 20
-1790.26704185
 10
2648.29521594
 20
-1790.42589998
 10
2649.32656133
 20
-1790.3591083
 10
2649.82099704
 20
-1790.26162779
 10
2649.24161342
 20
-1790.10276966
 10
2648.21026804
 20
-1790.16956134
 10
2647.71583232
 20
-1790.26704185
 10
2649.82099704
 20
-1790.26162779
  0
LWPOLYLINE
  5
64B
100
AcDbEntity
  8
Sc.1_5
 62
     9
  6
CONTINUOUS
370
    20
100
AcDbPolyline
 90
        8
 70
     1
 43
0.0
 38
548.63999023
 39
-548.63999023
 10
2647.32663875
 20
-1789.09261208
 10
2647.90602237
 20
-1789.25147022
 10
2648.93736776
 20
-1789.18467853
 10
2649.43180347
 20
-1789.08719803
 10
2648.85241985
 20
-1788.92833989
 10
2647.82107447
 20
-1788.99513158
 10
2647.32663875
 20
-1789.09261208
 10
2649.43180347
 20
-1789.08719803
  0
LWPOLYLINE
  5
64C
100
AcDbEntity
  8
Sc.1_5
 62
     9
  6
CONTINUOUS
370
    20
100
AcDbPolyline
 90
        8
 70
     1
 43
0.0
 38
548.63999023
 39
-548.63999023
 10
2656.82676684
 20
-1817.66217499
 10
2657.08733967
 20
-1817.74852606
 10
2657.83521054
 20
-1818.1388613
 10
2658.05328797
 20
-1818.35344638
 10
2657.73167118
 20
-1818.30688211
 10
2657.06249668
 20
-1817.90146156
 10
2656.82676684
 20
-1817.66217499
 10
2658.05328797
 20
-1818.35344638
  0
LWPOLYLINE
  5
64D
100
AcDbEntity
  8
Sc.1_5
 62
     9
  6
CONTINUOUS
370
    20
100
AcDbPolyline
 90
        8
 70
     1
 43
0.0
 38
548.63999023
 39
-548.63999023
 10
2646.93744518
 20
-1787.91818232
 10
2647.5168288
 20
-1788.07704045
 10
2648.54817419
 20
-1788.01024877
 10
2649.0426099
 20
-1787.91276826
 10
2648.46322628
 20
-1787.75391013
 10
2647.4318809
 20
-1787.82070181
 10
2646.93744518
 20
-1787.91818232
 10
2649.0426099
 20
-1787.91276826
  0
LWPOLYLINE
  5
64E
100
AcDbEntity
  8
Sc.1_5
 62
     9
  6
CONTINUOUS
370
    20
100
AcDbPolyline
 90
        8
 70
     1
 43
0.0
 38
548.63999023
 39
-548.63999023
 10
2646.54825161
 20
-1786.74375255
 10
2647.12763523
 20
-1786.90261069
 10
2648.15898062
 20
-1786.835819
 10
2648.65341633
 20
-1786.7383385
 10
2648.07403271
 20
-1786.57948036
 10
2647.04268733
 20
-1786.64627205
 10
2646.54825161
 20
-1786.74375255
 10
2648.65341633
 20
-1786.7383385
  0
LWPOLYLINE
  5
64F
100
AcDbEntity
  8
Sc.1_5
 62
     9
  6
CONTINUOUS
370
    20
100
AcDbPolyline
 90
        8
 70
     1
 43
0.0
 38
548.63999023
 39
-548.63999023
 10
2646.15905804
 20
-1785.56932279
 10
2646.73844166
 20
-1785.72818092
 10
2647.76978705
 20
-1785.66138924
 10
2648.26422276
 20
-1785.56390873
 10
2647.68483914
 20
-1785.4050506
 10
2646.65349376
 20
-1785.47184228
 10
2646.15905804
 20
-1785.56932279
 10
2648.26422276
 20
-1785.56390873
  0
LWPOLYLINE
  5
650
100
AcDbEntity
  8
Sc.1_5
 62
     9
  6
CONTINUOUS
370
    20
100
AcDbPolyline
 90
        8
 70
     1
 43
0.0
 38
548.63999023
 39
-548.63999023
 10
2645.76986447
 20
-1784.39489302
 10
2646.34924809
 20
-1784.55375116
 10
2647.38059348
 20
-1784.48695947
 10
2647.87502919
 20
-1784.38947897
 10
2647.29564557
 20
-1784.23062083
 10
2646.26430019
 20
-1784.29741252
 10
2645.76986447
 20
-1784.39489302
 10
2647.87502919
 20
-1784.38947897
  0
LWPOLYLINE
  5
651
100
AcDbEntity
  8
Sc.1_5
 62
     9
  6
CONTINUOUS
370
    20
100
AcDbPolyline
 90
        8
 70
     1
 43
0.0
 38
548.63999023
 39
-548.63999023
 10
2645.3806709
 20
-1783.22046326
 10
2645.96005452
 20
-1783.37932139
 10
2646.99139991
 20
-1783.31252971
 10
2647.48583562
 20
-1783.2150492
 10
2646.906452
 20
-1783.05619107
 10
2645.87510661
 20
-1783.12298275
 10
2645.3806709
 20
-1783.22046326
 10
2647.48583562
 20
-1783.2150492
  0
LWPOLYLINE
  5
652
100
AcDbEntity
  8
Sc.1_5
 62
     9
  6
CONTINUOUS
370
    20
100
AcDbPolyline
 90
        8
 70
     1
 43
0.0
 38
548.63999023
 39
-548.63999023
 10
2656.76134466
 20
-1817.12382302
 10
2657.10585878
 20
-1817.01287879
 10
2658.11667799
 20
-1816.88414735
 10
2658.52915324
 20
-1816.9650854
 10
2658.20291434
 20
-1817.144374
 10
2657.17031028
 20
-1817.2073675
 10
2656.76134466
 20
-1817.12382302
 10
2658.52915324
 20
-1816.9650854
  0
LWPOLYLINE
  5
653
100
AcDbEntity
  8
Sc.1_5
 62
     9
  6
CONTINUOUS
370
    20
100
AcDbPolyline
 90
        8
 70
     1
 43
0.0
 38
548.63999023
 39
-548.63999023
 10
2657.26575657
 20
-1818.09550834
 10
2657.5263294
 20
-1818.00915726
 10
2658.35929987
 20
-1817.87561844
 10
2658.66236809
 20
-1817.91750138
 10
2658.37659265
 20
-1818.07222046
 10
2657.59773532
 20
-1818.1466623
 10
2657.26575657
 20
-1818.09550834
 10
2658.66236809
 20
-1817.91750138
  0
TEXT
  5
654
100
AcDbEntity
  8
Sc.1_5
 62
     7
370
    18
100
AcDbText
 10
2710.73265514
 20
-1754.36523481
 30
0.0
 40
2.5
  1
Selected roofing over underlay,
  7
TAHOMA
 50
0.0
 41
0.8
 51
0.0
100
AcDbText
  0
TEXT
  5
655
100
AcDbEntity
  8
Sc.1_5
 62
     7
370
    18
100
AcDbText
 10
2710.73265514
 20
-1758.61523481
 30
0.0
 40
2.5
  1
on galvanised mesh
  7
TAHOMA
 50
0.0
 41
0.8
 51
0.0
100
AcDbText
  0
TEXT
  5
656
100
AcDbEntity
  8
Sc.1_5
 62
     7
370
    35
100
AcDbText
 10
2710.73265514
 20
-1765.22297985
 30
0.0
 40
2.5
  1
Woodspan PLT roof panel
  7
TAHOMA
 50
0.0
 41
0.8
 51
0.0
100
AcDbText
  0
TEXT
  5
657
100
AcDbEntity
  8
Sc.1_5
 62
     7
370
    18
100
AcDbText
 10
2710.73265514
 20
-1769.47297985
 30
0.0
 40
2.5
  1
fixing per engineer's details
  7
TAHOMA
 50
0.0
 41
0.8
 51
0.0
100
AcDbText
  0
TEXT
  5
658
100
AcDbEntity
  8
Sc.1_5
 62
     7
370
    18
100
AcDbText
 10
2688.66142269
 20
-1839.79608107
 30
0.0
 40
2.5
  1
shaped top plate for
  7
TAHOMA
 50
0.0
 41
0.8
 51
0.0
100
AcDbText
  0
TEXT
  5
659
100
AcDbEntity
  8
Sc.1_5
 62
     7
370
    18
100
AcDbText
 10
2688.66142269
 20
-1844.04608107
 30
0.0
 40
2.5
  1
walls supporting the roof
  7
TAHOMA
 50
0.0
 41
0.8
 51
0.0
100
AcDbText
  0
TEXT
  5
65A
100
AcDbEntity
  8
Sc.1_5
 62
     7
370
    18
100
AcDbText
 10
2688.90786578
 20
-1855.41890221
 30
0.0
 40
2.5
  1
Stud frame wall to NZS3604:2011
  7
TAHOMA
 50
0.0
 41
0.8
 51
0.0
100
AcDbText
  0
TEXT
  5
65B
100
AcDbEntity
  8
Sc.1_5
 62
     7
370
    18
100
AcDbText
 10
2571.52277717
 20
-1753.1382119
 30
0.0
 40
2.5
  1
Castellated spacer over purlin
  7
TAHOMA
 50
0.0
 41
0.8
 51
0.0
100
AcDbText
  0
TEXT
  5
65C
100
AcDbEntity
  8
Sc.1_5
 62
     7
370
    18
100
AcDbText
 10
2576.61725003
 20
-1756.70036202
 30
0.0
 40
2.5
  1
Purlin on spaced packers
  7
TAHOMA
 50
0.0
 41
0.8
 51
0.0
100
AcDbText
  0
TEXT
  5
65D
100
AcDbEntity
  8
Sc.1_5
 62
     7
370
    18
100
AcDbText
 10
2626.77788621
 20
-1859.67534161
 30
0.0
 40
2.5
  1
Ceiling (if required)
  7
TAHOMA
 50
0.0
 41
0.8
 51
0.0
100
AcDbText
  0
TEXT
  5
65E
100
AcDbEntity
  8
Sc.1_5
 62
     7
370
    18
100
AcDbText
 10
2626.90781203
 20
-1863.57311605
 30
0.0
 40
2.5
  1
fixed over battens/strapping
  7
TAHOMA
 50
0.0
 41
0.8
 51
0.0
100
AcDbText
  0
TEXT
  5
65F
100
AcDbEntity
  8
LEGEND
 62
     7
370
    -3
100
AcDbText
 10
2738.25355626
 20
-1927.55865138
 30
0.0
 40
1.60000002
  1
Date
  7
TAHOMA
 50
0.0
 41
1.0
 51
0.0
100
AcDbText
  0
TEXT
  5
660
100
AcDbEntity
  8
LEGEND
 62
     7
370
    -3
100
AcDbText
 10
2723.34530759
 20
-1936.18983213
 30
0.0
 40
1.60000002
  1
Detail
  7
TAHOMA
 50
0.0
 41
1.0
 51
0.0
100
AcDbText
  0
TEXT
  5
661
100
AcDbEntity
  8
LEGEND
 62
     7
370
    18
100
AcDbText
 10
2726.77292283
 20
-1931.99980399
 30
0.0
 40
2.79999995
  1
1.0
  7
TAHOMA
 50
0.0
 41
1.0
 51
0.0
100
AcDbText
  0
TEXT
  5
662
100
AcDbEntity
  8
LEGEND
 62
     7
370
    -3
100
AcDbText
 10
2723.34530759
 20
-1927.55865138
 30
0.0
 40
1.60000002
  1
Version
  7
TAHOMA
 50
0.0
 41
1.0
 51
0.0
100
AcDbText
  0
TEXT
  5
663
100
AcDbEntity
  8
LEGEND
 62
     7
370
    -3
100
AcDbText
 10
2592.40451628
 20
-1927.55865138
 30
0.0
 40
1.60000002
  1
Phone:
  7
TAHOMA
 50
0.0
 41
1.0
 51
0.0
100
AcDbText
  0
TEXT
  5
664
100
AcDbEntity
  8
LEGEND
 62
     7
370
    -3
100
AcDbText
 10
2592.40451628
 20
-1931.67943855
 30
0.0
 40
1.60000002
  1
Email:
  7
TAHOMA
 50
0.0
 41
1.0
 51
0.0
100
AcDbText
  0
TEXT
  5
665
100
AcDbEntity
  8
LEGEND
 62
     7
370
    -3
100
AcDbText
 10
2592.40451628
 20
-1935.80022571
 30
0.0
 40
1.60000002
  1
Web:
  7
TAHOMA
 50
0.0
 41
1.0
 51
0.0
100
AcDbText
  0
TEXT
  5
666
100
AcDbEntity
  8
LEGEND
 62
     7
370
    18
100
AcDbText
 10
2602.30649725
 20
-1928.35865138
 30
0.0
 40
2.4000001
  1
06 755 9000
  7
TAHOMA
 50
0.0
 41
1.0
 51
0.0
100
AcDbText
  0
TEXT
  5
667
100
AcDbEntity
  8
LEGEND
 62
     7
370
    18
100
AcDbText
 10
2602.30649725
 20
-1932.47943855
 30
0.0
 40
2.4000001
  1
info@woodspan.co.nz
  7
TAHOMA
 50
0.0
 41
1.0
 51
0.0
100
AcDbText
  0
TEXT
  5
668
100
AcDbEntity
  8
LEGEND
 62
     7
370
    18
100
AcDbText
 10
2602.30649725
 20
-1936.60022571
 30
0.0
 40
2.4000001
  1
www.woodspan.co.nz
  7
TAHOMA
 50
0.0
 41
1.0
 51
0.0
100
AcDbText
  0
TEXT
  5
669
100
AcDbEntity
  8
LEGEND
 62
     7
370
    18
100
AcDbText
 10
2592.356882
 20
-1940.72101287
 30
0.0
 40
2.4000001
  1
Connett Road, Bell Block, New Plymouth
  7
TAHOMA
 50
0.0
 41
1.0
 51
0.0
100
AcDbText
  0
TEXT
  5
66A
100
AcDbEntity
  8
LEGEND
 62
     7
370
    18
100
AcDbText
 10
2739.33920574
 20
-1931.79980399
 30
0.0
 40
2.4000001
  1
11.07.2019
  7
TAHOMA
 50
0.0
 41
1.0
 51
0.0
100
AcDbText
  0
TEXT
  5
66B
100
AcDbEntity
  8
LEGEND
 62
     7
370
    18
100
AcDbText
 10
2731.37258396
 20
-1939.73315868
 30
0.0
 40
4.0
  1

  7
TAHOMA
 50
0.0
 41
0.95
 51
0.0
100
AcDbText
  0
TEXT
  5
66C
100
AcDbEntity
  8
LEGEND
 62
     7
370
    18
100
AcDbText
 10
2732.13828719
 20
-1940.05624061
 30
0.0
 40
4.0
  1
PLT 4.5
  7
TAHOMA
 50
0.0
 41
0.95
 51
0.0
100
AcDbText
  0
TEXT
  5
66D
100
AcDbEntity
  8
LEGEND
 62
     7
370
    18
100
AcDbText
 10
2651.34838082
 20
-1932.13297832
 30
0.0
 40
4.0
  1
PLT roof - Ridge (Option 1)
  7
TAHOMA
 50
0.0
 41
0.95
 51
0.0
100
AcDbText
  0
TEXT
  5
66E
100
AcDbEntity
  8
LEGEND
 62
     7
370
    18
100
AcDbText
 10
2643.97974125
 20
-1922.5982645
 30
0.0
 40
2.4000001
  1
Indicative details only
  7
TAHOMA
 50
0.0
 41
1.0
 51
0.0
100
AcDbText
  0
ENDSEC
  0
SECTION
  2
OBJECTS
  0
DICTIONARY
  5
1
100
AcDbDictionary
  3
ACAD_GROUP
350
2
  3
ACAD_MLINESTYLE
350
3
  0
DICTIONARY
  5
2
102
{CDWK_REACTORS
330
1
102
}
100
AcDbDictionary
  0
DICTIONARY
  5
3
102
{CDWK_REACTORS
330
1
102
}
100
AcDbDictionary
  3
STANDARD
350
4
  0
MLINESTYLE
  5
4
102
{CDWK_REACTORS
330
3
102
}
100
AcDbMlineStyle
  2
STANDARD
 70
     0
  3

 62
     0
 51
90.0
 52
90.0
 71
     2
 49
0.5
 62
   256
  6
BYLAYER
 49
-0.5
 62
   256
  6
BYLAYER
  0
ENDSEC
  0
EOF
