  0
SECTION
  2
HEADER
  9
$ACADVER
  1
AC1014
  9
$DWGCODEPAGE
  3
ANSI_1252
  9
$INSBASE
 10
0.0
 20
0.0
 30
0.0
  9
$EXTMIN
 10
2804.52912517
 20
-1942.22101287
  9
$EXTMAX
 10
3001.84592656
 20
-1671.22101287
  9
$LIMMIN
 10
2804.52912517
 20
-1942.22101287
  9
$LIMMAX
 10
3001.84592656
 20
-1671.22101287
  9
$ORTHOMODE
 70
     0
  9
$REGENMODE
 70
     1
  9
$FILLMODE
 70
     1
  9
$QTEXTMODE
 70
     0
  9
$MIRRTEXT
 70
     1
  9
$DRAGMODE
 70
     2
  9
$LTSCALE
 40
1.0
  9
$OSMODE
 70
     0
  9
$ATTMODE
 70
     1
  9
$TEXTSIZE
 40
3.5
  9
$TRACEWID
 40
1.0
  9
$TEXTSTYLE
  7
STANDARD
  9
$CLAYER
  8
0
  9
$CELTYPE
  6
BYLAYER
  9
$CECOLOR
 62
   256
  9
$DIMSCALE
 40
1.0
  9
$DIMASZ
 40
2.0
  9
$DIMEXO
 40
5.0
  9
$DIMDLI
 40
10.0
  9
$DIMRND
 40
0.0
  9
$DIMDLE
 40
2.0
  9
$DIMEXE
 40
2.0
  9
$DIMTP
 40
0.0
  9
$DIMTM
 40
0.0
  9
$DIMTXT
 40
2.1
  9
$DIMCEN
 40
1.5
  9
$DIMTSZ
 40
0.0
  9
$DIMTOL
 70
     0
  9
$DIMLIM
 70
     0
  9
$DIMTIH
 70
     1
  9
$DIMTOH
 70
     0
  9
$DIMSE1
 70
     0
  9
$DIMSE2
 70
     0
  9
$DIMTAD
 70
     1
  9
$DIMZIN
 70
     8
  9
$DIMBLK
  1

  9
$DIMASO
 70
     1
  9
$DIMSHO
 70
     1
  9
$DIMPOST
  1

  9
$DIMAPOST
  1

  9
$DIMALT
 70
     0
  9
$DIMALTD
 70
     2
  9
$DIMALTF
 40
25.4
  9
$DIMLFAC
 40
1.0
  9
$DIMTOFL
 70
     0
  9
$DIMTVP
 40
0.0
  9
$DIMTIX
 70
     0
  9
$DIMSOXD
 70
     0
  9
$DIMSAH
 70
     0
  9
$DIMBLK1
  1

  9
$DIMBLK2
  1

  9
$DIMSTYLE
  2
*UNNAMED
  9
$DIMCLRD
 70
     5
  9
$DIMCLRE
 70
     5
  9
$DIMCLRT
 70
     5
  9
$DIMTFAC
 40
1.0
  9
$DIMGAP
 40
0.09
  9
$DIMUNIT
 70
     2
  9
$LUNITS
 70
     2
  9
$LUPREC
 70
     6
  9
$AXISMODE
 70
     0
  9
$AXISUNIT
 10
0.0
 20
0.0
  9
$SKETCHINC
 40
0.1
  9
$FILLETRAD
 40
0.0
  9
$AUNITS
 70
     0
  9
$AUPREC
 70
     0
  9
$MENU
  1
ACAD
  9
$ELEVATION
 40
0.0
  9
$PELEVATION
 40
0.0
  9
$THICKNESS
 40
0.0
  9
$LIMCHECK
 70
     0
  9
$BLIPMODE
 70
     1
  9
$CHAMFERA
 40
0.0
  9
$CHAMFERB
 40
0.0
  9
$SKPOLY
 70
     1
  9
$TDCREATE
 40
2458675.0000000000
  9
$TDUPDATE
 40
2458675.0000000000
  9
$TDINDWG
 40
0.0
  9
$TDUSRTIMER
 40
0.0
  9
$USRTIMER
 70
     1
  9
$ANGBASE
 50
0.0
  9
$ANGDIR
 70
     0
  9
$PDMODE
 70
     0
  9
$PDSIZE
 40
0.0
  9
$PLINEWID
 40
0.0
  9
$COORDS
 70
     2
  9
$SPLFRAME
 70
     0
  9
$SPLINETYPE
 70
     6
  9
$SPLINESEGS
 70
     8
  9
$ATTDIA
 70
     1
  9
$ATTREQ
 70
     1
  9
$HANDLING
 70
     1
  9
$HANDSEED
  5
     690
  9
$SURFTAB1
 70
     6
  9
$SURFTAB2
 70
     6
  9
$SURFTYPE
 70
     6
  9
$SURFU
 70
     6
  9
$SURFV
 70
     6
  9
$UCSNAME
  2

  9
$UCSORG
 10
0.0
 20
0.0
 30
0.0
  9
$UCSXDIR
 10
1.0
 20
0.0
 30
0.0
  9
$UCSYDIR
 10
0.0
 20
1.0
 30
0.0
  9
$PUCSNAME
  2

  9
$PUCSORG
 10
0.0
 20
0.0
 30
0.0
  9
$PUCSXDIR
 10
1.0
 20
0.0
 30
0.0
  9
$PUCSYDIR
 10
0.0
 20
1.0
 30
0.0
  9
$USERI1
 70
     0
  9
$USERI2
 70
     0
  9
$USERI3
 70
     0
  9
$USERI4
 70
     0
  9
$USERI5
 70
     0
  9
$USERR1
 40
0.0
  9
$USERR2
 40
0.0
  9
$USERR3
 40
0.0
  9
$USERR4
 40
0.0
  9
$USERR5
 40
0.0
  9
$WORLDVIEW
 70
     1
  9
$SHADEDGE
 70
     3
  9
$SHADEDIF
 70
    70
  9
$TILEMODE
 70
     1
  9
$MAXACTVP
 70
    16
  9
$PINSBASE
 10
0.0
 20
0.0
 30
0.0
  9
$PLIMCHECK
 70
     0
  9
$PEXTMIN
 10
1.0000000000000E+20
 20
1.0000000000000E+20
 30
1.0000000000000E+20
  9
$PEXTMAX
 10
-1.0000000000000E+20
 20
-1.0000000000000E+20
 30
-1.0000000000000E+20
  9
$PLIMMIN
 10
0.0
 20
0.0
  9
$UNITMODE
 70
     0
  9
$VISRETAIN
 70
     0
  9
$MEASUREMENT
 70
     1
  0
ENDSEC
  0
SECTION
  2
TABLES
  0
TABLE
  2
VPORT
  5
1B2
100
AcDbSymbolTable
 70
     1
  0
ENDTAB
  0
TABLE
  2
STYLE
  5
1B3
100
AcDbSymbolTable
 70
     3
  0
STYLE
  5
1B4
100
AcDbSymbolTableRecord
100
AcDbTextStyleTableRecord
  2
STANDARD
 70
     0
 40
0.0
 41
1.0
 50
0.0
 71
     0
 42
3.5
  3
MONOTXT
  4

  0
STYLE
  5
1B5
100
AcDbSymbolTableRecord
100
AcDbTextStyleTableRecord
  2
SYMAP
 70
     0
 40
0.0
 41
1.0
 50
0.0
 71
     0
 42
3.5
  3
SYMAP
  4

  0
STYLE
  5
1B6
100
AcDbSymbolTableRecord
100
AcDbTextStyleTableRecord
  2
CADWORK1
 70
     0
 40
0.0
 41
1.0
 50
0.0
 71
     0
 42
3.5
  3
MONOTXT
  4

  0
STYLE
  5
1B7
100
AcDbSymbolTableRecord
100
AcDbTextStyleTableRecord
  2
MONOTXT
 70
     0
 40
0.0
 41
1.0
 50
0.0
 71
     0
 42
3.5
  3
MONOTXT
  4

  0
STYLE
  5
1B8
100
AcDbSymbolTableRecord
100
AcDbTextStyleTableRecord
  2
TAHOMA
 70
     0
 40
0.0
 41
1.0
 50
0.0
 71
     0
 42
3.5
  3

  4

1001
ACAD
1000
Tahoma
1071
        0
  0
ENDTAB
  0
TABLE
  2
LTYPE
  5
1B9
100
AcDbSymbolTable
 70
    15
  0
LTYPE
  5
1BA
100
AcDbSymbolTableRecord
100
AcDbLinetypeTableRecord
  2
BYBLOCK
 70
    64
  3

 72
    65
 73
     0
 40
0.0
  0
LTYPE
  5
1BB
100
AcDbSymbolTableRecord
100
AcDbLinetypeTableRecord
  2
BYLAYER
 70
    64
  3

 72
    65
 73
     0
 40
0.0
  0
LTYPE
  5
1BC
100
AcDbSymbolTableRecord
100
AcDbLinetypeTableRecord
  2
CONTINUOUS
 70
    64
  3
Solid line
 72
    65
 73
     0
 40
0.0
  0
LTYPE
  5
1BD
100
AcDbSymbolTableRecord
100
AcDbLinetypeTableRecord
  2
DOT2
 70
    64
  3
...............................................
 72
    65
 73
     2
 40
1.25
 49
0.0
 74
     0
 49
-1.25
 74
     0
  0
LTYPE
  5
1BE
100
AcDbSymbolTableRecord
100
AcDbLinetypeTableRecord
  2
CADWORK_13
 70
    64
  3
13 =======================================
 72
    65
 73
     2
 40
4.0
 49
2.0
 74
     0
 49
-2.0
 74
     0
  0
LTYPE
  5
1BF
100
AcDbSymbolTableRecord
100
AcDbLinetypeTableRecord
  2
DASHED
 70
    64
  3
__ __ __ __ __ __ __ __ __ __ __ __ __ __ __ __
 72
    65
 73
     2
 40
7.5
 49
5.0
 74
     0
 49
-2.5
 74
     0
  0
LTYPE
  5
1C0
100
AcDbSymbolTableRecord
100
AcDbLinetypeTableRecord
  2
DASHDOT
 70
    64
  3
 __ . __ . __ . __ . __ . __ . __ . __ . __ . __
 72
    65
 73
     4
 40
10.0
 49
5.0
 74
     0
 49
-2.5
 74
     0
 49
0.0
 74
     0
 49
-2.5
 74
     0
  0
LTYPE
  5
1C1
100
AcDbSymbolTableRecord
100
AcDbLinetypeTableRecord
  2
CADWORK_16
 70
    64
  3
--´\,----´\,----´\,----´\,----´\,----´\,----´\,--
 72
    65
 73
     5
 40
17.0
 49
2.0
 74
     0
 49
0.0
 74
     2
 75
     0
340
1B4
 46
6.0
 50
170.0
 44
3.01999998
 45
5.57999992
  9
|
 49
-2.0999999
 74
     2
 75
     0
340
1B4
 46
12.0
 50
10.0
 44
-2.9000001
 45
-6.5999999
  9
|
 49
-2.0999999
 74
     2
 75
     0
340
1B4
 46
6.0
 50
170.0
 44
1.96000004
 45
-0.36000001
  9
|
 49
10.80000019
 74
     0
  0
LTYPE
  5
1C2
100
AcDbSymbolTableRecord
100
AcDbLinetypeTableRecord
  2
CADWORK_15
 70
    64
  3
15 =======================================
 72
    65
 73
     0
 40
0.0
  0
LTYPE
  5
1C3
100
AcDbSymbolTableRecord
100
AcDbLinetypeTableRecord
  2
DAL
 70
    64
  3
Solid line (for MAPS)
 72
    65
 73
     0
 40
0.0
  0
LTYPE
  5
1C4
100
AcDbSymbolTableRecord
100
AcDbLinetypeTableRecord
  2
MUR
 70
    64
  3
Solid line (for MAPS)
 72
    65
 73
     0
 40
0.0
  0
LTYPE
  5
1C5
100
AcDbSymbolTableRecord
100
AcDbLinetypeTableRecord
  2
SOM
 70
    64
  3
Solid line (for MAPS)
 72
    65
 73
     0
 40
0.0
  0
LTYPE
  5
1C6
100
AcDbSymbolTableRecord
100
AcDbLinetypeTableRecord
  2
COL
 70
    64
  3
Solid line (for MAPS)
 72
    65
 73
     0
 40
0.0
  0
LTYPE
  5
1C7
100
AcDbSymbolTableRecord
100
AcDbLinetypeTableRecord
  2
LGN
 70
    64
  3
Solid line (for MAPS)
 72
    65
 73
     0
 40
0.0
  0
LTYPE
  5
1C8
100
AcDbSymbolTableRecord
100
AcDbLinetypeTableRecord
  2
PNT
 70
    64
  3
Solid line (for MAPS)
 72
    65
 73
     0
 40
0.0
  0
ENDTAB
  0
TABLE
  2
LAYER
  5
1C9
100
AcDbSymbolTable
 70
    16
  0
LAYER
  5
1CA
100
AcDbSymbolTableRecord
100
AcDbLayerTableRecord
  2
0
 70
     0
 62
     1
  6
CONTINUOUS
370
    -3
  0
LAYER
  5
1CB
100
AcDbSymbolTableRecord
100
AcDbLayerTableRecord
  2
Standard
 70
     0
 62
     7
  6
CONTINUOUS
370
    -3
  0
LAYER
  5
1CC
100
AcDbSymbolTableRecord
100
AcDbLayerTableRecord
  2
Sc.1_1
 70
     0
 62
     7
  6
CONTINUOUS
370
    -3
  0
LAYER
  5
1CD
100
AcDbSymbolTableRecord
100
AcDbLayerTableRecord
  2
Sc.1_2
 70
     0
 62
     7
  6
CONTINUOUS
370
    -3
  0
LAYER
  5
1CE
100
AcDbSymbolTableRecord
100
AcDbLayerTableRecord
  2
Sc.1_5
 70
     0
 62
     7
  6
CONTINUOUS
370
    -3
  0
LAYER
  5
1CF
100
AcDbSymbolTableRecord
100
AcDbLayerTableRecord
  2
Sc.1_10
 70
     0
 62
     7
  6
CONTINUOUS
370
    -3
  0
LAYER
  5
1D0
100
AcDbSymbolTableRecord
100
AcDbLayerTableRecord
  2
Sc.1_20
 70
     0
 62
     7
  6
CONTINUOUS
370
    -3
  0
LAYER
  5
1D1
100
AcDbSymbolTableRecord
100
AcDbLayerTableRecord
  2
Sc.1_25
 70
     0
 62
     7
  6
CONTINUOUS
370
    -3
  0
LAYER
  5
1D2
100
AcDbSymbolTableRecord
100
AcDbLayerTableRecord
  2
Sc.1_33
 70
     0
 62
     7
  6
CONTINUOUS
370
    -3
  0
LAYER
  5
1D3
100
AcDbSymbolTableRecord
100
AcDbLayerTableRecord
  2
Sc.1_50
 70
     0
 62
     7
  6
CONTINUOUS
370
    -3
  0
LAYER
  5
1D4
100
AcDbSymbolTableRecord
100
AcDbLayerTableRecord
  2
Sc.1_75
 70
     0
 62
     7
  6
CONTINUOUS
370
    -3
  0
LAYER
  5
1D5
100
AcDbSymbolTableRecord
100
AcDbLayerTableRecord
  2
Sc.1_100
 70
     0
 62
     7
  6
CONTINUOUS
370
    -3
  0
LAYER
  5
1D6
100
AcDbSymbolTableRecord
100
AcDbLayerTableRecord
  2
Sc.1_200
 70
     0
 62
     7
  6
CONTINUOUS
370
    -3
  0
LAYER
  5
1D7
100
AcDbSymbolTableRecord
100
AcDbLayerTableRecord
  2
Sc.1_500
 70
     0
 62
     7
  6
CONTINUOUS
370
    -3
  0
LAYER
  5
1D8
100
AcDbSymbolTableRecord
100
AcDbLayerTableRecord
  2
Sc.1_1000
 70
     0
 62
     7
  6
CONTINUOUS
370
    -3
  0
LAYER
  5
1D9
100
AcDbSymbolTableRecord
100
AcDbLayerTableRecord
  2
Laser frames
 70
     0
 62
     7
  6
CONTINUOUS
370
    18
  0
LAYER
  5
1DA
100
AcDbSymbolTableRecord
100
AcDbLayerTableRecord
  2
LEGEND
 70
     0
 62
     7
  6
CONTINUOUS
370
    -3
  0
ENDTAB
  0
TABLE
  2
VIEW
  5
1DB
100
AcDbSymbolTable
 70
     0
  0
ENDTAB
  0
TABLE
  2
UCS
  5
1DC
100
AcDbSymbolTable
 70
     0
  0
ENDTAB
  0
TABLE
  2
APPID
  5
1DD
100
AcDbSymbolTable
 70
     1
  0
APPID
  5
1DE
100
AcDbSymbolTableRecord
100
AcDbRegAppTableRecord
  2
ACAD
 70
     0
  0
ENDTAB
  0
TABLE
  2
DIMSTYLE
  5
1DF
100
AcDbSymbolTable
 70
     0
  0
ENDTAB
  0
TABLE
  2
BLOCK_RECORD
  5
1E0
100
AcDbSymbolTable
 70
     0
  0
BLOCK_RECORD
  5
1E1
100
AcDbSymbolTableRecord
100
AcDbBlockTableRecord
  2
*MODEL_SPACE
  0
BLOCK_RECORD
  5
1E2
100
AcDbSymbolTableRecord
100
AcDbBlockTableRecord
  2
*PAPER_SPACE
  0
BLOCK_RECORD
  5
1E3
100
AcDbSymbolTableRecord
100
AcDbBlockTableRecord
  2
CDWK_EXTR_0
  0
BLOCK_RECORD
  5
1E4
100
AcDbSymbolTableRecord
100
AcDbBlockTableRecord
  2
CDWK_EXTR_1D
  0
BLOCK_RECORD
  5
1E5
100
AcDbSymbolTableRecord
100
AcDbBlockTableRecord
  2
CDWK_EXTR_1G
  0
BLOCK_RECORD
  5
1E6
100
AcDbSymbolTableRecord
100
AcDbBlockTableRecord
  2
CDWK_EXTR_2
  0
BLOCK_RECORD
  5
1E7
100
AcDbSymbolTableRecord
100
AcDbBlockTableRecord
  2
CDWK_EXTR_3
  0
BLOCK_RECORD
  5
1E8
100
AcDbSymbolTableRecord
100
AcDbBlockTableRecord
  2
CDWK_EXTR_4
  0
BLOCK_RECORD
  5
1E9
100
AcDbSymbolTableRecord
100
AcDbBlockTableRecord
  2
CDWK_PTTYP0
  0
BLOCK_RECORD
  5
1EA
100
AcDbSymbolTableRecord
100
AcDbBlockTableRecord
  2
*X2245
  0
BLOCK_RECORD
  5
1EB
100
AcDbSymbolTableRecord
100
AcDbBlockTableRecord
  2
*X2246
  0
BLOCK_RECORD
  5
1EC
100
AcDbSymbolTableRecord
100
AcDbBlockTableRecord
  2
*X2247
  0
BLOCK_RECORD
  5
1ED
100
AcDbSymbolTableRecord
100
AcDbBlockTableRecord
  2
*X2248
  0
BLOCK_RECORD
  5
1EE
100
AcDbSymbolTableRecord
100
AcDbBlockTableRecord
  2
*X2534
  0
BLOCK_RECORD
  5
1EF
100
AcDbSymbolTableRecord
100
AcDbBlockTableRecord
  2
*X2535
  0
BLOCK_RECORD
  5
1F0
100
AcDbSymbolTableRecord
100
AcDbBlockTableRecord
  2
*X2536
  0
BLOCK_RECORD
  5
1F1
100
AcDbSymbolTableRecord
100
AcDbBlockTableRecord
  2
*X2537
  0
ENDTAB
  0
ENDSEC
  0
SECTION
  2
BLOCKS
  0
BLOCK
  5
1F2
100
AcDbEntity
  8
0
100
AcDbBlockBegin
  2
*MODEL_SPACE
 70
     0
 10
0.0
 20
0.0
 30
0.0
  3
*MODEL_SPACE
  1

  0
ENDBLK
  5
1F3
100
AcDbEntity
100
AcDbBlockEnd
  0
BLOCK
  5
1F4
100
AcDbEntity
  8
0
100
AcDbBlockBegin
  2
*PAPER_SPACE
 70
     0
 10
0.0
 20
0.0
 30
0.0
  3
*PAPER_SPACE
  1

  0
ENDBLK
  5
1F5
100
AcDbEntity
100
AcDbBlockEnd
  0
BLOCK
  5
1F6
100
AcDbEntity
  8
0
100
AcDbBlockBegin
  2
CDWK_EXTR_0
 70
     0
 10
0.0
 20
0.0
 30
0.0
  3
CDWK_EXTR_0
  1

  4
Cadwork line-extremity
  0
LINE
  5
1F7
100
AcDbEntity
  8
0
 62
     0
370
    -2
100
AcDbLine
 10
0.0
 20
0.0
 30
0.0
 11
2.0
 21
0.5
 31
0.0
  0
LINE
  5
1F8
100
AcDbEntity
  8
0
 62
     0
370
    -2
100
AcDbLine
 10
0.0
 20
0.0
 30
0.0
 11
2.0
 21
-0.5
 31
0.0
  0
LINE
  5
1F9
100
AcDbEntity
  8
0
 62
     0
370
    -2
100
AcDbLine
 10
2.0
 20
0.5
 30
0.0
 11
2.0
 21
-0.5
 31
0.0
  0
ENDBLK
  5
1FA
100
AcDbEntity
100
AcDbBlockEnd
  0
BLOCK
  5
1FB
100
AcDbEntity
  8
0
100
AcDbBlockBegin
  2
CDWK_EXTR_1D
 70
     0
 10
0.0
 20
0.0
 30
0.0
  3
CDWK_EXTR_1D
  1

  4
Cadwork line-extremity
  0
LINE
  5
1FC
100
AcDbEntity
  8
0
 62
     0
370
    -2
100
AcDbLine
 10
0.0
 20
0.0
 30
0.0
 11
0.0
 21
1.0
 31
0.0
  0
LINE
  5
1FD
100
AcDbEntity
  8
0
 62
     0
370
    -2
100
AcDbLine
 10
0.0
 20
1.0
 30
0.0
 11
0.5
 21
1.5
 31
0.0
  0
LINE
  5
1FE
100
AcDbEntity
  8
0
 62
     0
370
    -2
100
AcDbLine
 10
0.5
 20
1.5
 30
0.0
 11
1.5
 21
1.5
 31
0.0
  0
ENDBLK
  5
1FF
100
AcDbEntity
100
AcDbBlockEnd
  0
BLOCK
  5
200
100
AcDbEntity
  8
0
100
AcDbBlockBegin
  2
CDWK_EXTR_1G
 70
     0
 10
0.0
 20
0.0
 30
0.0
  3
CDWK_EXTR_1G
  1

  4
Cadwork line-extremity
  0
LINE
  5
201
100
AcDbEntity
  8
0
 62
     0
370
    -2
100
AcDbLine
 10
0.0
 20
0.0
 30
0.0
 11
0.0
 21
-1.0
 31
0.0
  0
LINE
  5
202
100
AcDbEntity
  8
0
 62
     0
370
    -2
100
AcDbLine
 10
0.0
 20
-1.0
 30
0.0
 11
0.5
 21
-1.5
 31
0.0
  0
LINE
  5
203
100
AcDbEntity
  8
0
 62
     0
370
    -2
100
AcDbLine
 10
0.5
 20
-1.5
 30
0.0
 11
1.5
 21
-1.5
 31
0.0
  0
ENDBLK
  5
204
100
AcDbEntity
100
AcDbBlockEnd
  0
BLOCK
  5
205
100
AcDbEntity
  8
0
100
AcDbBlockBegin
  2
CDWK_EXTR_2
 70
     0
 10
0.0
 20
0.0
 30
0.0
  3
CDWK_EXTR_2
  1

  4
Cadwork line-extremity
  0
SOLID
  5
206
100
AcDbEntity
  8
0
 62
     0
100
AcDbTrace
 10
0.0
 20
0.0
 11
2.0
 21
0.5
 12
2.0
 22
-0.5
 13
2.0
 23
-0.5
  0
ENDBLK
  5
207
100
AcDbEntity
100
AcDbBlockEnd
  0
BLOCK
  5
208
100
AcDbEntity
  8
0
100
AcDbBlockBegin
  2
CDWK_EXTR_3
 70
     0
 10
0.0
 20
0.0
 30
0.0
  3
CDWK_EXTR_3
  1

  4
Cadwork line-extremity
  0
SOLID
  5
209
100
AcDbEntity
  8
0
 62
     0
100
AcDbTrace
 10
0.0
 20
0.0
 11
2.0
 21
0.5
 12
2.0
 22
-0.5
 13
2.0
 23
-0.5
  0
LINE
  5
20A
100
AcDbEntity
  8
0
 62
     0
370
    -2
100
AcDbLine
 10
0.0
 20
1.0
 30
0.0
 11
0.0
 21
-1.0
 31
0.0
  0
ENDBLK
  5
20B
100
AcDbEntity
100
AcDbBlockEnd
  0
BLOCK
  5
20C
100
AcDbEntity
  8
0
100
AcDbBlockBegin
  2
CDWK_EXTR_4
 70
     0
 10
0.0
 20
0.0
 30
0.0
  3
CDWK_EXTR_4
  1

  4
Cadwork line-extremity
  0
HATCH
  5
20D
100
AcDbEntity
  8
0
 62
     0
370
    -2
100
AcDbHatch
 10
0.0
 20
0.0
 30
0.0
210
0.0
220
0.0
230
1.0
  2
SOLID
 70
     1
 71
     0
 91
        1
 92
        1
 93
        1
 72
     2
 10
0.0
 20
0.0
 40
0.5
 50
0.0
 51
360.0
 73
     1
 97
        0
 75
     0
 76
     1
 98
        1
 10
0.0
 20
0.0
  0
ENDBLK
  5
20E
100
AcDbEntity
100
AcDbBlockEnd
  0
BLOCK
  5
20F
100
AcDbEntity
  8
0
100
AcDbBlockBegin
  2
CDWK_PTTYP0
 70
     0
 10
0.0
 20
0.0
 30
0.0
  3
CDWK_PTTYP0
  1

  4
Cadwork point
  0
POINT
  5
210
100
AcDbEntity
  8
0
 62
     0
100
AcDbPoint
 10
0.0
 20
0.0
 30
0.0
  0
ENDBLK
  5
211
100
AcDbEntity
100
AcDbBlockEnd
  0
BLOCK
  5
212
100
AcDbEntity
  8
Sc.1_5
100
AcDbBlockBegin
  2
*X2245
 70
     1
 10
0.0
 20
0.0
 30
0.0
  3
*X2245
  1

  4
Cadwork hatch
  0
LINE
  5
213
100
AcDbEntity
  8
Sc.1_5
 62
     9
  6
CONTINUOUS
370
    -2
100
AcDbLine
 10
2871.02374426
 20
-1828.75893481
 30
0.0
 11
2886.64830911
 21
-1827.82112373
 31
0.0
  0
LINE
  5
214
100
AcDbEntity
  8
Sc.1_5
 62
     9
  6
CONTINUOUS
370
    -2
100
AcDbLine
 10
2874.52393972
 20
-1834.82111951
 30
0.0
 11
2883.14811365
 21
-1821.75893903
 31
0.0
  0
ENDBLK
  5
215
100
AcDbEntity
100
AcDbBlockEnd
  0
BLOCK
  5
216
100
AcDbEntity
  8
Sc.1_5
100
AcDbBlockBegin
  2
*X2246
 70
     1
 10
0.0
 20
0.0
 30
0.0
  3
*X2246
  1

  4
Cadwork hatch
  0
LINE
  5
217
100
AcDbEntity
  8
Sc.1_5
 62
     9
  6
CONTINUOUS
370
    -2
100
AcDbLine
 10
2887.08112473
 20
-1829.4218566
 30
0.0
 11
2915.08110785
 21
-1838.42194526
 31
0.0
  0
LINE
  5
218
100
AcDbEntity
  8
Sc.1_5
 62
     9
  6
CONTINUOUS
370
    -2
100
AcDbLine
 10
2887.08138816
 20
-1838.42194526
 30
0.0
 11
2915.08110785
 21
-1829.4218566
 31
0.0
  0
ENDBLK
  5
219
100
AcDbEntity
100
AcDbBlockEnd
  0
BLOCK
  5
21A
100
AcDbEntity
  8
Sc.1_5
100
AcDbBlockBegin
  2
*X2247
 70
     1
 10
0.0
 20
0.0
 30
0.0
  3
*X2247
  1

  4
Cadwork hatch
  0
LINE
  5
21B
100
AcDbEntity
  8
Sc.1_5
 62
     9
  6
CONTINUOUS
370
    -2
100
AcDbLine
 10
2872.57771829
 20
-1777.32263126
 30
0.0
 11
2888.46123492
 21
-1786.83364256
 31
0.0
  0
LINE
  5
21C
100
AcDbEntity
  8
Sc.1_5
 62
     9
  6
CONTINUOUS
370
    -2
100
AcDbLine
 10
2880.37208748
 20
-1772.82258694
 30
0.0
 11
2880.66712917
 21
-1791.33355517
 31
0.0
  0
ENDBLK
  5
21D
100
AcDbEntity
100
AcDbBlockEnd
  0
BLOCK
  5
21E
100
AcDbEntity
  8
Sc.1_5
100
AcDbBlockBegin
  2
*X2248
 70
     1
 10
0.0
 20
0.0
 30
0.0
  3
*X2248
  1

  4
Cadwork hatch
  0
LINE
  5
21F
100
AcDbEntity
  8
Sc.1_5
 62
     9
  6
CONTINUOUS
370
    -2
100
AcDbLine
 10
2921.79067197
 20
-1772.82258694
 30
0.0
 11
2921.49563028
 21
-1791.33355517
 31
0.0
  0
LINE
  5
220
100
AcDbEntity
  8
Sc.1_5
 62
     9
  6
CONTINUOUS
370
    -2
100
AcDbLine
 10
2929.58504115
 20
-1777.32263126
 30
0.0
 11
2913.70152453
 21
-1786.83364256
 31
0.0
  0
ENDBLK
  5
221
100
AcDbEntity
100
AcDbBlockEnd
  0
BLOCK
  5
222
100
AcDbEntity
  8
Sc.1_5
100
AcDbBlockBegin
  2
*X2534
 70
     1
 10
0.0
 20
0.0
 30
0.0
  3
*X2534
  1

  4
Cadwork hatch
  0
LINE
  5
223
100
AcDbEntity
  8
Sc.1_5
 62
     9
  6
CONTINUOUS
370
    -2
100
AcDbLine
 10
2881.91692982
 20
-1793.49842644
 30
0.0
 11
2881.60765838
 21
-1793.67698439
 31
0.0
  0
LINE
  5
224
100
AcDbEntity
  8
Sc.1_5
 62
     9
  6
CONTINUOUS
370
    -2
100
AcDbLine
 10
2879.91679846
 20
-1794.65320282
 30
0.0
 11
2879.29825679
 21
-1795.01031802
 31
0.0
  0
LINE
  5
225
100
AcDbEntity
  8
Sc.1_5
 62
     9
  6
CONTINUOUS
370
    -2
100
AcDbLine
 10
2877.60739687
 20
-1795.98653645
 30
0.0
 11
2876.98885519
 21
-1796.34365165
 31
0.0
  0
LINE
  5
226
100
AcDbEntity
  8
Sc.1_5
 62
     9
  6
CONTINUOUS
370
    -2
100
AcDbLine
 10
2875.29799528
 20
-1797.31987008
 30
0.0
 11
2874.6794536
 21
-1797.67698528
 31
0.0
  0
LINE
  5
227
100
AcDbEntity
  8
Sc.1_5
 62
     9
  6
CONTINUOUS
370
    -2
100
AcDbLine
 10
2872.98859368
 20
-1798.65320371
 30
0.0
 11
2872.37005201
 21
-1799.01031892
 31
0.0
  0
LINE
  5
228
100
AcDbEntity
  8
Sc.1_5
 62
     9
  6
CONTINUOUS
370
    -2
100
AcDbLine
 10
2870.67919209
 20
-1799.98653734
 30
0.0
 11
2870.06065041
 21
-1800.34365255
 31
0.0
  0
LINE
  5
229
100
AcDbEntity
  8
Sc.1_5
 62
     9
  6
CONTINUOUS
370
    -2
100
AcDbLine
 10
2868.3697905
 20
-1801.31987098
 30
0.0
 11
2867.75124882
 21
-1801.67698618
 31
0.0
  0
LINE
  5
22A
100
AcDbEntity
  8
Sc.1_5
 62
     9
  6
CONTINUOUS
370
    -2
100
AcDbLine
 10
2866.0603889
 20
-1802.65320461
 30
0.0
 11
2865.44184723
 21
-1803.01031981
 31
0.0
  0
LINE
  5
22B
100
AcDbEntity
  8
Sc.1_5
 62
     9
  6
CONTINUOUS
370
    -2
100
AcDbLine
 10
2863.75098731
 20
-1803.98653824
 30
0.0
 11
2863.13244564
 21
-1804.34365344
 31
0.0
  0
LINE
  5
22C
100
AcDbEntity
  8
Sc.1_5
 62
     9
  6
CONTINUOUS
370
    -2
100
AcDbLine
 10
2861.44158572
 20
-1805.31987187
 30
0.0
 11
2860.82304404
 21
-1805.67698707
 31
0.0
  0
LINE
  5
22D
100
AcDbEntity
  8
Sc.1_5
 62
     9
  6
CONTINUOUS
370
    -2
100
AcDbLine
 10
2859.13218412
 20
-1806.6532055
 30
0.0
 11
2858.51364245
 21
-1807.0103207
 31
0.0
  0
LINE
  5
22E
100
AcDbEntity
  8
Sc.1_5
 62
     9
  6
CONTINUOUS
370
    -2
100
AcDbLine
 10
2856.82278253
 20
-1807.98653913
 30
0.0
 11
2856.20424086
 21
-1808.34365433
 31
0.0
  0
LINE
  5
22F
100
AcDbEntity
  8
Sc.1_5
 62
     9
  6
CONTINUOUS
370
    -2
100
AcDbLine
 10
2854.51338094
 20
-1809.31987276
 30
0.0
 11
2853.89483926
 21
-1809.67698797
 31
0.0
  0
LINE
  5
230
100
AcDbEntity
  8
Sc.1_5
 62
     9
  6
CONTINUOUS
370
    -2
100
AcDbLine
 10
2852.20397935
 20
-1810.6532064
 30
0.0
 11
2851.58543767
 21
-1811.0103216
 31
0.0
  0
LINE
  5
231
100
AcDbEntity
  8
Sc.1_5
 62
     9
  6
CONTINUOUS
370
    -2
100
AcDbLine
 10
2849.89457775
 20
-1811.98654003
 30
0.0
 11
2849.27603608
 21
-1812.34365523
 31
0.0
  0
LINE
  5
232
100
AcDbEntity
  8
Sc.1_5
 62
     9
  6
CONTINUOUS
370
    -2
100
AcDbLine
 10
2847.58517616
 20
-1813.31987366
 30
0.0
 11
2846.96663449
 21
-1813.67698886
 31
0.0
  0
LINE
  5
233
100
AcDbEntity
  8
Sc.1_5
 62
     9
  6
CONTINUOUS
370
    -2
100
AcDbLine
 10
2845.27577457
 20
-1814.65320729
 30
0.0
 11
2844.65723289
 21
-1815.01032249
 31
0.0
  0
LINE
  5
234
100
AcDbEntity
  8
Sc.1_5
 62
     9
  6
CONTINUOUS
370
    -2
100
AcDbLine
 10
2842.96637297
 20
-1815.98654092
 30
0.0
 11
2842.3478313
 21
-1816.34365612
 31
0.0
  0
LINE
  5
235
100
AcDbEntity
  8
Sc.1_5
 62
     9
  6
CONTINUOUS
370
    -2
100
AcDbLine
 10
2840.65697138
 20
-1817.31987455
 30
0.0
 11
2840.03842971
 21
-1817.67698975
 31
0.0
  0
LINE
  5
236
100
AcDbEntity
  8
Sc.1_5
 62
     9
  6
CONTINUOUS
370
    -2
100
AcDbLine
 10
2838.34756979
 20
-1818.65320818
 30
0.0
 11
2837.72902811
 21
-1819.01032339
 31
0.0
  0
LINE
  5
237
100
AcDbEntity
  8
Sc.1_5
 62
     9
  6
CONTINUOUS
370
    -2
100
AcDbLine
 10
2836.0381682
 20
-1819.98654181
 30
0.0
 11
2835.41962652
 21
-1820.34365702
 31
0.0
  0
LINE
  5
238
100
AcDbEntity
  8
Sc.1_5
 62
     9
  6
CONTINUOUS
370
    -2
100
AcDbLine
 10
2833.7287666
 20
-1821.31987545
 30
0.0
 11
2833.11022493
 21
-1821.67699065
 31
0.0
  0
LINE
  5
239
100
AcDbEntity
  8
Sc.1_5
 62
     9
  6
CONTINUOUS
370
    -2
100
AcDbLine
 10
2831.41936501
 20
-1822.65320908
 30
0.0
 11
2830.80082333
 21
-1823.01032428
 31
0.0
  0
LINE
  5
23A
100
AcDbEntity
  8
Sc.1_5
 62
     9
  6
CONTINUOUS
370
    -2
100
AcDbLine
 10
2829.10996342
 20
-1823.98654271
 30
0.0
 11
2828.49142174
 21
-1824.34365791
 31
0.0
  0
LINE
  5
23B
100
AcDbEntity
  8
Sc.1_5
 62
     9
  6
CONTINUOUS
370
    -2
100
AcDbLine
 10
2826.80056182
 20
-1825.31987634
 30
0.0
 11
2826.18202015
 21
-1825.67699154
 31
0.0
  0
LINE
  5
23C
100
AcDbEntity
  8
Sc.1_5
 62
     9
  6
CONTINUOUS
370
    -2
100
AcDbLine
 10
2872.72449126
 20
-1782.90999163
 30
0.0
 11
2872.94086165
 21
-1783.28475615
 31
0.0
  0
LINE
  5
23D
100
AcDbEntity
  8
Sc.1_5
 62
     9
  6
CONTINUOUS
370
    -2
100
AcDbLine
 10
2868.10568948
 20
-1785.57665808
 30
0.0
 11
2868.32205987
 21
-1785.9514226
 31
0.0
  0
LINE
  5
23E
100
AcDbEntity
  8
Sc.1_5
 62
     9
  6
CONTINUOUS
370
    -2
100
AcDbLine
 10
2863.48688769
 20
-1788.24332453
 30
0.0
 11
2863.70325809
 21
-1788.61808905
 31
0.0
  0
LINE
  5
23F
100
AcDbEntity
  8
Sc.1_5
 62
     9
  6
CONTINUOUS
370
    -2
100
AcDbLine
 10
2858.86808591
 20
-1790.90999099
 30
0.0
 11
2859.08445631
 21
-1791.2847555
 31
0.0
  0
LINE
  5
240
100
AcDbEntity
  8
Sc.1_5
 62
     9
  6
CONTINUOUS
370
    -2
100
AcDbLine
 10
2854.24928413
 20
-1793.57665744
 30
0.0
 11
2854.46565453
 21
-1793.95142196
 31
0.0
  0
LINE
  5
241
100
AcDbEntity
  8
Sc.1_5
 62
     9
  6
CONTINUOUS
370
    -2
100
AcDbLine
 10
2849.63048235
 20
-1796.24332389
 30
0.0
 11
2849.84685274
 21
-1796.61808841
 31
0.0
  0
LINE
  5
242
100
AcDbEntity
  8
Sc.1_5
 62
     9
  6
CONTINUOUS
370
    -2
100
AcDbLine
 10
2845.01168057
 20
-1798.90999034
 30
0.0
 11
2845.22805096
 21
-1799.28475486
 31
0.0
  0
LINE
  5
243
100
AcDbEntity
  8
Sc.1_5
 62
     9
  6
CONTINUOUS
370
    -2
100
AcDbLine
 10
2840.39287879
 20
-1801.57665679
 30
0.0
 11
2840.60924918
 21
-1801.95142131
 31
0.0
  0
LINE
  5
244
100
AcDbEntity
  8
Sc.1_5
 62
     9
  6
CONTINUOUS
370
    -2
100
AcDbLine
 10
2835.774077
 20
-1804.24332325
 30
0.0
 11
2835.9904474
 21
-1804.61808776
 31
0.0
  0
LINE
  5
245
100
AcDbEntity
  8
Sc.1_5
 62
     9
  6
CONTINUOUS
370
    -2
100
AcDbLine
 10
2831.15527522
 20
-1806.9099897
 30
0.0
 11
2831.37164562
 21
-1807.28475422
 31
0.0
  0
LINE
  5
246
100
AcDbEntity
  8
Sc.1_5
 62
     9
  6
CONTINUOUS
370
    -2
100
AcDbLine
 10
2826.53647344
 20
-1809.57665615
 30
0.0
 11
2826.75284383
 21
-1809.95142067
 31
0.0
  0
LINE
  5
247
100
AcDbEntity
  8
Sc.1_5
 62
     9
  6
CONTINUOUS
370
    -2
100
AcDbLine
 10
2821.91767166
 20
-1812.2433226
 30
0.0
 11
2822.13404205
 21
-1812.61808712
 31
0.0
  0
LINE
  5
248
100
AcDbEntity
  8
Sc.1_5
 62
     9
  6
CONTINUOUS
370
    -2
100
AcDbLine
 10
2880.58359524
 20
-1791.1890266
 30
0.0
 11
2880.79996564
 21
-1791.56379112
 31
0.0
  0
LINE
  5
249
100
AcDbEntity
  8
Sc.1_5
 62
     9
  6
CONTINUOUS
370
    -2
100
AcDbLine
 10
2875.96479346
 20
-1793.85569306
 30
0.0
 11
2876.18116386
 21
-1794.23045757
 31
0.0
  0
LINE
  5
24A
100
AcDbEntity
  8
Sc.1_5
 62
     9
  6
CONTINUOUS
370
    -2
100
AcDbLine
 10
2871.34599168
 20
-1796.52235951
 30
0.0
 11
2871.56236207
 21
-1796.89712402
 31
0.0
  0
LINE
  5
24B
100
AcDbEntity
  8
Sc.1_5
 62
     9
  6
CONTINUOUS
370
    -2
100
AcDbLine
 10
2866.7271899
 20
-1799.18902596
 30
0.0
 11
2866.94356029
 21
-1799.56379048
 31
0.0
  0
LINE
  5
24C
100
AcDbEntity
  8
Sc.1_5
 62
     9
  6
CONTINUOUS
370
    -2
100
AcDbLine
 10
2862.10838812
 20
-1801.85569241
 30
0.0
 11
2862.32475851
 21
-1802.23045693
 31
0.0
  0
LINE
  5
24D
100
AcDbEntity
  8
Sc.1_5
 62
     9
  6
CONTINUOUS
370
    -2
100
AcDbLine
 10
2857.48958633
 20
-1804.52235886
 30
0.0
 11
2857.70595673
 21
-1804.89712338
 31
0.0
  0
LINE
  5
24E
100
AcDbEntity
  8
Sc.1_5
 62
     9
  6
CONTINUOUS
370
    -2
100
AcDbLine
 10
2852.87078455
 20
-1807.18902532
 30
0.0
 11
2853.08715495
 21
-1807.56378983
 31
0.0
  0
LINE
  5
24F
100
AcDbEntity
  8
Sc.1_5
 62
     9
  6
CONTINUOUS
370
    -2
100
AcDbLine
 10
2848.25198277
 20
-1809.85569177
 30
0.0
 11
2848.46835317
 21
-1810.23045629
 31
0.0
  0
LINE
  5
250
100
AcDbEntity
  8
Sc.1_5
 62
     9
  6
CONTINUOUS
370
    -2
100
AcDbLine
 10
2843.63318099
 20
-1812.52235822
 30
0.0
 11
2843.84955138
 21
-1812.89712274
 31
0.0
  0
LINE
  5
251
100
AcDbEntity
  8
Sc.1_5
 62
     9
  6
CONTINUOUS
370
    -2
100
AcDbLine
 10
2839.01437921
 20
-1815.18902467
 30
0.0
 11
2839.2307496
 21
-1815.56378919
 31
0.0
  0
LINE
  5
252
100
AcDbEntity
  8
Sc.1_5
 62
     9
  6
CONTINUOUS
370
    -2
100
AcDbLine
 10
2834.39557742
 20
-1817.85569112
 30
0.0
 11
2834.61194782
 21
-1818.23045564
 31
0.0
  0
LINE
  5
253
100
AcDbEntity
  8
Sc.1_5
 62
     9
  6
CONTINUOUS
370
    -2
100
AcDbLine
 10
2829.77677564
 20
-1820.52235758
 30
0.0
 11
2829.99314604
 21
-1820.89712209
 31
0.0
  0
LINE
  5
254
100
AcDbEntity
  8
Sc.1_5
 62
     9
  6
CONTINUOUS
370
    -2
100
AcDbLine
 10
2825.15797386
 20
-1823.18902403
 30
0.0
 11
2825.37434426
 21
-1823.56378855
 31
0.0
  0
LINE
  5
255
100
AcDbEntity
  8
Sc.1_5
 62
     9
  6
CONTINUOUS
370
    -2
100
AcDbLine
 10
2873.28192052
 20
-1783.74836761
 30
0.0
 11
2880.24253739
 21
-1790.72541302
 31
0.0
  0
LINE
  5
256
100
AcDbEntity
  8
Sc.1_5
 62
     9
  6
CONTINUOUS
370
    -2
100
AcDbLine
 10
2868.66311511
 20
-1786.4150256
 30
0.0
 11
2875.62373198
 21
-1793.39207101
 31
0.0
  0
LINE
  5
257
100
AcDbEntity
  8
Sc.1_5
 62
     9
  6
CONTINUOUS
370
    -2
100
AcDbLine
 10
2864.04430969
 20
-1789.08168359
 30
0.0
 11
2871.00492656
 21
-1796.058729
 31
0.0
  0
LINE
  5
258
100
AcDbEntity
  8
Sc.1_5
 62
     9
  6
CONTINUOUS
370
    -2
100
AcDbLine
 10
2859.42550428
 20
-1791.74834157
 30
0.0
 11
2866.38612115
 21
-1798.72538698
 31
0.0
  0
LINE
  5
259
100
AcDbEntity
  8
Sc.1_5
 62
     9
  6
CONTINUOUS
370
    -2
100
AcDbLine
 10
2854.80669886
 20
-1794.41499956
 30
0.0
 11
2861.76731573
 21
-1801.39204497
 31
0.0
  0
LINE
  5
25A
100
AcDbEntity
  8
Sc.1_5
 62
     9
  6
CONTINUOUS
370
    -2
100
AcDbLine
 10
2850.18789345
 20
-1797.08165755
 30
0.0
 11
2857.14851032
 21
-1804.05870296
 31
0.0
  0
LINE
  5
25B
100
AcDbEntity
  8
Sc.1_5
 62
     9
  6
CONTINUOUS
370
    -2
100
AcDbLine
 10
2845.56908803
 20
-1799.74831554
 30
0.0
 11
2852.5297049
 21
-1806.72536095
 31
0.0
  0
LINE
  5
25C
100
AcDbEntity
  8
Sc.1_5
 62
     9
  6
CONTINUOUS
370
    -2
100
AcDbLine
 10
2840.95028262
 20
-1802.41497353
 30
0.0
 11
2847.91089949
 21
-1809.39201894
 31
0.0
  0
LINE
  5
25D
100
AcDbEntity
  8
Sc.1_5
 62
     9
  6
CONTINUOUS
370
    -2
100
AcDbLine
 10
2836.3314772
 20
-1805.08163151
 30
0.0
 11
2843.29209407
 21
-1812.05867692
 31
0.0
  0
LINE
  5
25E
100
AcDbEntity
  8
Sc.1_5
 62
     9
  6
CONTINUOUS
370
    -2
100
AcDbLine
 10
2831.71267179
 20
-1807.7482895
 30
0.0
 11
2838.67328866
 21
-1814.72533491
 31
0.0
  0
LINE
  5
25F
100
AcDbEntity
  8
Sc.1_5
 62
     9
  6
CONTINUOUS
370
    -2
100
AcDbLine
 10
2827.09386637
 20
-1810.41494749
 30
0.0
 11
2834.05448324
 21
-1817.3919929
 31
0.0
  0
LINE
  5
260
100
AcDbEntity
  8
Sc.1_5
 62
     9
  6
CONTINUOUS
370
    -2
100
AcDbLine
 10
2822.47506096
 20
-1813.08160548
 30
0.0
 11
2829.43567783
 21
-1820.05865089
 31
0.0
  0
LINE
  5
261
100
AcDbEntity
  8
Sc.1_5
 62
     9
  6
CONTINUOUS
370
    -2
100
AcDbLine
 10
2820.22213168
 20
-1818.11972357
 30
0.0
 11
2824.81687241
 21
-1822.72530888
 31
0.0
  0
LINE
  5
262
100
AcDbEntity
  8
Sc.1_5
 62
     9
  6
CONTINUOUS
370
    -2
100
AcDbLine
 10
2873.17183284
 20
-1783.81192676
 30
0.0
 11
2875.73382298
 21
-1793.3285205
 31
0.0
  0
LINE
  5
263
100
AcDbEntity
  8
Sc.1_5
 62
     9
  6
CONTINUOUS
370
    -2
100
AcDbLine
 10
2868.55303658
 20
-1786.47860059
 30
0.0
 11
2871.11502671
 21
-1795.99519433
 31
0.0
  0
LINE
  5
264
100
AcDbEntity
  8
Sc.1_5
 62
     9
  6
CONTINUOUS
370
    -2
100
AcDbLine
 10
2863.93424031
 20
-1789.14527442
 30
0.0
 11
2866.49623044
 21
-1798.66186816
 31
0.0
  0
LINE
  5
265
100
AcDbEntity
  8
Sc.1_5
 62
     9
  6
CONTINUOUS
370
    -2
100
AcDbLine
 10
2859.31544404
 20
-1791.81194825
 30
0.0
 11
2861.87743417
 21
-1801.32854199
 31
0.0
  0
LINE
  5
266
100
AcDbEntity
  8
Sc.1_5
 62
     9
  6
CONTINUOUS
370
    -2
100
AcDbLine
 10
2854.69664777
 20
-1794.47862209
 30
0.0
 11
2857.2586379
 21
-1803.99521582
 31
0.0
  0
LINE
  5
267
100
AcDbEntity
  8
Sc.1_5
 62
     9
  6
CONTINUOUS
370
    -2
100
AcDbLine
 10
2850.0778515
 20
-1797.14529592
 30
0.0
 11
2852.63984164
 21
-1806.66188966
 31
0.0
  0
LINE
  5
268
100
AcDbEntity
  8
Sc.1_5
 62
     9
  6
CONTINUOUS
370
    -2
100
AcDbLine
 10
2845.45905523
 20
-1799.81196975
 30
0.0
 11
2848.02104537
 21
-1809.32856349
 31
0.0
  0
LINE
  5
269
100
AcDbEntity
  8
Sc.1_5
 62
     9
  6
CONTINUOUS
370
    -2
100
AcDbLine
 10
2840.84025897
 20
-1802.47864358
 30
0.0
 11
2843.4022491
 21
-1811.99523732
 31
0.0
  0
LINE
  5
26A
100
AcDbEntity
  8
Sc.1_5
 62
     9
  6
CONTINUOUS
370
    -2
100
AcDbLine
 10
2836.2214627
 20
-1805.14531741
 30
0.0
 11
2838.78345283
 21
-1814.66191115
 31
0.0
  0
LINE
  5
26B
100
AcDbEntity
  8
Sc.1_5
 62
     9
  6
CONTINUOUS
370
    -2
100
AcDbLine
 10
2831.60266643
 20
-1807.81199124
 30
0.0
 11
2834.16465656
 21
-1817.32858498
 31
0.0
  0
LINE
  5
26C
100
AcDbEntity
  8
Sc.1_5
 62
     9
  6
CONTINUOUS
370
    -2
100
AcDbLine
 10
2826.98387016
 20
-1810.47866507
 30
0.0
 11
2829.54586029
 21
-1819.99525881
 31
0.0
  0
LINE
  5
26D
100
AcDbEntity
  8
Sc.1_5
 62
     9
  6
CONTINUOUS
370
    -2
100
AcDbLine
 10
2822.36507389
 20
-1813.1453389
 30
0.0
 11
2824.92706403
 21
-1822.66193264
 31
0.0
  0
LINE
  5
26E
100
AcDbEntity
  8
Sc.1_5
 62
     9
  6
CONTINUOUS
370
    -2
100
AcDbLine
 10
2873.60765876
 20
-1779.82057859
 30
0.0
 11
2873.09738871
 21
-1780.33541312
 31
0.0
  0
LINE
  5
26F
100
AcDbEntity
  8
Sc.1_5
 62
     9
  6
CONTINUOUS
370
    -2
100
AcDbLine
 10
2868.98885667
 20
-1782.48724522
 30
0.0
 11
2868.478587
 21
-1783.00207937
 31
0.0
  0
LINE
  5
270
100
AcDbEntity
  8
Sc.1_5
 62
     9
  6
CONTINUOUS
370
    -2
100
AcDbLine
 10
2864.37005458
 20
-1785.15391185
 30
0.0
 11
2863.85978529
 21
-1785.66874561
 31
0.0
  0
LINE
  5
271
100
AcDbEntity
  8
Sc.1_5
 62
     9
  6
CONTINUOUS
370
    -2
100
AcDbLine
 10
2859.75125249
 20
-1787.82057848
 30
0.0
 11
2859.24098358
 21
-1788.33541186
 31
0.0
  0
LINE
  5
272
100
AcDbEntity
  8
Sc.1_5
 62
     9
  6
CONTINUOUS
370
    -2
100
AcDbLine
 10
2855.1324504
 20
-1790.48724511
 30
0.0
 11
2854.62218188
 21
-1791.0020781
 31
0.0
  0
LINE
  5
273
100
AcDbEntity
  8
Sc.1_5
 62
     9
  6
CONTINUOUS
370
    -2
100
AcDbLine
 10
2850.51364831
 20
-1793.15391174
 30
0.0
 11
2850.00338017
 21
-1793.66874435
 31
0.0
  0
LINE
  5
274
100
AcDbEntity
  8
Sc.1_5
 62
     9
  6
CONTINUOUS
370
    -2
100
AcDbLine
 10
2845.89484622
 20
-1795.82057837
 30
0.0
 11
2845.38457846
 21
-1796.33541059
 31
0.0
  0
LINE
  5
275
100
AcDbEntity
  8
Sc.1_5
 62
     9
  6
CONTINUOUS
370
    -2
100
AcDbLine
 10
2841.27604412
 20
-1798.487245
 30
0.0
 11
2840.76577675
 21
-1799.00207684
 31
0.0
  0
LINE
  5
276
100
AcDbEntity
  8
Sc.1_5
 62
     9
  6
CONTINUOUS
370
    -2
100
AcDbLine
 10
2836.65724203
 20
-1801.15391163
 30
0.0
 11
2836.14697504
 21
-1801.66874308
 31
0.0
  0
LINE
  5
277
100
AcDbEntity
  8
Sc.1_5
 62
     9
  6
CONTINUOUS
370
    -2
100
AcDbLine
 10
2832.03843994
 20
-1803.82057826
 30
0.0
 11
2831.52817333
 21
-1804.33540933
 31
0.0
  0
LINE
  5
278
100
AcDbEntity
  8
Sc.1_5
 62
     9
  6
CONTINUOUS
370
    -2
100
AcDbLine
 10
2827.41963785
 20
-1806.48724489
 30
0.0
 11
2826.90937163
 21
-1807.00207557
 31
0.0
  0
LINE
  5
279
100
AcDbEntity
  8
Sc.1_5
 62
     9
  6
CONTINUOUS
370
    -2
100
AcDbLine
 10
2822.80083576
 20
-1809.15391152
 30
0.0
 11
2822.29056992
 21
-1809.66874181
 31
0.0
  0
LINE
  5
27A
100
AcDbEntity
  8
Sc.1_5
 62
     9
  6
CONTINUOUS
370
    -2
100
AcDbLine
 10
2818.18203367
 20
-1811.82057815
 30
0.0
 11
2817.67176821
 21
-1812.33540806
 31
0.0
  0
LINE
  5
27B
100
AcDbEntity
  8
Sc.1_5
 62
     9
  6
CONTINUOUS
370
    -2
100
AcDbLine
 10
2869.60739922
 20
-1782.13013049
 30
0.0
 11
2870.30839401
 21
-1781.94564084
 31
0.0
  0
LINE
  5
27C
100
AcDbEntity
  8
Sc.1_5
 62
     9
  6
CONTINUOUS
370
    -2
100
AcDbLine
 10
2864.98859801
 20
-1784.7967976
 30
0.0
 11
2865.6895928
 21
-1784.61230795
 31
0.0
  0
LINE
  5
27D
100
AcDbEntity
  8
Sc.1_5
 62
     9
  6
CONTINUOUS
370
    -2
100
AcDbLine
 10
2860.3697968
 20
-1787.46346471
 30
0.0
 11
2861.07079159
 21
-1787.27897506
 31
0.0
  0
LINE
  5
27E
100
AcDbEntity
  8
Sc.1_5
 62
     9
  6
CONTINUOUS
370
    -2
100
AcDbLine
 10
2855.75099559
 20
-1790.13013182
 30
0.0
 11
2856.45199038
 21
-1789.94564216
 31
0.0
  0
LINE
  5
27F
100
AcDbEntity
  8
Sc.1_5
 62
     9
  6
CONTINUOUS
370
    -2
100
AcDbLine
 10
2851.13219438
 20
-1792.79679892
 30
0.0
 11
2851.83318917
 21
-1792.61230927
 31
0.0
  0
LINE
  5
280
100
AcDbEntity
  8
Sc.1_5
 62
     9
  6
CONTINUOUS
370
    -2
100
AcDbLine
 10
2846.51339317
 20
-1795.46346603
 30
0.0
 11
2847.21438796
 21
-1795.27897638
 31
0.0
  0
LINE
  5
281
100
AcDbEntity
  8
Sc.1_5
 62
     9
  6
CONTINUOUS
370
    -2
100
AcDbLine
 10
2841.89459196
 20
-1798.13013314
 30
0.0
 11
2842.59558675
 21
-1797.94564348
 31
0.0
  0
LINE
  5
282
100
AcDbEntity
  8
Sc.1_5
 62
     9
  6
CONTINUOUS
370
    -2
100
AcDbLine
 10
2837.27579075
 20
-1800.79680024
 30
0.0
 11
2837.97678554
 21
-1800.61231059
 31
0.0
  0
LINE
  5
283
100
AcDbEntity
  8
Sc.1_5
 62
     9
  6
CONTINUOUS
370
    -2
100
AcDbLine
 10
2832.65698954
 20
-1803.46346735
 30
0.0
 11
2833.35798433
 21
-1803.2789777
 31
0.0
  0
LINE
  5
284
100
AcDbEntity
  8
Sc.1_5
 62
     9
  6
CONTINUOUS
370
    -2
100
AcDbLine
 10
2828.03818833
 20
-1806.13013446
 30
0.0
 11
2828.73918312
 21
-1805.94564481
 31
0.0
  0
LINE
  5
285
100
AcDbEntity
  8
Sc.1_5
 62
     9
  6
CONTINUOUS
370
    -2
100
AcDbLine
 10
2823.41938712
 20
-1808.79680157
 30
0.0
 11
2824.12038191
 21
-1808.61231191
 31
0.0
  0
LINE
  5
286
100
AcDbEntity
  8
Sc.1_5
 62
     9
  6
CONTINUOUS
370
    -2
100
AcDbLine
 10
2818.80058591
 20
-1811.46346867
 30
0.0
 11
2819.5015807
 21
-1811.27897902
 31
0.0
  0
LINE
  5
287
100
AcDbEntity
  8
Sc.1_5
 62
     9
  6
CONTINUOUS
370
    -2
100
AcDbLine
 10
2880.42706994
 20
-1794.13836928
 30
0.0
 11
2879.91680121
 21
-1794.65320248
 31
0.0
  0
LINE
  5
288
100
AcDbEntity
  8
Sc.1_5
 62
     9
  6
CONTINUOUS
370
    -2
100
AcDbLine
 10
2875.80826823
 20
-1796.80503552
 30
0.0
 11
2875.29799912
 21
-1797.31986912
 31
0.0
  0
LINE
  5
289
100
AcDbEntity
  8
Sc.1_5
 62
     9
  6
CONTINUOUS
370
    -2
100
AcDbLine
 10
2871.18946652
 20
-1799.47170177
 30
0.0
 11
2870.67919703
 21
-1799.98653575
 31
0.0
  0
LINE
  5
28A
100
AcDbEntity
  8
Sc.1_5
 62
     9
  6
CONTINUOUS
370
    -2
100
AcDbLine
 10
2866.57066481
 20
-1802.13836801
 30
0.0
 11
2866.06039493
 21
-1802.65320238
 31
0.0
  0
LINE
  5
28B
100
AcDbEntity
  8
Sc.1_5
 62
     9
  6
CONTINUOUS
370
    -2
100
AcDbLine
 10
2861.95186311
 20
-1804.80503426
 30
0.0
 11
2861.44159306
 21
-1805.31986879
 31
0.0
  0
LINE
  5
28C
100
AcDbEntity
  8
Sc.1_5
 62
     9
  6
CONTINUOUS
370
    -2
100
AcDbLine
 10
2857.3330614
 20
-1807.4717005
 30
0.0
 11
2856.82279135
 21
-1807.98653504
 31
0.0
  0
LINE
  5
28D
100
AcDbEntity
  8
Sc.1_5
 62
     9
  6
CONTINUOUS
370
    -2
100
AcDbLine
 10
2852.71425969
 20
-1810.13836675
 30
0.0
 11
2852.20398964
 21
-1810.65320128
 31
0.0
  0
LINE
  5
28E
100
AcDbEntity
  8
Sc.1_5
 62
     9
  6
CONTINUOUS
370
    -2
100
AcDbLine
 10
2848.09545798
 20
-1812.80503299
 30
0.0
 11
2847.58518793
 21
-1813.31986753
 31
0.0
  0
LINE
  5
28F
100
AcDbEntity
  8
Sc.1_5
 62
     9
  6
CONTINUOUS
370
    -2
100
AcDbLine
 10
2843.47665627
 20
-1815.47169924
 30
0.0
 11
2842.96638622
 21
-1815.98653377
 31
0.0
  0
LINE
  5
290
100
AcDbEntity
  8
Sc.1_5
 62
     9
  6
CONTINUOUS
370
    -2
100
AcDbLine
 10
2838.85785456
 20
-1818.13836548
 30
0.0
 11
2838.34758451
 21
-1818.65320002
 31
0.0
  0
LINE
  5
291
100
AcDbEntity
  8
Sc.1_5
 62
     9
  6
CONTINUOUS
370
    -2
100
AcDbLine
 10
2834.23905286
 20
-1820.80503172
 30
0.0
 11
2833.72878281
 21
-1821.31986626
 31
0.0
  0
LINE
  5
292
100
AcDbEntity
  8
Sc.1_5
 62
     9
  6
CONTINUOUS
370
    -2
100
AcDbLine
 10
2829.62025115
 20
-1823.47169797
 30
0.0
 11
2829.1099811
 21
-1823.98653251
 31
0.0
  0
LINE
  5
293
100
AcDbEntity
  8
Sc.1_5
 62
     9
  6
CONTINUOUS
370
    -2
100
AcDbLine
 10
2825.00144944
 20
-1826.13836421
 30
0.0
 11
2824.90681975
 21
-1826.23384039
 31
0.0
  0
LINE
  5
294
100
AcDbEntity
  8
Sc.1_5
 62
     9
  6
CONTINUOUS
370
    -2
100
AcDbLine
 10
2828.49143598
 20
-1824.34365094
 30
0.0
 11
2827.79044664
 21
-1824.52813906
 31
0.0
  0
LINE
  5
295
100
AcDbEntity
  8
Sc.1_5
 62
     9
  6
CONTINUOUS
370
    -2
100
AcDbLine
 10
2833.11023807
 20
-1821.67698431
 30
0.0
 11
2832.4092482
 21
-1821.86147257
 31
0.0
  0
LINE
  5
296
100
AcDbEntity
  8
Sc.1_5
 62
     9
  6
CONTINUOUS
370
    -2
100
AcDbLine
 10
2837.72904016
 20
-1819.01031768
 30
0.0
 11
2837.02804977
 21
-1819.19480608
 31
0.0
  0
LINE
  5
297
100
AcDbEntity
  8
Sc.1_5
 62
     9
  6
CONTINUOUS
370
    -2
100
AcDbLine
 10
2842.34784225
 20
-1816.34365105
 30
0.0
 11
2841.64685133
 21
-1816.52813959
 31
0.0
  0
LINE
  5
298
100
AcDbEntity
  8
Sc.1_5
 62
     9
  6
CONTINUOUS
370
    -2
100
AcDbLine
 10
2846.96664434
 20
-1813.67698442
 30
0.0
 11
2846.2656529
 21
-1813.86147309
 31
0.0
  0
LINE
  5
299
100
AcDbEntity
  8
Sc.1_5
 62
     9
  6
CONTINUOUS
370
    -2
100
AcDbLine
 10
2851.58544643
 20
-1811.01031779
 30
0.0
 11
2850.88445447
 21
-1811.1948066
 31
0.0
  0
LINE
  5
29A
100
AcDbEntity
  8
Sc.1_5
 62
     9
  6
CONTINUOUS
370
    -2
100
AcDbLine
 10
2856.20424852
 20
-1808.34365116
 30
0.0
 11
2855.50325603
 21
-1808.52814011
 31
0.0
  0
LINE
  5
29B
100
AcDbEntity
  8
Sc.1_5
 62
     9
  6
CONTINUOUS
370
    -2
100
AcDbLine
 10
2860.82305061
 20
-1805.67698453
 30
0.0
 11
2860.1220576
 21
-1805.86147362
 31
0.0
  0
LINE
  5
29C
100
AcDbEntity
  8
Sc.1_5
 62
     9
  6
CONTINUOUS
370
    -2
100
AcDbLine
 10
2865.4418527
 20
-1803.0103179
 30
0.0
 11
2864.74085916
 21
-1803.19480712
 31
0.0
  0
LINE
  5
29D
100
AcDbEntity
  8
Sc.1_5
 62
     9
  6
CONTINUOUS
370
    -2
100
AcDbLine
 10
2870.0606548
 20
-1800.34365127
 30
0.0
 11
2869.35966073
 21
-1800.52814063
 31
0.0
  0
LINE
  5
29E
100
AcDbEntity
  8
Sc.1_5
 62
     9
  6
CONTINUOUS
370
    -2
100
AcDbLine
 10
2874.67945689
 20
-1797.67698464
 30
0.0
 11
2873.97846229
 21
-1797.86147414
 31
0.0
  0
LINE
  5
29F
100
AcDbEntity
  8
Sc.1_5
 62
     9
  6
CONTINUOUS
370
    -2
100
AcDbLine
 10
2879.29825867
 20
-1795.01031809
 30
0.0
 11
2878.59726386
 21
-1795.19480765
 31
0.0
  0
LINE
  5
2A0
100
AcDbEntity
  8
Sc.1_5
 62
     9
  6
CONTINUOUS
370
    -2
100
AcDbLine
 10
2873.09738945
 20
-1780.33541274
 30
0.0
 11
2872.75939291
 21
-1780.94426603
 31
0.0
  0
LINE
  5
2A1
100
AcDbEntity
  8
Sc.1_5
 62
     9
  6
CONTINUOUS
370
    -2
100
AcDbLine
 10
2868.47858689
 20
-1783.00207969
 30
0.0
 11
2868.14059035
 21
-1783.61093297
 31
0.0
  0
LINE
  5
2A2
100
AcDbEntity
  8
Sc.1_5
 62
     9
  6
CONTINUOUS
370
    -2
100
AcDbLine
 10
2863.85978433
 20
-1785.66874663
 30
0.0
 11
2863.52178779
 21
-1786.27759992
 31
0.0
  0
LINE
  5
2A3
100
AcDbEntity
  8
Sc.1_5
 62
     9
  6
CONTINUOUS
370
    -2
100
AcDbLine
 10
2859.24098177
 20
-1788.33541358
 30
0.0
 11
2858.90298523
 21
-1788.94426686
 31
0.0
  0
LINE
  5
2A4
100
AcDbEntity
  8
Sc.1_5
 62
     9
  6
CONTINUOUS
370
    -2
100
AcDbLine
 10
2854.62217921
 20
-1791.00208052
 30
0.0
 11
2854.28418266
 21
-1791.6109338
 31
0.0
  0
LINE
  5
2A5
100
AcDbEntity
  8
Sc.1_5
 62
     9
  6
CONTINUOUS
370
    -2
100
AcDbLine
 10
2850.00337664
 20
-1793.66874746
 30
0.0
 11
2849.6653801
 21
-1794.27760075
 31
0.0
  0
LINE
  5
2A6
100
AcDbEntity
  8
Sc.1_5
 62
     9
  6
CONTINUOUS
370
    -2
100
AcDbLine
 10
2845.38457408
 20
-1796.33541441
 30
0.0
 11
2845.04657754
 21
-1796.94426769
 31
0.0
  0
LINE
  5
2A7
100
AcDbEntity
  8
Sc.1_5
 62
     9
  6
CONTINUOUS
370
    -2
100
AcDbLine
 10
2840.76577152
 20
-1799.00208135
 30
0.0
 11
2840.42777498
 21
-1799.61093463
 31
0.0
  0
LINE
  5
2A8
100
AcDbEntity
  8
Sc.1_5
 62
     9
  6
CONTINUOUS
370
    -2
100
AcDbLine
 10
2836.14696896
 20
-1801.66874829
 30
0.0
 11
2835.80897242
 21
-1802.27760158
 31
0.0
  0
LINE
  5
2A9
100
AcDbEntity
  8
Sc.1_5
 62
     9
  6
CONTINUOUS
370
    -2
100
AcDbLine
 10
2831.52816639
 20
-1804.33541524
 30
0.0
 11
2831.19016985
 21
-1804.94426852
 31
0.0
  0
LINE
  5
2AA
100
AcDbEntity
  8
Sc.1_5
 62
     9
  6
CONTINUOUS
370
    -2
100
AcDbLine
 10
2826.90936383
 20
-1807.00208218
 30
0.0
 11
2826.57136729
 21
-1807.61093546
 31
0.0
  0
LINE
  5
2AB
100
AcDbEntity
  8
Sc.1_5
 62
     9
  6
CONTINUOUS
370
    -2
100
AcDbLine
 10
2822.29056127
 20
-1809.66874912
 30
0.0
 11
2821.95256473
 21
-1810.27760241
 31
0.0
  0
LINE
  5
2AC
100
AcDbEntity
  8
Sc.1_5
 62
     9
  6
CONTINUOUS
370
    -2
100
AcDbLine
 10
2817.67175871
 20
-1812.33541607
 30
0.0
 11
2817.33376217
 21
-1812.94426935
 31
0.0
  0
LINE
  5
2AD
100
AcDbEntity
  8
Sc.1_5
 62
     9
  6
CONTINUOUS
370
    -2
100
AcDbLine
 10
2870.31180871
 20
-1781.94366809
 30
0.0
 11
2871.00808939
 21
-1781.95538118
 31
0.0
  0
LINE
  5
2AE
100
AcDbEntity
  8
Sc.1_5
 62
     9
  6
CONTINUOUS
370
    -2
100
AcDbLine
 10
2865.69300593
 20
-1784.61033466
 30
0.0
 11
2866.38928662
 21
-1784.62204776
 31
0.0
  0
LINE
  5
2AF
100
AcDbEntity
  8
Sc.1_5
 62
     9
  6
CONTINUOUS
370
    -2
100
AcDbLine
 10
2861.07420316
 20
-1787.27700124
 30
0.0
 11
2861.77048384
 21
-1787.28871433
 31
0.0
  0
LINE
  5
2B0
100
AcDbEntity
  8
Sc.1_5
 62
     9
  6
CONTINUOUS
370
    -2
100
AcDbLine
 10
2856.45540038
 20
-1789.94366781
 30
0.0
 11
2857.15168106
 21
-1789.95538091
 31
0.0
  0
LINE
  5
2B1
100
AcDbEntity
  8
Sc.1_5
 62
     9
  6
CONTINUOUS
370
    -2
100
AcDbLine
 10
2851.83659761
 20
-1792.61033439
 30
0.0
 11
2852.53287829
 21
-1792.62204748
 31
0.0
  0
LINE
  5
2B2
100
AcDbEntity
  8
Sc.1_5
 62
     9
  6
CONTINUOUS
370
    -2
100
AcDbLine
 10
2847.21779483
 20
-1795.27700096
 30
0.0
 11
2847.91407551
 21
-1795.28871406
 31
0.0
  0
LINE
  5
2B3
100
AcDbEntity
  8
Sc.1_5
 62
     9
  6
CONTINUOUS
370
    -2
100
AcDbLine
 10
2842.59899206
 20
-1797.94366753
 30
0.0
 11
2843.29527274
 21
-1797.95538063
 31
0.0
  0
LINE
  5
2B4
100
AcDbEntity
  8
Sc.1_5
 62
     9
  6
CONTINUOUS
370
    -2
100
AcDbLine
 10
2837.98018928
 20
-1800.61033411
 30
0.0
 11
2838.67646996
 21
-1800.62204721
 31
0.0
  0
LINE
  5
2B5
100
AcDbEntity
  8
Sc.1_5
 62
     9
  6
CONTINUOUS
370
    -2
100
AcDbLine
 10
2833.36138651
 20
-1803.27700068
 30
0.0
 11
2834.05766719
 21
-1803.28871378
 31
0.0
  0
LINE
  5
2B6
100
AcDbEntity
  8
Sc.1_5
 62
     9
  6
CONTINUOUS
370
    -2
100
AcDbLine
 10
2828.74258373
 20
-1805.94366726
 30
0.0
 11
2829.43886441
 21
-1805.95538036
 31
0.0
  0
LINE
  5
2B7
100
AcDbEntity
  8
Sc.1_5
 62
     9
  6
CONTINUOUS
370
    -2
100
AcDbLine
 10
2824.12378096
 20
-1808.61033383
 30
0.0
 11
2824.82006164
 21
-1808.62204693
 31
0.0
  0
LINE
  5
2B8
100
AcDbEntity
  8
Sc.1_5
 62
     9
  6
CONTINUOUS
370
    -2
100
AcDbLine
 10
2819.50497818
 20
-1811.27700041
 30
0.0
 11
2820.20125886
 21
-1811.28871351
 31
0.0
  0
LINE
  5
2B9
100
AcDbEntity
  8
Sc.1_5
 62
     9
  6
CONTINUOUS
370
    -2
100
AcDbLine
 10
2880.76506487
 20
-1793.52951532
 30
0.0
 11
2880.42706833
 21
-1794.13836861
 31
0.0
  0
LINE
  5
2BA
100
AcDbEntity
  8
Sc.1_5
 62
     9
  6
CONTINUOUS
370
    -2
100
AcDbLine
 10
2876.14626231
 20
-1796.19618227
 30
0.0
 11
2875.80826577
 21
-1796.80503555
 31
0.0
  0
LINE
  5
2BB
100
AcDbEntity
  8
Sc.1_5
 62
     9
  6
CONTINUOUS
370
    -2
100
AcDbLine
 10
2871.52745975
 20
-1798.86284921
 30
0.0
 11
2871.18946321
 21
-1799.47170249
 31
0.0
  0
LINE
  5
2BC
100
AcDbEntity
  8
Sc.1_5
 62
     9
  6
CONTINUOUS
370
    -2
100
AcDbLine
 10
2866.90865719
 20
-1801.52951615
 30
0.0
 11
2866.57066064
 21
-1802.13836944
 31
0.0
  0
LINE
  5
2BD
100
AcDbEntity
  8
Sc.1_5
 62
     9
  6
CONTINUOUS
370
    -2
100
AcDbLine
 10
2862.28985462
 20
-1804.1961831
 30
0.0
 11
2861.95185808
 21
-1804.80503638
 31
0.0
  0
LINE
  5
2BE
100
AcDbEntity
  8
Sc.1_5
 62
     9
  6
CONTINUOUS
370
    -2
100
AcDbLine
 10
2857.67105206
 20
-1806.86285004
 30
0.0
 11
2857.33305552
 21
-1807.47170332
 31
0.0
  0
LINE
  5
2BF
100
AcDbEntity
  8
Sc.1_5
 62
     9
  6
CONTINUOUS
370
    -2
100
AcDbLine
 10
2853.0522495
 20
-1809.52951698
 30
0.0
 11
2852.71425296
 21
-1810.13837027
 31
0.0
  0
LINE
  5
2C0
100
AcDbEntity
  8
Sc.1_5
 62
     9
  6
CONTINUOUS
370
    -2
100
AcDbLine
 10
2848.43344694
 20
-1812.19618393
 30
0.0
 11
2848.0954504
 21
-1812.80503721
 31
0.0
  0
LINE
  5
2C1
100
AcDbEntity
  8
Sc.1_5
 62
     9
  6
CONTINUOUS
370
    -2
100
AcDbLine
 10
2843.81464437
 20
-1814.86285087
 30
0.0
 11
2843.47664783
 21
-1815.47170415
 31
0.0
  0
LINE
  5
2C2
100
AcDbEntity
  8
Sc.1_5
 62
     9
  6
CONTINUOUS
370
    -2
100
AcDbLine
 10
2839.19584181
 20
-1817.52951781
 30
0.0
 11
2838.85784527
 21
-1818.1383711
 31
0.0
  0
LINE
  5
2C3
100
AcDbEntity
  8
Sc.1_5
 62
     9
  6
CONTINUOUS
370
    -2
100
AcDbLine
 10
2834.57703925
 20
-1820.19618476
 30
0.0
 11
2834.23904271
 21
-1820.80503804
 31
0.0
  0
LINE
  5
2C4
100
AcDbEntity
  8
Sc.1_5
 62
     9
  6
CONTINUOUS
370
    -2
100
AcDbLine
 10
2829.95823669
 20
-1822.8628517
 30
0.0
 11
2829.62024015
 21
-1823.47170498
 31
0.0
  0
LINE
  5
2C5
100
AcDbEntity
  8
Sc.1_5
 62
     9
  6
CONTINUOUS
370
    -2
100
AcDbLine
 10
2825.33943413
 20
-1825.52951864
 30
0.0
 11
2825.00143758
 21
-1826.13837193
 31
0.0
  0
LINE
  5
2C6
100
AcDbEntity
  8
Sc.1_5
 62
     9
  6
CONTINUOUS
370
    -2
100
AcDbLine
 10
2827.79043495
 20
-1824.52814421
 30
0.0
 11
2827.09415427
 21
-1824.51643116
 31
0.0
  0
LINE
  5
2C7
100
AcDbEntity
  8
Sc.1_5
 62
     9
  6
CONTINUOUS
370
    -2
100
AcDbLine
 10
2832.40923755
 20
-1821.86147733
 30
0.0
 11
2831.71295687
 21
-1821.84976428
 31
0.0
  0
LINE
  5
2C8
100
AcDbEntity
  8
Sc.1_5
 62
     9
  6
CONTINUOUS
370
    -2
100
AcDbLine
 10
2837.02804015
 20
-1819.19481044
 30
0.0
 11
2836.33175947
 21
-1819.18309739
 31
0.0
  0
LINE
  5
2C9
100
AcDbEntity
  8
Sc.1_5
 62
     9
  6
CONTINUOUS
370
    -2
100
AcDbLine
 10
2841.64684275
 20
-1816.52814356
 30
0.0
 11
2840.95056206
 21
-1816.51643051
 31
0.0
  0
LINE
  5
2CA
100
AcDbEntity
  8
Sc.1_5
 62
     9
  6
CONTINUOUS
370
    -2
100
AcDbLine
 10
2846.26564534
 20
-1813.86147668
 30
0.0
 11
2845.56936466
 21
-1813.84976363
 31
0.0
  0
LINE
  5
2CB
100
AcDbEntity
  8
Sc.1_5
 62
     9
  6
CONTINUOUS
370
    -2
100
AcDbLine
 10
2850.88444794
 20
-1811.1948098
 30
0.0
 11
2850.18816726
 21
-1811.18309675
 31
0.0
  0
LINE
  5
2CC
100
AcDbEntity
  8
Sc.1_5
 62
     9
  6
CONTINUOUS
370
    -2
100
AcDbLine
 10
2855.50325054
 20
-1808.52814291
 30
0.0
 11
2854.80696986
 21
-1808.51642986
 31
0.0
  0
LINE
  5
2CD
100
AcDbEntity
  8
Sc.1_5
 62
     9
  6
CONTINUOUS
370
    -2
100
AcDbLine
 10
2860.12205314
 20
-1805.86147603
 30
0.0
 11
2859.42577245
 21
-1805.84976298
 31
0.0
  0
LINE
  5
2CE
100
AcDbEntity
  8
Sc.1_5
 62
     9
  6
CONTINUOUS
370
    -2
100
AcDbLine
 10
2864.74085573
 20
-1803.19480915
 30
0.0
 11
2864.04457505
 21
-1803.1830961
 31
0.0
  0
LINE
  5
2CF
100
AcDbEntity
  8
Sc.1_5
 62
     9
  6
CONTINUOUS
370
    -2
100
AcDbLine
 10
2869.35965833
 20
-1800.52814227
 30
0.0
 11
2868.66337765
 21
-1800.51642922
 31
0.0
  0
LINE
  5
2D0
100
AcDbEntity
  8
Sc.1_5
 62
     9
  6
CONTINUOUS
370
    -2
100
AcDbLine
 10
2873.97846093
 20
-1797.86147539
 30
0.0
 11
2873.28218025
 21
-1797.84976234
 31
0.0
  0
LINE
  5
2D1
100
AcDbEntity
  8
Sc.1_5
 62
     9
  6
CONTINUOUS
370
    -2
100
AcDbLine
 10
2878.59726353
 20
-1795.1948085
 30
0.0
 11
2877.90098285
 21
-1795.18309545
 31
0.0
  0
LINE
  5
2D2
100
AcDbEntity
  8
Sc.1_5
 62
     9
  6
CONTINUOUS
370
    -2
100
AcDbLine
 10
2872.75939416
 20
-1780.94426608
 30
0.0
 11
2872.60611987
 21
-1781.51629353
 31
0.0
  0
LINE
  5
2D3
100
AcDbEntity
  8
Sc.1_5
 62
     9
  6
CONTINUOUS
370
    -2
100
AcDbLine
 10
2868.14059116
 20
-1783.61093324
 30
0.0
 11
2867.98731687
 21
-1784.18296069
 31
0.0
  0
LINE
  5
2D4
100
AcDbEntity
  8
Sc.1_5
 62
     9
  6
CONTINUOUS
370
    -2
100
AcDbLine
 10
2863.52178816
 20
-1786.27760039
 30
0.0
 11
2863.36851387
 21
-1786.84962784
 31
0.0
  0
LINE
  5
2D5
100
AcDbEntity
  8
Sc.1_5
 62
     9
  6
CONTINUOUS
370
    -2
100
AcDbLine
 10
2858.90298516
 20
-1788.94426755
 30
0.0
 11
2858.74971087
 21
-1789.516295
 31
0.0
  0
LINE
  5
2D6
100
AcDbEntity
  8
Sc.1_5
 62
     9
  6
CONTINUOUS
370
    -2
100
AcDbLine
 10
2854.28418216
 20
-1791.6109347
 30
0.0
 11
2854.13090787
 21
-1792.18296215
 31
0.0
  0
LINE
  5
2D7
100
AcDbEntity
  8
Sc.1_5
 62
     9
  6
CONTINUOUS
370
    -2
100
AcDbLine
 10
2849.66537917
 20
-1794.27760186
 30
0.0
 11
2849.51210487
 21
-1794.84962931
 31
0.0
  0
LINE
  5
2D8
100
AcDbEntity
  8
Sc.1_5
 62
     9
  6
CONTINUOUS
370
    -2
100
AcDbLine
 10
2845.04657617
 20
-1796.94426901
 30
0.0
 11
2844.89330187
 21
-1797.51629646
 31
0.0
  0
LINE
  5
2D9
100
AcDbEntity
  8
Sc.1_5
 62
     9
  6
CONTINUOUS
370
    -2
100
AcDbLine
 10
2840.42777317
 20
-1799.61093617
 30
0.0
 11
2840.27449887
 21
-1800.18296362
 31
0.0
  0
LINE
  5
2DA
100
AcDbEntity
  8
Sc.1_5
 62
     9
  6
CONTINUOUS
370
    -2
100
AcDbLine
 10
2835.80897017
 20
-1802.27760332
 30
0.0
 11
2835.65569587
 21
-1802.84963077
 31
0.0
  0
LINE
  5
2DB
100
AcDbEntity
  8
Sc.1_5
 62
     9
  6
CONTINUOUS
370
    -2
100
AcDbLine
 10
2831.19016717
 20
-1804.94427048
 30
0.0
 11
2831.03689287
 21
-1805.51629793
 31
0.0
  0
LINE
  5
2DC
100
AcDbEntity
  8
Sc.1_5
 62
     9
  6
CONTINUOUS
370
    -2
100
AcDbLine
 10
2826.57136417
 20
-1807.61093764
 30
0.0
 11
2826.41808987
 21
-1808.18296508
 31
0.0
  0
LINE
  5
2DD
100
AcDbEntity
  8
Sc.1_5
 62
     9
  6
CONTINUOUS
370
    -2
100
AcDbLine
 10
2821.95256117
 20
-1810.27760479
 30
0.0
 11
2821.79928687
 21
-1810.84963224
 31
0.0
  0
LINE
  5
2DE
100
AcDbEntity
  8
Sc.1_5
 62
     9
  6
CONTINUOUS
370
    -2
100
AcDbLine
 10
2817.33375817
 20
-1812.94427195
 30
0.0
 11
2817.30216239
 21
-1813.06218899
 31
0.0
  0
LINE
  5
2DF
100
AcDbEntity
  8
Sc.1_5
 62
     9
  6
CONTINUOUS
370
    -2
100
AcDbLine
 10
2871.00467165
 20
-1781.9573556
 30
0.0
 11
2871.5766991
 21
-1782.11062989
 31
0.0
  0
LINE
  5
2E0
100
AcDbEntity
  8
Sc.1_5
 62
     9
  6
CONTINUOUS
370
    -2
100
AcDbLine
 10
2866.38586865
 20
-1784.62402275
 30
0.0
 11
2866.9578961
 21
-1784.77729705
 31
0.0
  0
LINE
  5
2E1
100
AcDbEntity
  8
Sc.1_5
 62
     9
  6
CONTINUOUS
370
    -2
100
AcDbLine
 10
2861.76706565
 20
-1787.29068991
 30
0.0
 11
2862.3390931
 21
-1787.4439642
 31
0.0
  0
LINE
  5
2E2
100
AcDbEntity
  8
Sc.1_5
 62
     9
  6
CONTINUOUS
370
    -2
100
AcDbLine
 10
2857.14826265
 20
-1789.95735707
 30
0.0
 11
2857.7202901
 21
-1790.11063136
 31
0.0
  0
LINE
  5
2E3
100
AcDbEntity
  8
Sc.1_5
 62
     9
  6
CONTINUOUS
370
    -2
100
AcDbLine
 10
2852.52945965
 20
-1792.62402422
 30
0.0
 11
2853.1014871
 21
-1792.77729851
 31
0.0
  0
LINE
  5
2E4
100
AcDbEntity
  8
Sc.1_5
 62
     9
  6
CONTINUOUS
370
    -2
100
AcDbLine
 10
2847.91065665
 20
-1795.29069138
 30
0.0
 11
2848.4826841
 21
-1795.44396567
 31
0.0
  0
LINE
  5
2E5
100
AcDbEntity
  8
Sc.1_5
 62
     9
  6
CONTINUOUS
370
    -2
100
AcDbLine
 10
2843.29185365
 20
-1797.95735853
 30
0.0
 11
2843.8638811
 21
-1798.11063282
 31
0.0
  0
LINE
  5
2E6
100
AcDbEntity
  8
Sc.1_5
 62
     9
  6
CONTINUOUS
370
    -2
100
AcDbLine
 10
2838.67305065
 20
-1800.62402569
 30
0.0
 11
2839.2450781
 21
-1800.77729998
 31
0.0
  0
LINE
  5
2E7
100
AcDbEntity
  8
Sc.1_5
 62
     9
  6
CONTINUOUS
370
    -2
100
AcDbLine
 10
2834.05424765
 20
-1803.29069284
 30
0.0
 11
2834.6262751
 21
-1803.44396713
 31
0.0
  0
LINE
  5
2E8
100
AcDbEntity
  8
Sc.1_5
 62
     9
  6
CONTINUOUS
370
    -2
100
AcDbLine
 10
2829.43544465
 20
-1805.95736
 30
0.0
 11
2830.0074721
 21
-1806.11063429
 31
0.0
  0
LINE
  5
2E9
100
AcDbEntity
  8
Sc.1_5
 62
     9
  6
CONTINUOUS
370
    -2
100
AcDbLine
 10
2824.81664165
 20
-1808.62402715
 30
0.0
 11
2825.3886691
 21
-1808.77730144
 31
0.0
  0
LINE
  5
2EA
100
AcDbEntity
  8
Sc.1_5
 62
     9
  6
CONTINUOUS
370
    -2
100
AcDbLine
 10
2820.19783865
 20
-1811.29069431
 30
0.0
 11
2820.7698661
 21
-1811.4439686
 31
0.0
  0
LINE
  5
2EB
100
AcDbEntity
  8
Sc.1_5
 62
     9
  6
CONTINUOUS
370
    -2
100
AcDbLine
 10
2880.91833903
 20
-1792.95748983
 30
0.0
 11
2880.76506473
 21
-1793.52951728
 31
0.0
  0
LINE
  5
2EC
100
AcDbEntity
  8
Sc.1_5
 62
     9
  6
CONTINUOUS
370
    -2
100
AcDbLine
 10
2876.29953603
 20
-1795.62415698
 30
0.0
 11
2876.14626173
 21
-1796.19618443
 31
0.0
  0
LINE
  5
2ED
100
AcDbEntity
  8
Sc.1_5
 62
     9
  6
CONTINUOUS
370
    -2
100
AcDbLine
 10
2871.68073303
 20
-1798.29082414
 30
0.0
 11
2871.52745873
 21
-1798.86285159
 31
0.0
  0
LINE
  5
2EE
100
AcDbEntity
  8
Sc.1_5
 62
     9
  6
CONTINUOUS
370
    -2
100
AcDbLine
 10
2867.06193003
 20
-1800.95749129
 30
0.0
 11
2866.90865573
 21
-1801.52951874
 31
0.0
  0
LINE
  5
2EF
100
AcDbEntity
  8
Sc.1_5
 62
     9
  6
CONTINUOUS
370
    -2
100
AcDbLine
 10
2862.44312703
 20
-1803.62415845
 30
0.0
 11
2862.28985273
 21
-1804.1961859
 31
0.0
  0
LINE
  5
2F0
100
AcDbEntity
  8
Sc.1_5
 62
     9
  6
CONTINUOUS
370
    -2
100
AcDbLine
 10
2857.82432403
 20
-1806.29082561
 30
0.0
 11
2857.67104973
 21
-1806.86285305
 31
0.0
  0
LINE
  5
2F1
100
AcDbEntity
  8
Sc.1_5
 62
     9
  6
CONTINUOUS
370
    -2
100
AcDbLine
 10
2853.20552103
 20
-1808.95749276
 30
0.0
 11
2853.05224673
 21
-1809.52952021
 31
0.0
  0
LINE
  5
2F2
100
AcDbEntity
  8
Sc.1_5
 62
     9
  6
CONTINUOUS
370
    -2
100
AcDbLine
 10
2848.58671803
 20
-1811.62415992
 30
0.0
 11
2848.43344373
 21
-1812.19618736
 31
0.0
  0
LINE
  5
2F3
100
AcDbEntity
  8
Sc.1_5
 62
     9
  6
CONTINUOUS
370
    -2
100
AcDbLine
 10
2843.96791503
 20
-1814.29082707
 30
0.0
 11
2843.81464073
 21
-1814.86285452
 31
0.0
  0
LINE
  5
2F4
100
AcDbEntity
  8
Sc.1_5
 62
     9
  6
CONTINUOUS
370
    -2
100
AcDbLine
 10
2839.34911203
 20
-1816.95749423
 30
0.0
 11
2839.19583773
 21
-1817.52952167
 31
0.0
  0
LINE
  5
2F5
100
AcDbEntity
  8
Sc.1_5
 62
     9
  6
CONTINUOUS
370
    -2
100
AcDbLine
 10
2834.73030903
 20
-1819.62416138
 30
0.0
 11
2834.57703473
 21
-1820.19618883
 31
0.0
  0
LINE
  5
2F6
100
AcDbEntity
  8
Sc.1_5
 62
     9
  6
CONTINUOUS
370
    -2
100
AcDbLine
 10
2830.11150603
 20
-1822.29082854
 30
0.0
 11
2829.95823173
 21
-1822.86285599
 31
0.0
  0
LINE
  5
2F7
100
AcDbEntity
  8
Sc.1_5
 62
     9
  6
CONTINUOUS
370
    -2
100
AcDbLine
 10
2825.49270303
 20
-1824.95749569
 30
0.0
 11
2825.33942873
 21
-1825.52952314
 31
0.0
  0
LINE
  5
2F8
100
AcDbEntity
  8
Sc.1_5
 62
     9
  6
CONTINUOUS
370
    -2
100
AcDbLine
 10
2827.0941499
 20
-1824.51643253
 30
0.0
 11
2826.52212246
 21
-1824.36315823
 31
0.0
  0
LINE
  5
2F9
100
AcDbEntity
  8
Sc.1_5
 62
     9
  6
CONTINUOUS
370
    -2
100
AcDbLine
 10
2831.7129529
 20
-1821.84976537
 30
0.0
 11
2831.14092546
 21
-1821.69649108
 31
0.0
  0
LINE
  5
2FA
100
AcDbEntity
  8
Sc.1_5
 62
     9
  6
CONTINUOUS
370
    -2
100
AcDbLine
 10
2836.3317559
 20
-1819.18309822
 30
0.0
 11
2835.75972845
 21
-1819.02982392
 31
0.0
  0
LINE
  5
2FB
100
AcDbEntity
  8
Sc.1_5
 62
     9
  6
CONTINUOUS
370
    -2
100
AcDbLine
 10
2840.9505589
 20
-1816.51643106
 30
0.0
 11
2840.37853145
 21
-1816.36315677
 31
0.0
  0
LINE
  5
2FC
100
AcDbEntity
  8
Sc.1_5
 62
     9
  6
CONTINUOUS
370
    -2
100
AcDbLine
 10
2845.5693619
 20
-1813.84976391
 30
0.0
 11
2844.99733445
 21
-1813.69648961
 31
0.0
  0
LINE
  5
2FD
100
AcDbEntity
  8
Sc.1_5
 62
     9
  6
CONTINUOUS
370
    -2
100
AcDbLine
 10
2850.1881649
 20
-1811.18309675
 30
0.0
 11
2849.61613745
 21
-1811.02982246
 31
0.0
  0
LINE
  5
2FE
100
AcDbEntity
  8
Sc.1_5
 62
     9
  6
CONTINUOUS
370
    -2
100
AcDbLine
 10
2854.8069679
 20
-1808.5164296
 30
0.0
 11
2854.23494045
 21
-1808.3631553
 31
0.0
  0
LINE
  5
2FF
100
AcDbEntity
  8
Sc.1_5
 62
     9
  6
CONTINUOUS
370
    -2
100
AcDbLine
 10
2859.4257709
 20
-1805.84976244
 30
0.0
 11
2858.85374345
 21
-1805.69648815
 31
0.0
  0
LINE
  5
300
100
AcDbEntity
  8
Sc.1_5
 62
     9
  6
CONTINUOUS
370
    -2
100
AcDbLine
 10
2864.0445739
 20
-1803.18309528
 30
0.0
 11
2863.47254645
 21
-1803.02982099
 31
0.0
  0
LINE
  5
301
100
AcDbEntity
  8
Sc.1_5
 62
     9
  6
CONTINUOUS
370
    -2
100
AcDbLine
 10
2868.6633769
 20
-1800.51642813
 30
0.0
 11
2868.09134945
 21
-1800.36315384
 31
0.0
  0
LINE
  5
302
100
AcDbEntity
  8
Sc.1_5
 62
     9
  6
CONTINUOUS
370
    -2
100
AcDbLine
 10
2873.2821799
 20
-1797.84976097
 30
0.0
 11
2872.71015245
 21
-1797.69648668
 31
0.0
  0
LINE
  5
303
100
AcDbEntity
  8
Sc.1_5
 62
     9
  6
CONTINUOUS
370
    -2
100
AcDbLine
 10
2877.9009829
 20
-1795.18309382
 30
0.0
 11
2877.32895545
 21
-1795.02981953
 31
0.0
  0
LINE
  5
304
100
AcDbEntity
  8
Sc.1_5
 62
     9
  6
CONTINUOUS
370
    -2
100
AcDbLine
 10
2872.60611889
 20
-1781.51629278
 30
0.0
 11
2872.56614104
 21
-1782.1361714
 31
0.0
  0
LINE
  5
305
100
AcDbEntity
  8
Sc.1_5
 62
     9
  6
CONTINUOUS
370
    -2
100
AcDbLine
 10
2867.98731673
 20
-1784.18296014
 30
0.0
 11
2867.94733889
 21
-1784.80283876
 31
0.0
  0
LINE
  5
306
100
AcDbEntity
  8
Sc.1_5
 62
     9
  6
CONTINUOUS
370
    -2
100
AcDbLine
 10
2863.36851458
 20
-1786.8496275
 30
0.0
 11
2863.32853674
 21
-1787.46950612
 31
0.0
  0
LINE
  5
307
100
AcDbEntity
  8
Sc.1_5
 62
     9
  6
CONTINUOUS
370
    -2
100
AcDbLine
 10
2858.74971243
 20
-1789.51629487
 30
0.0
 11
2858.70973458
 21
-1790.13617349
 31
0.0
  0
LINE
  5
308
100
AcDbEntity
  8
Sc.1_5
 62
     9
  6
CONTINUOUS
370
    -2
100
AcDbLine
 10
2854.13091027
 20
-1792.18296223
 30
0.0
 11
2854.09093243
 21
-1792.80284085
 31
0.0
  0
LINE
  5
309
100
AcDbEntity
  8
Sc.1_5
 62
     9
  6
CONTINUOUS
370
    -2
100
AcDbLine
 10
2849.51210812
 20
-1794.84962959
 30
0.0
 11
2849.47213028
 21
-1795.46950822
 31
0.0
  0
LINE
  5
30A
100
AcDbEntity
  8
Sc.1_5
 62
     9
  6
CONTINUOUS
370
    -2
100
AcDbLine
 10
2844.89330597
 20
-1797.51629696
 30
0.0
 11
2844.85332812
 21
-1798.13617558
 31
0.0
  0
LINE
  5
30B
100
AcDbEntity
  8
Sc.1_5
 62
     9
  6
CONTINUOUS
370
    -2
100
AcDbLine
 10
2840.27450381
 20
-1800.18296432
 30
0.0
 11
2840.23452597
 21
-1800.80284294
 31
0.0
  0
LINE
  5
30C
100
AcDbEntity
  8
Sc.1_5
 62
     9
  6
CONTINUOUS
370
    -2
100
AcDbLine
 10
2835.65570166
 20
-1802.84963169
 30
0.0
 11
2835.61572382
 21
-1803.46951031
 31
0.0
  0
LINE
  5
30D
100
AcDbEntity
  8
Sc.1_5
 62
     9
  6
CONTINUOUS
370
    -2
100
AcDbLine
 10
2831.03689951
 20
-1805.51629905
 30
0.0
 11
2830.99692166
 21
-1806.13617767
 31
0.0
  0
LINE
  5
30E
100
AcDbEntity
  8
Sc.1_5
 62
     9
  6
CONTINUOUS
370
    -2
100
AcDbLine
 10
2826.41809735
 20
-1808.18296641
 30
0.0
 11
2826.37811951
 21
-1808.80284503
 31
0.0
  0
LINE
  5
30F
100
AcDbEntity
  8
Sc.1_5
 62
     9
  6
CONTINUOUS
370
    -2
100
AcDbLine
 10
2821.7992952
 20
-1810.84963378
 30
0.0
 11
2821.75931736
 21
-1811.4695124
 31
0.0
  0
LINE
  5
310
100
AcDbEntity
  8
Sc.1_5
 62
     9
  6
CONTINUOUS
370
    -2
100
AcDbLine
 10
2871.576699
 20
-1782.11062752
 30
0.0
 11
2872.13351854
 21
-1782.38594504
 31
0.0
  0
LINE
  5
311
100
AcDbEntity
  8
Sc.1_5
 62
     9
  6
CONTINUOUS
370
    -2
100
AcDbLine
 10
2866.95789606
 20
-1784.77729353
 30
0.0
 11
2867.5147156
 21
-1785.05261105
 31
0.0
  0
LINE
  5
312
100
AcDbEntity
  8
Sc.1_5
 62
     9
  6
CONTINUOUS
370
    -2
100
AcDbLine
 10
2862.33909313
 20
-1787.44395954
 30
0.0
 11
2862.89591267
 21
-1787.71927706
 31
0.0
  0
LINE
  5
313
100
AcDbEntity
  8
Sc.1_5
 62
     9
  6
CONTINUOUS
370
    -2
100
AcDbLine
 10
2857.7202902
 20
-1790.11062555
 30
0.0
 11
2858.27710973
 21
-1790.38594307
 31
0.0
  0
LINE
  5
314
100
AcDbEntity
  8
Sc.1_5
 62
     9
  6
CONTINUOUS
370
    -2
100
AcDbLine
 10
2853.10148726
 20
-1792.77729156
 30
0.0
 11
2853.6583068
 21
-1793.05260908
 31
0.0
  0
LINE
  5
315
100
AcDbEntity
  8
Sc.1_5
 62
     9
  6
CONTINUOUS
370
    -2
100
AcDbLine
 10
2848.48268433
 20
-1795.44395757
 30
0.0
 11
2849.03950386
 21
-1795.71927509
 31
0.0
  0
LINE
  5
316
100
AcDbEntity
  8
Sc.1_5
 62
     9
  6
CONTINUOUS
370
    -2
100
AcDbLine
 10
2843.86388139
 20
-1798.11062358
 30
0.0
 11
2844.42070093
 21
-1798.3859411
 31
0.0
  0
LINE
  5
317
100
AcDbEntity
  8
Sc.1_5
 62
     9
  6
CONTINUOUS
370
    -2
100
AcDbLine
 10
2839.24507846
 20
-1800.77728959
 30
0.0
 11
2839.80189799
 21
-1801.05260711
 31
0.0
  0
LINE
  5
318
100
AcDbEntity
  8
Sc.1_5
 62
     9
  6
CONTINUOUS
370
    -2
100
AcDbLine
 10
2834.62627552
 20
-1803.4439556
 30
0.0
 11
2835.18309506
 21
-1803.71927312
 31
0.0
  0
LINE
  5
319
100
AcDbEntity
  8
Sc.1_5
 62
     9
  6
CONTINUOUS
370
    -2
100
AcDbLine
 10
2830.00747259
 20
-1806.11062161
 30
0.0
 11
2830.56429212
 21
-1806.38593913
 31
0.0
  0
LINE
  5
31A
100
AcDbEntity
  8
Sc.1_5
 62
     9
  6
CONTINUOUS
370
    -2
100
AcDbLine
 10
2825.38866965
 20
-1808.77728762
 30
0.0
 11
2825.94548919
 21
-1809.05260514
 31
0.0
  0
LINE
  5
31B
100
AcDbEntity
  8
Sc.1_5
 62
     9
  6
CONTINUOUS
370
    -2
100
AcDbLine
 10
2820.76986672
 20
-1811.44395363
 30
0.0
 11
2821.32668625
 21
-1811.71927115
 31
0.0
  0
LINE
  5
31C
100
AcDbEntity
  8
Sc.1_5
 62
     9
  6
CONTINUOUS
370
    -2
100
AcDbLine
 10
2880.95831678
 20
-1792.33761017
 30
0.0
 11
2880.91833894
 21
-1792.95748879
 31
0.0
  0
LINE
  5
31D
100
AcDbEntity
  8
Sc.1_5
 62
     9
  6
CONTINUOUS
370
    -2
100
AcDbLine
 10
2876.33951463
 20
-1795.00427753
 30
0.0
 11
2876.29953678
 21
-1795.62415615
 31
0.0
  0
LINE
  5
31E
100
AcDbEntity
  8
Sc.1_5
 62
     9
  6
CONTINUOUS
370
    -2
100
AcDbLine
 10
2871.72071247
 20
-1797.67094489
 30
0.0
 11
2871.68073463
 21
-1798.29082351
 31
0.0
  0
LINE
  5
31F
100
AcDbEntity
  8
Sc.1_5
 62
     9
  6
CONTINUOUS
370
    -2
100
AcDbLine
 10
2867.10191032
 20
-1800.33761226
 30
0.0
 11
2867.06193248
 21
-1800.95749088
 31
0.0
  0
LINE
  5
320
100
AcDbEntity
  8
Sc.1_5
 62
     9
  6
CONTINUOUS
370
    -2
100
AcDbLine
 10
2862.48310816
 20
-1803.00427962
 30
0.0
 11
2862.44313032
 21
-1803.62415824
 31
0.0
  0
LINE
  5
321
100
AcDbEntity
  8
Sc.1_5
 62
     9
  6
CONTINUOUS
370
    -2
100
AcDbLine
 10
2857.86430601
 20
-1805.67094698
 30
0.0
 11
2857.82432817
 21
-1806.29082561
 31
0.0
  0
LINE
  5
322
100
AcDbEntity
  8
Sc.1_5
 62
     9
  6
CONTINUOUS
370
    -2
100
AcDbLine
 10
2853.24550386
 20
-1808.33761435
 30
0.0
 11
2853.20552601
 21
-1808.95749297
 31
0.0
  0
LINE
  5
323
100
AcDbEntity
  8
Sc.1_5
 62
     9
  6
CONTINUOUS
370
    -2
100
AcDbLine
 10
2848.6267017
 20
-1811.00428171
 30
0.0
 11
2848.58672386
 21
-1811.62416033
 31
0.0
  0
LINE
  5
324
100
AcDbEntity
  8
Sc.1_5
 62
     9
  6
CONTINUOUS
370
    -2
100
AcDbLine
 10
2844.00789955
 20
-1813.67094908
 30
0.0
 11
2843.96792171
 21
-1814.2908277
 31
0.0
  0
LINE
  5
325
100
AcDbEntity
  8
Sc.1_5
 62
     9
  6
CONTINUOUS
370
    -2
100
AcDbLine
 10
2839.3890974
 20
-1816.33761644
 30
0.0
 11
2839.34911955
 21
-1816.95749506
 31
0.0
  0
LINE
  5
326
100
AcDbEntity
  8
Sc.1_5
 62
     9
  6
CONTINUOUS
370
    -2
100
AcDbLine
 10
2834.77029524
 20
-1819.0042838
 30
0.0
 11
2834.7303174
 21
-1819.62416242
 31
0.0
  0
LINE
  5
327
100
AcDbEntity
  8
Sc.1_5
 62
     9
  6
CONTINUOUS
370
    -2
100
AcDbLine
 10
2830.15149309
 20
-1821.67095117
 30
0.0
 11
2830.11151525
 21
-1822.29082979
 31
0.0
  0
LINE
  5
328
100
AcDbEntity
  8
Sc.1_5
 62
     9
  6
CONTINUOUS
370
    -2
100
AcDbLine
 10
2825.53269094
 20
-1824.33761853
 30
0.0
 11
2825.49271309
 21
-1824.95749715
 31
0.0
  0
LINE
  5
329
100
AcDbEntity
  8
Sc.1_5
 62
     9
  6
CONTINUOUS
370
    -2
100
AcDbLine
 10
2826.52212569
 20
-1824.36315057
 30
0.0
 11
2825.96530613
 21
-1824.08783309
 31
0.0
  0
LINE
  5
32A
100
AcDbEntity
  8
Sc.1_5
 62
     9
  6
CONTINUOUS
370
    -2
100
AcDbLine
 10
2831.14092845
 20
-1821.69648425
 30
0.0
 11
2830.58410889
 21
-1821.42116677
 31
0.0
  0
LINE
  5
32B
100
AcDbEntity
  8
Sc.1_5
 62
     9
  6
CONTINUOUS
370
    -2
100
AcDbLine
 10
2835.7597312
 20
-1819.02981794
 30
0.0
 11
2835.20291165
 21
-1818.75450045
 31
0.0
  0
LINE
  5
32C
100
AcDbEntity
  8
Sc.1_5
 62
     9
  6
CONTINUOUS
370
    -2
100
AcDbLine
 10
2840.37853396
 20
-1816.36315162
 30
0.0
 11
2839.82171441
 21
-1816.08783414
 31
0.0
  0
LINE
  5
32D
100
AcDbEntity
  8
Sc.1_5
 62
     9
  6
CONTINUOUS
370
    -2
100
AcDbLine
 10
2844.99733672
 20
-1813.6964853
 30
0.0
 11
2844.44051716
 21
-1813.42116782
 31
0.0
  0
LINE
  5
32E
100
AcDbEntity
  8
Sc.1_5
 62
     9
  6
CONTINUOUS
370
    -2
100
AcDbLine
 10
2849.61613948
 20
-1811.02981898
 30
0.0
 11
2849.05931992
 21
-1810.7545015
 31
0.0
  0
LINE
  5
32F
100
AcDbEntity
  8
Sc.1_5
 62
     9
  6
CONTINUOUS
370
    -2
100
AcDbLine
 10
2854.23494223
 20
-1808.36315266
 30
0.0
 11
2853.67812268
 21
-1808.08783518
 31
0.0
  0
LINE
  5
330
100
AcDbEntity
  8
Sc.1_5
 62
     9
  6
CONTINUOUS
370
    -2
100
AcDbLine
 10
2858.85374499
 20
-1805.69648635
 30
0.0
 11
2858.29692544
 21
-1805.42116886
 31
0.0
  0
LINE
  5
331
100
AcDbEntity
  8
Sc.1_5
 62
     9
  6
CONTINUOUS
370
    -2
100
AcDbLine
 10
2863.47254775
 20
-1803.02982003
 30
0.0
 11
2862.91572819
 21
-1802.75450254
 31
0.0
  0
LINE
  5
332
100
AcDbEntity
  8
Sc.1_5
 62
     9
  6
CONTINUOUS
370
    -2
100
AcDbLine
 10
2868.0913505
 20
-1800.36315371
 30
0.0
 11
2867.53453095
 21
-1800.08783623
 31
0.0
  0
LINE
  5
333
100
AcDbEntity
  8
Sc.1_5
 62
     9
  6
CONTINUOUS
370
    -2
100
AcDbLine
 10
2872.71015326
 20
-1797.69648739
 30
0.0
 11
2872.15333371
 21
-1797.42116991
 31
0.0
  0
LINE
  5
334
100
AcDbEntity
  8
Sc.1_5
 62
     9
  6
CONTINUOUS
370
    -2
100
AcDbLine
 10
2877.32895602
 20
-1795.02982107
 30
0.0
 11
2876.77213646
 21
-1794.75450359
 31
0.0
  0
LINE
  5
335
100
AcDbEntity
  8
Sc.1_5
 62
     9
  6
CONTINUOUS
370
    -2
100
AcDbLine
 10
2872.56614061
 20
-1782.13617153
 30
0.0
 11
2872.7244912
 21
-1782.90999168
 31
0.0
  0
LINE
  5
336
100
AcDbEntity
  8
Sc.1_5
 62
     9
  6
CONTINUOUS
370
    -2
100
AcDbLine
 10
2867.94733796
 20
-1784.80283879
 30
0.0
 11
2868.10568855
 21
-1785.57665894
 31
0.0
  0
LINE
  5
337
100
AcDbEntity
  8
Sc.1_5
 62
     9
  6
CONTINUOUS
370
    -2
100
AcDbLine
 10
2863.32853531
 20
-1787.46950605
 30
0.0
 11
2863.4868859
 21
-1788.2433262
 31
0.0
  0
LINE
  5
338
100
AcDbEntity
  8
Sc.1_5
 62
     9
  6
CONTINUOUS
370
    -2
100
AcDbLine
 10
2858.70973266
 20
-1790.13617332
 30
0.0
 11
2858.86808325
 21
-1790.90999346
 31
0.0
  0
LINE
  5
339
100
AcDbEntity
  8
Sc.1_5
 62
     9
  6
CONTINUOUS
370
    -2
100
AcDbLine
 10
2854.09093001
 20
-1792.80284058
 30
0.0
 11
2854.2492806
 21
-1793.57666072
 31
0.0
  0
LINE
  5
33A
100
AcDbEntity
  8
Sc.1_5
 62
     9
  6
CONTINUOUS
370
    -2
100
AcDbLine
 10
2849.47212736
 20
-1795.46950784
 30
0.0
 11
2849.63047795
 21
-1796.24332799
 31
0.0
  0
LINE
  5
33B
100
AcDbEntity
  8
Sc.1_5
 62
     9
  6
CONTINUOUS
370
    -2
100
AcDbLine
 10
2844.85332471
 20
-1798.1361751
 30
0.0
 11
2845.0116753
 21
-1798.90999525
 31
0.0
  0
LINE
  5
33C
100
AcDbEntity
  8
Sc.1_5
 62
     9
  6
CONTINUOUS
370
    -2
100
AcDbLine
 10
2840.23452206
 20
-1800.80284236
 30
0.0
 11
2840.39287265
 21
-1801.57666251
 31
0.0
  0
LINE
  5
33D
100
AcDbEntity
  8
Sc.1_5
 62
     9
  6
CONTINUOUS
370
    -2
100
AcDbLine
 10
2835.61571941
 20
-1803.46950962
 30
0.0
 11
2835.77407
 21
-1804.24332977
 31
0.0
  0
LINE
  5
33E
100
AcDbEntity
  8
Sc.1_5
 62
     9
  6
CONTINUOUS
370
    -2
100
AcDbLine
 10
2830.99691676
 20
-1806.13617689
 30
0.0
 11
2831.15526735
 21
-1806.90999703
 31
0.0
  0
LINE
  5
33F
100
AcDbEntity
  8
Sc.1_5
 62
     9
  6
CONTINUOUS
370
    -2
100
AcDbLine
 10
2826.37811411
 20
-1808.80284415
 30
0.0
 11
2826.5364647
 21
-1809.57666429
 31
0.0
  0
LINE
  5
340
100
AcDbEntity
  8
Sc.1_5
 62
     9
  6
CONTINUOUS
370
    -2
100
AcDbLine
 10
2821.75931146
 20
-1811.46951141
 30
0.0
 11
2821.91766205
 21
-1812.24333156
 31
0.0
  0
LINE
  5
341
100
AcDbEntity
  8
Sc.1_5
 62
     9
  6
CONTINUOUS
370
    -2
100
AcDbLine
 10
2872.13351891
 20
-1782.38594548
 30
0.0
 11
2872.72449152
 21
-1782.90999118
 31
0.0
  0
LINE
  5
342
100
AcDbEntity
  8
Sc.1_5
 62
     9
  6
CONTINUOUS
370
    -2
100
AcDbLine
 10
2867.51471599
 20
-1785.05261228
 30
0.0
 11
2868.1056886
 21
-1785.57665798
 31
0.0
  0
LINE
  5
343
100
AcDbEntity
  8
Sc.1_5
 62
     9
  6
CONTINUOUS
370
    -2
100
AcDbLine
 10
2862.89591307
 20
-1787.71927908
 30
0.0
 11
2863.48688568
 21
-1788.24332478
 31
0.0
  0
LINE
  5
344
100
AcDbEntity
  8
Sc.1_5
 62
     9
  6
CONTINUOUS
370
    -2
100
AcDbLine
 10
2858.27711015
 20
-1790.38594587
 30
0.0
 11
2858.86808277
 21
-1790.90999158
 31
0.0
  0
LINE
  5
345
100
AcDbEntity
  8
Sc.1_5
 62
     9
  6
CONTINUOUS
370
    -2
100
AcDbLine
 10
2853.65830724
 20
-1793.05261267
 30
0.0
 11
2854.24927985
 21
-1793.57665838
 31
0.0
  0
LINE
  5
346
100
AcDbEntity
  8
Sc.1_5
 62
     9
  6
CONTINUOUS
370
    -2
100
AcDbLine
 10
2849.03950432
 20
-1795.71927947
 30
0.0
 11
2849.63047693
 21
-1796.24332518
 31
0.0
  0
LINE
  5
347
100
AcDbEntity
  8
Sc.1_5
 62
     9
  6
CONTINUOUS
370
    -2
100
AcDbLine
 10
2844.4207014
 20
-1798.38594627
 30
0.0
 11
2845.01167401
 21
-1798.90999197
 31
0.0
  0
LINE
  5
348
100
AcDbEntity
  8
Sc.1_5
 62
     9
  6
CONTINUOUS
370
    -2
100
AcDbLine
 10
2839.80189849
 20
-1801.05261307
 30
0.0
 11
2840.3928711
 21
-1801.57665877
 31
0.0
  0
LINE
  5
349
100
AcDbEntity
  8
Sc.1_5
 62
     9
  6
CONTINUOUS
370
    -2
100
AcDbLine
 10
2835.18309557
 20
-1803.71927987
 30
0.0
 11
2835.77406818
 21
-1804.24332557
 31
0.0
  0
LINE
  5
34A
100
AcDbEntity
  8
Sc.1_5
 62
     9
  6
CONTINUOUS
370
    -2
100
AcDbLine
 10
2830.56429265
 20
-1806.38594667
 30
0.0
 11
2831.15526526
 21
-1806.90999237
 31
0.0
  0
LINE
  5
34B
100
AcDbEntity
  8
Sc.1_5
 62
     9
  6
CONTINUOUS
370
    -2
100
AcDbLine
 10
2825.94548974
 20
-1809.05261347
 30
0.0
 11
2826.53646235
 21
-1809.57665917
 31
0.0
  0
LINE
  5
34C
100
AcDbEntity
  8
Sc.1_5
 62
     9
  6
CONTINUOUS
370
    -2
100
AcDbLine
 10
2821.32668682
 20
-1811.71928026
 30
0.0
 11
2821.91765943
 21
-1812.24332597
 31
0.0
  0
LINE
  5
34D
100
AcDbEntity
  8
Sc.1_5
 62
     9
  6
CONTINUOUS
370
    -2
100
AcDbLine
 10
2880.7999665
 20
-1791.56379062
 30
0.0
 11
2880.95831709
 21
-1792.33761077
 31
0.0
  0
LINE
  5
34E
100
AcDbEntity
  8
Sc.1_5
 62
     9
  6
CONTINUOUS
370
    -2
100
AcDbLine
 10
2876.18116385
 20
-1794.23045788
 30
0.0
 11
2876.33951444
 21
-1795.00427803
 31
0.0
  0
LINE
  5
34F
100
AcDbEntity
  8
Sc.1_5
 62
     9
  6
CONTINUOUS
370
    -2
100
AcDbLine
 10
2871.56236121
 20
-1796.89712514
 30
0.0
 11
2871.72071179
 21
-1797.67094529
 31
0.0
  0
LINE
  5
350
100
AcDbEntity
  8
Sc.1_5
 62
     9
  6
CONTINUOUS
370
    -2
100
AcDbLine
 10
2866.94355856
 20
-1799.56379241
 30
0.0
 11
2867.10190914
 21
-1800.33761255
 31
0.0
  0
LINE
  5
351
100
AcDbEntity
  8
Sc.1_5
 62
     9
  6
CONTINUOUS
370
    -2
100
AcDbLine
 10
2862.32475591
 20
-1802.23045967
 30
0.0
 11
2862.48310649
 21
-1803.00427981
 31
0.0
  0
LINE
  5
352
100
AcDbEntity
  8
Sc.1_5
 62
     9
  6
CONTINUOUS
370
    -2
100
AcDbLine
 10
2857.70595326
 20
-1804.89712693
 30
0.0
 11
2857.86430384
 21
-1805.67094708
 31
0.0
  0
LINE
  5
353
100
AcDbEntity
  8
Sc.1_5
 62
     9
  6
CONTINUOUS
370
    -2
100
AcDbLine
 10
2853.08715061
 20
-1807.56379419
 30
0.0
 11
2853.24550119
 21
-1808.33761434
 31
0.0
  0
LINE
  5
354
100
AcDbEntity
  8
Sc.1_5
 62
     9
  6
CONTINUOUS
370
    -2
100
AcDbLine
 10
2848.46834796
 20
-1810.23046145
 30
0.0
 11
2848.62669854
 21
-1811.0042816
 31
0.0
  0
LINE
  5
355
100
AcDbEntity
  8
Sc.1_5
 62
     9
  6
CONTINUOUS
370
    -2
100
AcDbLine
 10
2843.84954531
 20
-1812.89712872
 30
0.0
 11
2844.00789589
 21
-1813.67094886
 31
0.0
  0
LINE
  5
356
100
AcDbEntity
  8
Sc.1_5
 62
     9
  6
CONTINUOUS
370
    -2
100
AcDbLine
 10
2839.23074266
 20
-1815.56379598
 30
0.0
 11
2839.38909324
 21
-1816.33761612
 31
0.0
  0
LINE
  5
357
100
AcDbEntity
  8
Sc.1_5
 62
     9
  6
CONTINUOUS
370
    -2
100
AcDbLine
 10
2834.61194001
 20
-1818.23046324
 30
0.0
 11
2834.7702906
 21
-1819.00428338
 31
0.0
  0
LINE
  5
358
100
AcDbEntity
  8
Sc.1_5
 62
     9
  6
CONTINUOUS
370
    -2
100
AcDbLine
 10
2829.99313736
 20
-1820.8971305
 30
0.0
 11
2830.15148795
 21
-1821.67095065
 31
0.0
  0
LINE
  5
359
100
AcDbEntity
  8
Sc.1_5
 62
     9
  6
CONTINUOUS
370
    -2
100
AcDbLine
 10
2825.37433471
 20
-1823.56379776
 30
0.0
 11
2825.5326853
 21
-1824.33761791
 31
0.0
  0
LINE
  5
35A
100
AcDbEntity
  8
Sc.1_5
 62
     9
  6
CONTINUOUS
370
    -2
100
AcDbLine
 10
2825.96530501
 20
-1824.08783692
 30
0.0
 11
2825.3743324
 21
-1823.56379122
 31
0.0
  0
LINE
  5
35B
100
AcDbEntity
  8
Sc.1_5
 62
     9
  6
CONTINUOUS
370
    -2
100
AcDbLine
 10
2830.58410792
 20
-1821.42117012
 30
0.0
 11
2829.99313531
 21
-1820.89712442
 31
0.0
  0
LINE
  5
35C
100
AcDbEntity
  8
Sc.1_5
 62
     9
  6
CONTINUOUS
370
    -2
100
AcDbLine
 10
2835.20291084
 20
-1818.75450332
 30
0.0
 11
2834.61193823
 21
-1818.23045762
 31
0.0
  0
LINE
  5
35D
100
AcDbEntity
  8
Sc.1_5
 62
     9
  6
CONTINUOUS
370
    -2
100
AcDbLine
 10
2839.82171376
 20
-1816.08783652
 30
0.0
 11
2839.23074115
 21
-1815.56379082
 31
0.0
  0
LINE
  5
35E
100
AcDbEntity
  8
Sc.1_5
 62
     9
  6
CONTINUOUS
370
    -2
100
AcDbLine
 10
2844.44051667
 20
-1813.42116972
 30
0.0
 11
2843.84954406
 21
-1812.89712402
 31
0.0
  0
LINE
  5
35F
100
AcDbEntity
  8
Sc.1_5
 62
     9
  6
CONTINUOUS
370
    -2
100
AcDbLine
 10
2849.05931959
 20
-1810.75450293
 30
0.0
 11
2848.46834698
 21
-1810.23045722
 31
0.0
  0
LINE
  5
360
100
AcDbEntity
  8
Sc.1_5
 62
     9
  6
CONTINUOUS
370
    -2
100
AcDbLine
 10
2853.67812251
 20
-1808.08783613
 30
0.0
 11
2853.0871499
 21
-1807.56379042
 31
0.0
  0
LINE
  5
361
100
AcDbEntity
  8
Sc.1_5
 62
     9
  6
CONTINUOUS
370
    -2
100
AcDbLine
 10
2858.29692542
 20
-1805.42116933
 30
0.0
 11
2857.70595281
 21
-1804.89712362
 31
0.0
  0
LINE
  5
362
100
AcDbEntity
  8
Sc.1_5
 62
     9
  6
CONTINUOUS
370
    -2
100
AcDbLine
 10
2862.91572834
 20
-1802.75450253
 30
0.0
 11
2862.32475573
 21
-1802.23045683
 31
0.0
  0
LINE
  5
363
100
AcDbEntity
  8
Sc.1_5
 62
     9
  6
CONTINUOUS
370
    -2
100
AcDbLine
 10
2867.53453126
 20
-1800.08783573
 30
0.0
 11
2866.94355865
 21
-1799.56379003
 31
0.0
  0
LINE
  5
364
100
AcDbEntity
  8
Sc.1_5
 62
     9
  6
CONTINUOUS
370
    -2
100
AcDbLine
 10
2872.15333418
 20
-1797.42116893
 30
0.0
 11
2871.56236156
 21
-1796.89712323
 31
0.0
  0
LINE
  5
365
100
AcDbEntity
  8
Sc.1_5
 62
     9
  6
CONTINUOUS
370
    -2
100
AcDbLine
 10
2876.77213709
 20
-1794.75450213
 30
0.0
 11
2876.18116448
 21
-1794.23045643
 31
0.0
  0
LINE
  5
366
100
AcDbEntity
  8
Sc.1_5
 62
     9
  6
CONTINUOUS
370
    -2
100
AcDbLine
 10
2872.94086397
 20
-1783.28476057
 30
0.0
 11
2873.17183541
 21
-1783.81193273
 31
0.0
  0
LINE
  5
367
100
AcDbEntity
  8
Sc.1_5
 62
     9
  6
CONTINUOUS
370
    -2
100
AcDbLine
 10
2868.32206526
 20
-1785.95143278
 30
0.0
 11
2868.55303671
 21
-1786.47860493
 31
0.0
  0
LINE
  5
368
100
AcDbEntity
  8
Sc.1_5
 62
     9
  6
CONTINUOUS
370
    -2
100
AcDbLine
 10
2863.70326656
 20
-1788.61810498
 30
0.0
 11
2863.934238
 21
-1789.14527713
 31
0.0
  0
LINE
  5
369
100
AcDbEntity
  8
Sc.1_5
 62
     9
  6
CONTINUOUS
370
    -2
100
AcDbLine
 10
2859.08446786
 20
-1791.28477718
 30
0.0
 11
2859.3154393
 21
-1791.81194933
 31
0.0
  0
LINE
  5
36A
100
AcDbEntity
  8
Sc.1_5
 62
     9
  6
CONTINUOUS
370
    -2
100
AcDbLine
 10
2854.46566915
 20
-1793.95144938
 30
0.0
 11
2854.69664059
 21
-1794.47862153
 31
0.0
  0
LINE
  5
36B
100
AcDbEntity
  8
Sc.1_5
 62
     9
  6
CONTINUOUS
370
    -2
100
AcDbLine
 10
2849.84687045
 20
-1796.61812158
 30
0.0
 11
2850.07784189
 21
-1797.14529374
 31
0.0
  0
LINE
  5
36C
100
AcDbEntity
  8
Sc.1_5
 62
     9
  6
CONTINUOUS
370
    -2
100
AcDbLine
 10
2845.22807174
 20
-1799.28479378
 30
0.0
 11
2845.45904318
 21
-1799.81196594
 31
0.0
  0
LINE
  5
36D
100
AcDbEntity
  8
Sc.1_5
 62
     9
  6
CONTINUOUS
370
    -2
100
AcDbLine
 10
2840.60927304
 20
-1801.95146598
 30
0.0
 11
2840.84024448
 21
-1802.47863814
 31
0.0
  0
LINE
  5
36E
100
AcDbEntity
  8
Sc.1_5
 62
     9
  6
CONTINUOUS
370
    -2
100
AcDbLine
 10
2835.99047433
 20
-1804.61813818
 30
0.0
 11
2836.22144578
 21
-1805.14531034
 31
0.0
  0
LINE
  5
36F
100
AcDbEntity
  8
Sc.1_5
 62
     9
  6
CONTINUOUS
370
    -2
100
AcDbLine
 10
2831.37167563
 20
-1807.28481039
 30
0.0
 11
2831.60264707
 21
-1807.81198254
 31
0.0
  0
LINE
  5
370
100
AcDbEntity
  8
Sc.1_5
 62
     9
  6
CONTINUOUS
370
    -2
100
AcDbLine
 10
2826.75287693
 20
-1809.95148259
 30
0.0
 11
2826.98384837
 21
-1810.47865474
 31
0.0
  0
LINE
  5
371
100
AcDbEntity
  8
Sc.1_5
 62
     9
  6
CONTINUOUS
370
    -2
100
AcDbLine
 10
2822.13407822
 20
-1812.61815479
 30
0.0
 11
2822.36504966
 21
-1813.14532694
 31
0.0
  0
LINE
  5
372
100
AcDbEntity
  8
Sc.1_5
 62
     9
  6
CONTINUOUS
370
    -2
100
AcDbLine
 10
2872.94086221
 20
-1783.28475406
 30
0.0
 11
2873.28192097
 21
-1783.74836728
 31
0.0
  0
LINE
  5
373
100
AcDbEntity
  8
Sc.1_5
 62
     9
  6
CONTINUOUS
370
    -2
100
AcDbLine
 10
2868.32205699
 20
-1785.95141497
 30
0.0
 11
2868.66311575
 21
-1786.41502819
 31
0.0
  0
LINE
  5
374
100
AcDbEntity
  8
Sc.1_5
 62
     9
  6
CONTINUOUS
370
    -2
100
AcDbLine
 10
2863.70325177
 20
-1788.61807589
 30
0.0
 11
2864.04431053
 21
-1789.0816891
 31
0.0
  0
LINE
  5
375
100
AcDbEntity
  8
Sc.1_5
 62
     9
  6
CONTINUOUS
370
    -2
100
AcDbLine
 10
2859.08444655
 20
-1791.2847368
 30
0.0
 11
2859.4255053
 21
-1791.74835001
 31
0.0
  0
LINE
  5
376
100
AcDbEntity
  8
Sc.1_5
 62
     9
  6
CONTINUOUS
370
    -2
100
AcDbLine
 10
2854.46564132
 20
-1793.95139771
 30
0.0
 11
2854.80670008
 21
-1794.41501093
 31
0.0
  0
LINE
  5
377
100
AcDbEntity
  8
Sc.1_5
 62
     9
  6
CONTINUOUS
370
    -2
100
AcDbLine
 10
2849.8468361
 20
-1796.61805862
 30
0.0
 11
2850.18789486
 21
-1797.08167184
 31
0.0
  0
LINE
  5
378
100
AcDbEntity
  8
Sc.1_5
 62
     9
  6
CONTINUOUS
370
    -2
100
AcDbLine
 10
2845.22803088
 20
-1799.28471954
 30
0.0
 11
2845.56908964
 21
-1799.74833275
 31
0.0
  0
LINE
  5
379
100
AcDbEntity
  8
Sc.1_5
 62
     9
  6
CONTINUOUS
370
    -2
100
AcDbLine
 10
2840.60922566
 20
-1801.95138045
 30
0.0
 11
2840.95028442
 21
-1802.41499366
 31
0.0
  0
LINE
  5
37A
100
AcDbEntity
  8
Sc.1_5
 62
     9
  6
CONTINUOUS
370
    -2
100
AcDbLine
 10
2835.99042044
 20
-1804.61804136
 30
0.0
 11
2836.33147919
 21
-1805.08165457
 31
0.0
  0
LINE
  5
37B
100
AcDbEntity
  8
Sc.1_5
 62
     9
  6
CONTINUOUS
370
    -2
100
AcDbLine
 10
2831.37161521
 20
-1807.28470227
 30
0.0
 11
2831.71267397
 21
-1807.74831549
 31
0.0
  0
LINE
  5
37C
100
AcDbEntity
  8
Sc.1_5
 62
     9
  6
CONTINUOUS
370
    -2
100
AcDbLine
 10
2826.75280999
 20
-1809.95136319
 30
0.0
 11
2827.09386875
 21
-1810.4149764
 31
0.0
  0
LINE
  5
37D
100
AcDbEntity
  8
Sc.1_5
 62
     9
  6
CONTINUOUS
370
    -2
100
AcDbLine
 10
2822.13400477
 20
-1812.6180241
 30
0.0
 11
2822.47506353
 21
-1813.08163731
 31
0.0
  0
LINE
  5
37E
100
AcDbEntity
  8
Sc.1_5
 62
     9
  6
CONTINUOUS
370
    -2
100
AcDbLine
 10
2825.15802018
 20
-1823.18910728
 30
0.0
 11
2824.9270486
 21
-1822.66193519
 31
0.0
  0
LINE
  5
37F
100
AcDbEntity
  8
Sc.1_5
 62
     9
  6
CONTINUOUS
370
    -2
100
AcDbLine
 10
2829.77681817
 20
-1820.52243385
 30
0.0
 11
2829.54584659
 21
-1819.99526175
 31
0.0
  0
LINE
  5
380
100
AcDbEntity
  8
Sc.1_5
 62
     9
  6
CONTINUOUS
370
    -2
100
AcDbLine
 10
2834.39561617
 20
-1817.85576042
 30
0.0
 11
2834.16464459
 21
-1817.32858832
 31
0.0
  0
LINE
  5
381
100
AcDbEntity
  8
Sc.1_5
 62
     9
  6
CONTINUOUS
370
    -2
100
AcDbLine
 10
2839.01441416
 20
-1815.18908698
 30
0.0
 11
2838.78344258
 21
-1814.66191489
 31
0.0
  0
LINE
  5
382
100
AcDbEntity
  8
Sc.1_5
 62
     9
  6
CONTINUOUS
370
    -2
100
AcDbLine
 10
2843.63321216
 20
-1812.52241355
 30
0.0
 11
2843.40224057
 21
-1811.99524146
 31
0.0
  0
LINE
  5
383
100
AcDbEntity
  8
Sc.1_5
 62
     9
  6
CONTINUOUS
370
    -2
100
AcDbLine
 10
2848.25201015
 20
-1809.85574012
 30
0.0
 11
2848.02103857
 21
-1809.32856803
 31
0.0
  0
LINE
  5
384
100
AcDbEntity
  8
Sc.1_5
 62
     9
  6
CONTINUOUS
370
    -2
100
AcDbLine
 10
2852.87080814
 20
-1807.18906669
 30
0.0
 11
2852.63983656
 21
-1806.6618946
 31
0.0
  0
LINE
  5
385
100
AcDbEntity
  8
Sc.1_5
 62
     9
  6
CONTINUOUS
370
    -2
100
AcDbLine
 10
2857.48960614
 20
-1804.52239326
 30
0.0
 11
2857.25863456
 21
-1803.99522117
 31
0.0
  0
LINE
  5
386
100
AcDbEntity
  8
Sc.1_5
 62
     9
  6
CONTINUOUS
370
    -2
100
AcDbLine
 10
2862.10840413
 20
-1801.85571983
 30
0.0
 11
2861.87743255
 21
-1801.32854773
 31
0.0
  0
LINE
  5
387
100
AcDbEntity
  8
Sc.1_5
 62
     9
  6
CONTINUOUS
370
    -2
100
AcDbLine
 10
2866.72720213
 20
-1799.1890464
 30
0.0
 11
2866.49623054
 21
-1798.6618743
 31
0.0
  0
LINE
  5
388
100
AcDbEntity
  8
Sc.1_5
 62
     9
  6
CONTINUOUS
370
    -2
100
AcDbLine
 10
2871.34600012
 20
-1796.52237297
 30
0.0
 11
2871.11502854
 21
-1795.99520087
 31
0.0
  0
LINE
  5
389
100
AcDbEntity
  8
Sc.1_5
 62
     9
  6
CONTINUOUS
370
    -2
100
AcDbLine
 10
2875.96479812
 20
-1793.85569953
 30
0.0
 11
2875.73382653
 21
-1793.32852744
 31
0.0
  0
LINE
  5
38A
100
AcDbEntity
  8
Sc.1_5
 62
     9
  6
CONTINUOUS
370
    -2
100
AcDbLine
 10
2825.15793345
 20
-1823.18895705
 30
0.0
 11
2824.81687469
 21
-1822.72534384
 31
0.0
  0
LINE
  5
38B
100
AcDbEntity
  8
Sc.1_5
 62
     9
  6
CONTINUOUS
370
    -2
100
AcDbLine
 10
2829.77673867
 20
-1820.52229614
 30
0.0
 11
2829.43567991
 21
-1820.05868292
 31
0.0
  0
LINE
  5
38C
100
AcDbEntity
  8
Sc.1_5
 62
     9
  6
CONTINUOUS
370
    -2
100
AcDbLine
 10
2834.39554389
 20
-1817.85563523
 30
0.0
 11
2834.05448513
 21
-1817.39202201
 31
0.0
  0
LINE
  5
38D
100
AcDbEntity
  8
Sc.1_5
 62
     9
  6
CONTINUOUS
370
    -2
100
AcDbLine
 10
2839.01434911
 20
-1815.18897431
 30
0.0
 11
2838.67329035
 21
-1814.7253611
 31
0.0
  0
LINE
  5
38E
100
AcDbEntity
  8
Sc.1_5
 62
     9
  6
CONTINUOUS
370
    -2
100
AcDbLine
 10
2843.63315433
 20
-1812.5223134
 30
0.0
 11
2843.29209558
 21
-1812.05870019
 31
0.0
  0
LINE
  5
38F
100
AcDbEntity
  8
Sc.1_5
 62
     9
  6
CONTINUOUS
370
    -2
100
AcDbLine
 10
2848.25195956
 20
-1809.85565249
 30
0.0
 11
2847.9109008
 21
-1809.39203928
 31
0.0
  0
LINE
  5
390
100
AcDbEntity
  8
Sc.1_5
 62
     9
  6
CONTINUOUS
370
    -2
100
AcDbLine
 10
2852.87076478
 20
-1807.18899158
 30
0.0
 11
2852.52970602
 21
-1806.72537836
 31
0.0
  0
LINE
  5
391
100
AcDbEntity
  8
Sc.1_5
 62
     9
  6
CONTINUOUS
370
    -2
100
AcDbLine
 10
2857.48957
 20
-1804.52233066
 30
0.0
 11
2857.14851124
 21
-1804.05871745
 31
0.0
  0
LINE
  5
392
100
AcDbEntity
  8
Sc.1_5
 62
     9
  6
CONTINUOUS
370
    -2
100
AcDbLine
 10
2862.10837522
 20
-1801.85566975
 30
0.0
 11
2861.76731646
 21
-1801.39205654
 31
0.0
  0
LINE
  5
393
100
AcDbEntity
  8
Sc.1_5
 62
     9
  6
CONTINUOUS
370
    -2
100
AcDbLine
 10
2866.72718044
 20
-1799.18900884
 30
0.0
 11
2866.38612169
 21
-1798.72539563
 31
0.0
  0
LINE
  5
394
100
AcDbEntity
  8
Sc.1_5
 62
     9
  6
CONTINUOUS
370
    -2
100
AcDbLine
 10
2871.34598567
 20
-1796.52234793
 30
0.0
 11
2871.00492691
 21
-1796.05873471
 31
0.0
  0
LINE
  5
395
100
AcDbEntity
  8
Sc.1_5
 62
     9
  6
CONTINUOUS
370
    -2
100
AcDbLine
 10
2875.96479089
 20
-1793.85568702
 30
0.0
 11
2875.62373213
 21
-1793.3920738
 31
0.0
  0
LINE
  5
396
100
AcDbEntity
  8
Sc.1_5
 62
     9
  6
CONTINUOUS
370
    -2
100
AcDbLine
 10
2880.58359611
 20
-1791.1890261
 30
0.0
 11
2880.24253735
 21
-1790.72541289
 31
0.0
  0
ENDBLK
  5
397
100
AcDbEntity
100
AcDbBlockEnd
  0
BLOCK
  5
398
100
AcDbEntity
  8
Sc.1_5
100
AcDbBlockBegin
  2
*X2535
 70
     1
 10
0.0
 20
0.0
 30
0.0
  3
*X2535
  1

  4
Cadwork hatch
  0
LINE
  5
399
100
AcDbEntity
  8
Sc.1_5
 62
     9
  6
CONTINUOUS
370
    -2
100
AcDbLine
 10
2899.82763943
 20
-1767.23605058
 30
0.0
 11
2900.04456315
 21
-1767.61113533
 31
0.0
  0
LINE
  5
39A
100
AcDbEntity
  8
Sc.1_5
 62
     9
  6
CONTINUOUS
370
    -2
100
AcDbLine
 10
2895.20489097
 20
-1769.90953648
 30
0.0
 11
2895.42181468
 21
-1770.28462123
 31
0.0
  0
LINE
  5
39B
100
AcDbEntity
  8
Sc.1_5
 62
     9
  6
CONTINUOUS
370
    -2
100
AcDbLine
 10
2890.5821425
 20
-1772.58302238
 30
0.0
 11
2890.79906622
 21
-1772.95810713
 31
0.0
  0
LINE
  5
39C
100
AcDbEntity
  8
Sc.1_5
 62
     9
  6
CONTINUOUS
370
    -2
100
AcDbLine
 10
2885.95939403
 20
-1775.25650828
 30
0.0
 11
2886.17631775
 21
-1775.63159303
 31
0.0
  0
LINE
  5
39D
100
AcDbEntity
  8
Sc.1_5
 62
     9
  6
CONTINUOUS
370
    -2
100
AcDbLine
 10
2898.45741205
 20
-1780.86686123
 30
0.0
 11
2898.67433577
 21
-1781.24194598
 31
0.0
  0
LINE
  5
39E
100
AcDbEntity
  8
Sc.1_5
 62
     9
  6
CONTINUOUS
370
    -2
100
AcDbLine
 10
2893.83466358
 20
-1783.54034713
 30
0.0
 11
2894.0515873
 21
-1783.91543188
 31
0.0
  0
LINE
  5
39F
100
AcDbEntity
  8
Sc.1_5
 62
     9
  6
CONTINUOUS
370
    -2
100
AcDbLine
 10
2889.21191512
 20
-1786.21383303
 30
0.0
 11
2889.42883883
 21
-1786.58891778
 31
0.0
  0
LINE
  5
3A0
100
AcDbEntity
  8
Sc.1_5
 62
     9
  6
CONTINUOUS
370
    -2
100
AcDbLine
 10
2900.38640048
 20
-1768.07508882
 30
0.0
 11
2901.02718951
 21
-1768.71644497
 31
0.0
  0
LINE
  5
3A1
100
AcDbEntity
  8
Sc.1_5
 62
     9
  6
CONTINUOUS
370
    -2
100
AcDbLine
 10
2895.76364837
 20
-1770.74856625
 30
0.0
 11
2901.03948864
 21
-1776.0290758
 31
0.0
  0
LINE
  5
3A2
100
AcDbEntity
  8
Sc.1_5
 62
     9
  6
CONTINUOUS
370
    -2
100
AcDbLine
 10
2891.14089626
 20
-1773.42204368
 30
0.0
 11
2898.11556845
 21
-1780.40288867
 31
0.0
  0
LINE
  5
3A3
100
AcDbEntity
  8
Sc.1_5
 62
     9
  6
CONTINUOUS
370
    -2
100
AcDbLine
 10
2886.51814415
 20
-1776.09552111
 30
0.0
 11
2893.49281634
 21
-1783.0763661
 31
0.0
  0
LINE
  5
3A4
100
AcDbEntity
  8
Sc.1_5
 62
     9
  6
CONTINUOUS
370
    -2
100
AcDbLine
 10
2886.41950461
 20
-1783.29711508
 30
0.0
 11
2888.87006423
 21
-1785.74984353
 31
0.0
  0
LINE
  5
3A5
100
AcDbEntity
  8
Sc.1_5
 62
     9
  6
CONTINUOUS
370
    -2
100
AcDbLine
 10
2900.27621873
 20
-1768.13881051
 30
0.0
 11
2901.03091917
 21
-1770.93396772
 31
0.0
  0
LINE
  5
3A6
100
AcDbEntity
  8
Sc.1_5
 62
     9
  6
CONTINUOUS
370
    -2
100
AcDbLine
 10
2895.65347579
 20
-1770.8123038
 30
0.0
 11
2898.2257627
 21
-1780.33919149
 31
0.0
  0
LINE
  5
3A7
100
AcDbEntity
  8
Sc.1_5
 62
     9
  6
CONTINUOUS
370
    -2
100
AcDbLine
 10
2891.03073285
 20
-1773.48579709
 30
0.0
 11
2893.60301976
 21
-1783.01268477
 31
0.0
  0
LINE
  5
3A8
100
AcDbEntity
  8
Sc.1_5
 62
     9
  6
CONTINUOUS
370
    -2
100
AcDbLine
 10
2886.40798991
 20
-1776.15929037
 30
0.0
 11
2888.98027682
 21
-1785.68617806
 31
0.0
  0
LINE
  5
3A9
100
AcDbEntity
  8
Sc.1_5
 62
     9
  6
CONTINUOUS
370
    -2
100
AcDbLine
 10
2900.70965961
 20
-1764.14203132
 30
0.0
 11
2900.19911592
 21
-1764.65790118
 31
0.0
  0
LINE
  5
3AA
100
AcDbEntity
  8
Sc.1_5
 62
     9
  6
CONTINUOUS
370
    -2
100
AcDbLine
 10
2896.08691083
 20
-1766.8155174
 30
0.0
 11
2895.57636753
 21
-1767.33138688
 31
0.0
  0
LINE
  5
3AB
100
AcDbEntity
  8
Sc.1_5
 62
     9
  6
CONTINUOUS
370
    -2
100
AcDbLine
 10
2891.46416206
 20
-1769.48900349
 30
0.0
 11
2890.95361914
 21
-1770.00487257
 31
0.0
  0
LINE
  5
3AC
100
AcDbEntity
  8
Sc.1_5
 62
     9
  6
CONTINUOUS
370
    -2
100
AcDbLine
 10
2886.84141328
 20
-1772.16248957
 30
0.0
 11
2886.33087074
 21
-1772.67835827
 31
0.0
  0
LINE
  5
3AD
100
AcDbEntity
  8
Sc.1_5
 62
     9
  6
CONTINUOUS
370
    -2
100
AcDbLine
 10
2882.2186645
 20
-1774.83597565
 30
0.0
 11
2881.78654813
 21
-1775.27260001
 31
0.0
  0
LINE
  5
3AE
100
AcDbEntity
  8
Sc.1_5
 62
     9
  6
CONTINUOUS
370
    -2
100
AcDbLine
 10
2896.70598192
 20
-1766.45748943
 30
0.0
 11
2897.40773808
 21
-1766.27224673
 31
0.0
  0
LINE
  5
3AF
100
AcDbEntity
  8
Sc.1_5
 62
     9
  6
CONTINUOUS
370
    -2
100
AcDbLine
 10
2892.08323403
 20
-1769.13097599
 30
0.0
 11
2892.78499019
 21
-1768.94573328
 31
0.0
  0
LINE
  5
3B0
100
AcDbEntity
  8
Sc.1_5
 62
     9
  6
CONTINUOUS
370
    -2
100
AcDbLine
 10
2887.46048613
 20
-1771.80446254
 30
0.0
 11
2888.16224229
 21
-1771.61921984
 31
0.0
  0
LINE
  5
3B1
100
AcDbEntity
  8
Sc.1_5
 62
     9
  6
CONTINUOUS
370
    -2
100
AcDbLine
 10
2882.83773824
 20
-1774.4779491
 30
0.0
 11
2883.5394944
 21
-1774.2927064
 31
0.0
  0
LINE
  5
3B2
100
AcDbEntity
  8
Sc.1_5
 62
     9
  6
CONTINUOUS
370
    -2
100
AcDbLine
 10
2898.30286118
 20
-1783.82009461
 30
0.0
 11
2897.8032498
 21
-1784.32491811
 31
0.0
  0
LINE
  5
3B3
100
AcDbEntity
  8
Sc.1_5
 62
     9
  6
CONTINUOUS
370
    -2
100
AcDbLine
 10
2893.68011278
 20
-1786.4935803
 30
0.0
 11
2893.1960137
 21
-1786.98272969
 31
0.0
  0
LINE
  5
3B4
100
AcDbEntity
  8
Sc.1_5
 62
     9
  6
CONTINUOUS
370
    -2
100
AcDbLine
 10
2892.51097954
 20
-1787.37791059
 30
0.0
 11
2891.84874359
 21
-1787.55272104
 31
0.0
  0
LINE
  5
3B5
100
AcDbEntity
  8
Sc.1_5
 62
     9
  6
CONTINUOUS
370
    -2
100
AcDbLine
 10
2897.15522218
 20
-1784.69875077
 30
0.0
 11
2896.47149184
 21
-1784.8792351
 31
0.0
  0
LINE
  5
3B6
100
AcDbEntity
  8
Sc.1_5
 62
     9
  6
CONTINUOUS
370
    -2
100
AcDbLine
 10
2900.19911667
 20
-1764.6579008
 30
0.0
 11
2899.86113636
 21
-1765.26778275
 31
0.0
  0
LINE
  5
3B7
100
AcDbEntity
  8
Sc.1_5
 62
     9
  6
CONTINUOUS
370
    -2
100
AcDbLine
 10
2895.57636742
 20
-1767.3313872
 30
0.0
 11
2895.23838711
 21
-1767.94126915
 31
0.0
  0
LINE
  5
3B8
100
AcDbEntity
  8
Sc.1_5
 62
     9
  6
CONTINUOUS
370
    -2
100
AcDbLine
 10
2890.95361817
 20
-1770.00487359
 30
0.0
 11
2890.61563787
 21
-1770.61475554
 31
0.0
  0
LINE
  5
3B9
100
AcDbEntity
  8
Sc.1_5
 62
     9
  6
CONTINUOUS
370
    -2
100
AcDbLine
 10
2886.33086893
 20
-1772.67835999
 30
0.0
 11
2885.99288862
 21
-1773.28824193
 31
0.0
  0
LINE
  5
3BA
100
AcDbEntity
  8
Sc.1_5
 62
     9
  6
CONTINUOUS
370
    -2
100
AcDbLine
 10
2897.41115569
 20
-1766.27026893
 30
0.0
 11
2898.10833638
 21
-1766.28148363
 31
0.0
  0
LINE
  5
3BB
100
AcDbEntity
  8
Sc.1_5
 62
     9
  6
CONTINUOUS
370
    -2
100
AcDbLine
 10
2892.78840623
 20
-1768.94375495
 30
0.0
 11
2893.48558692
 21
-1768.95496965
 31
0.0
  0
LINE
  5
3BC
100
AcDbEntity
  8
Sc.1_5
 62
     9
  6
CONTINUOUS
370
    -2
100
AcDbLine
 10
2888.16565677
 20
-1771.61724098
 30
0.0
 11
2888.86283746
 21
-1771.62845568
 31
0.0
  0
LINE
  5
3BD
100
AcDbEntity
  8
Sc.1_5
 62
     9
  6
CONTINUOUS
370
    -2
100
AcDbLine
 10
2883.54290731
 20
-1774.290727
 30
0.0
 11
2884.240088
 21
-1774.3019417
 31
0.0
  0
LINE
  5
3BE
100
AcDbEntity
  8
Sc.1_5
 62
     9
  6
CONTINUOUS
370
    -2
100
AcDbLine
 10
2898.64083816
 20
-1783.21021339
 30
0.0
 11
2898.30285786
 21
-1783.82009534
 31
0.0
  0
LINE
  5
3BF
100
AcDbEntity
  8
Sc.1_5
 62
     9
  6
CONTINUOUS
370
    -2
100
AcDbLine
 10
2894.01808892
 20
-1785.88369978
 30
0.0
 11
2893.68010861
 21
-1786.49358173
 31
0.0
  0
LINE
  5
3C0
100
AcDbEntity
  8
Sc.1_5
 62
     9
  6
CONTINUOUS
370
    -2
100
AcDbLine
 10
2891.84874016
 20
-1787.55272307
 30
0.0
 11
2891.15155948
 21
-1787.54150842
 31
0.0
  0
LINE
  5
3C1
100
AcDbEntity
  8
Sc.1_5
 62
     9
  6
CONTINUOUS
370
    -2
100
AcDbLine
 10
2896.47148945
 20
-1784.87923674
 30
0.0
 11
2895.77430876
 21
-1784.86802209
 31
0.0
  0
LINE
  5
3C2
100
AcDbEntity
  8
Sc.1_5
 62
     9
  6
CONTINUOUS
370
    -2
100
AcDbLine
 10
2901.049876
 20
-1782.2050368
 30
0.0
 11
2900.39705804
 21
-1782.19453575
 31
0.0
  0
LINE
  5
3C3
100
AcDbEntity
  8
Sc.1_5
 62
     9
  6
CONTINUOUS
370
    -2
100
AcDbLine
 10
2899.86113761
 20
-1765.2677828
 30
0.0
 11
2899.70808888
 21
-1765.84065557
 31
0.0
  0
LINE
  5
3C4
100
AcDbEntity
  8
Sc.1_5
 62
     9
  6
CONTINUOUS
370
    -2
100
AcDbLine
 10
2895.23838793
 20
-1767.94126941
 30
0.0
 11
2895.08533919
 21
-1768.51414218
 31
0.0
  0
LINE
  5
3C5
100
AcDbEntity
  8
Sc.1_5
 62
     9
  6
CONTINUOUS
370
    -2
100
AcDbLine
 10
2890.61563824
 20
-1770.61475602
 30
0.0
 11
2890.46258951
 21
-1771.18762878
 31
0.0
  0
LINE
  5
3C6
100
AcDbEntity
  8
Sc.1_5
 62
     9
  6
CONTINUOUS
370
    -2
100
AcDbLine
 10
2885.99288856
 20
-1773.28824262
 30
0.0
 11
2885.83983982
 21
-1773.86111539
 31
0.0
  0
LINE
  5
3C7
100
AcDbEntity
  8
Sc.1_5
 62
     9
  6
CONTINUOUS
370
    -2
100
AcDbLine
 10
2898.10491572
 20
-1766.28346309
 30
0.0
 11
2898.67778848
 21
-1766.43651182
 31
0.0
  0
LINE
  5
3C8
100
AcDbEntity
  8
Sc.1_5
 62
     9
  6
CONTINUOUS
370
    -2
100
AcDbLine
 10
2893.48216603
 20
-1768.9569497
 30
0.0
 11
2894.0550388
 21
-1769.10999843
 31
0.0
  0
LINE
  5
3C9
100
AcDbEntity
  8
Sc.1_5
 62
     9
  6
CONTINUOUS
370
    -2
100
AcDbLine
 10
2888.85941635
 20
-1771.6304363
 30
0.0
 11
2889.43228911
 21
-1771.78348504
 31
0.0
  0
LINE
  5
3CA
100
AcDbEntity
  8
Sc.1_5
 62
     9
  6
CONTINUOUS
370
    -2
100
AcDbLine
 10
2884.23666666
 20
-1774.30392291
 30
0.0
 11
2884.80953943
 21
-1774.45697164
 31
0.0
  0
LINE
  5
3CB
100
AcDbEntity
  8
Sc.1_5
 62
     9
  6
CONTINUOUS
370
    -2
100
AcDbLine
 10
2898.79388588
 20
-1782.63734301
 30
0.0
 11
2898.64083715
 21
-1783.21021577
 31
0.0
  0
LINE
  5
3CC
100
AcDbEntity
  8
Sc.1_5
 62
     9
  6
CONTINUOUS
370
    -2
100
AcDbLine
 10
2894.1711362
 20
-1785.31082961
 30
0.0
 11
2894.01808746
 21
-1785.88370238
 31
0.0
  0
LINE
  5
3CD
100
AcDbEntity
  8
Sc.1_5
 62
     9
  6
CONTINUOUS
370
    -2
100
AcDbLine
 10
2889.54838651
 20
-1787.98431622
 30
0.0
 11
2889.41465793
 21
-1788.48487222
 31
0.0
  0
LINE
  5
3CE
100
AcDbEntity
  8
Sc.1_5
 62
     9
  6
CONTINUOUS
370
    -2
100
AcDbLine
 10
2891.15155832
 20
-1787.5415076
 30
0.0
 11
2890.57868556
 21
-1787.38845887
 31
0.0
  0
LINE
  5
3CF
100
AcDbEntity
  8
Sc.1_5
 62
     9
  6
CONTINUOUS
370
    -2
100
AcDbLine
 10
2895.77430801
 20
-1784.868021
 30
0.0
 11
2895.20143524
 21
-1784.71497226
 31
0.0
  0
LINE
  5
3D0
100
AcDbEntity
  8
Sc.1_5
 62
     9
  6
CONTINUOUS
370
    -2
100
AcDbLine
 10
2900.39705769
 20
-1782.19453439
 30
0.0
 11
2899.82418493
 21
-1782.04148566
 31
0.0
  0
LINE
  5
3D1
100
AcDbEntity
  8
Sc.1_5
 62
     9
  6
CONTINUOUS
370
    -2
100
AcDbLine
 10
2899.70808789
 20
-1765.84065481
 30
0.0
 11
2899.66851593
 21
-1766.46135647
 31
0.0
  0
LINE
  5
3D2
100
AcDbEntity
  8
Sc.1_5
 62
     9
  6
CONTINUOUS
370
    -2
100
AcDbLine
 10
2895.08533906
 20
-1768.51414163
 30
0.0
 11
2895.04576709
 21
-1769.13484329
 31
0.0
  0
LINE
  5
3D3
100
AcDbEntity
  8
Sc.1_5
 62
     9
  6
CONTINUOUS
370
    -2
100
AcDbLine
 10
2890.46259022
 20
-1771.18762844
 30
0.0
 11
2890.42301826
 21
-1771.8083301
 31
0.0
  0
LINE
  5
3D4
100
AcDbEntity
  8
Sc.1_5
 62
     9
  6
CONTINUOUS
370
    -2
100
AcDbLine
 10
2885.83984138
 20
-1773.86111526
 30
0.0
 11
2885.80026942
 21
-1774.48181692
 31
0.0
  0
LINE
  5
3D5
100
AcDbEntity
  8
Sc.1_5
 62
     9
  6
CONTINUOUS
370
    -2
100
AcDbLine
 10
2898.67778838
 20
-1766.43650944
 30
0.0
 11
2899.23552376
 21
-1766.71176886
 31
0.0
  0
LINE
  5
3D6
100
AcDbEntity
  8
Sc.1_5
 62
     9
  6
CONTINUOUS
370
    -2
100
AcDbLine
 10
2894.05503876
 20
-1769.10999491
 30
0.0
 11
2894.61277413
 21
-1769.38525432
 31
0.0
  0
LINE
  5
3D7
100
AcDbEntity
  8
Sc.1_5
 62
     9
  6
CONTINUOUS
370
    -2
100
AcDbLine
 10
2889.43228914
 20
-1771.78348037
 30
0.0
 11
2889.99002451
 21
-1772.05873978
 31
0.0
  0
LINE
  5
3D8
100
AcDbEntity
  8
Sc.1_5
 62
     9
  6
CONTINUOUS
370
    -2
100
AcDbLine
 10
2884.80953952
 20
-1774.45696583
 30
0.0
 11
2885.36727489
 21
-1774.73222524
 31
0.0
  0
LINE
  5
3D9
100
AcDbEntity
  8
Sc.1_5
 62
     9
  6
CONTINUOUS
370
    -2
100
AcDbLine
 10
2898.83345945
 20
-1782.01664072
 30
0.0
 11
2898.79388749
 21
-1782.63734238
 31
0.0
  0
LINE
  5
3DA
100
AcDbEntity
  8
Sc.1_5
 62
     9
  6
CONTINUOUS
370
    -2
100
AcDbLine
 10
2894.21071061
 20
-1784.69012754
 30
0.0
 11
2894.17113865
 21
-1785.3108292
 31
0.0
  0
LINE
  5
3DB
100
AcDbEntity
  8
Sc.1_5
 62
     9
  6
CONTINUOUS
370
    -2
100
AcDbLine
 10
2889.58796177
 20
-1787.36361435
 30
0.0
 11
2889.54838981
 21
-1787.98431601
 31
0.0
  0
LINE
  5
3DC
100
AcDbEntity
  8
Sc.1_5
 62
     9
  6
CONTINUOUS
370
    -2
100
AcDbLine
 10
2890.57868685
 20
-1787.3884579
 30
0.0
 11
2890.02095146
 21
-1787.11319853
 31
0.0
  0
LINE
  5
3DD
100
AcDbEntity
  8
Sc.1_5
 62
     9
  6
CONTINUOUS
370
    -2
100
AcDbLine
 10
2895.2014363
 20
-1784.71497214
 30
0.0
 11
2894.64370091
 21
-1784.43971276
 31
0.0
  0
LINE
  5
3DE
100
AcDbEntity
  8
Sc.1_5
 62
     9
  6
CONTINUOUS
370
    -2
100
AcDbLine
 10
2899.82418574
 20
-1782.04148637
 30
0.0
 11
2899.26645035
 21
-1781.76622699
 31
0.0
  0
LINE
  5
3DF
100
AcDbEntity
  8
Sc.1_5
 62
     9
  6
CONTINUOUS
370
    -2
100
AcDbLine
 10
2899.6685155
 20
-1766.4613566
 30
0.0
 11
2899.82763937
 21
-1767.23605063
 31
0.0
  0
LINE
  5
3E0
100
AcDbEntity
  8
Sc.1_5
 62
     9
  6
CONTINUOUS
370
    -2
100
AcDbLine
 10
2895.04576616
 20
-1769.13484332
 30
0.0
 11
2895.20489003
 21
-1769.90953734
 31
0.0
  0
LINE
  5
3E1
100
AcDbEntity
  8
Sc.1_5
 62
     9
  6
CONTINUOUS
370
    -2
100
AcDbLine
 10
2890.42301683
 20
-1771.80833003
 30
0.0
 11
2890.5821407
 21
-1772.58302405
 31
0.0
  0
LINE
  5
3E2
100
AcDbEntity
  8
Sc.1_5
 62
     9
  6
CONTINUOUS
370
    -2
100
AcDbLine
 10
2885.80026749
 20
-1774.48181674
 30
0.0
 11
2885.95939136
 21
-1775.25651077
 31
0.0
  0
LINE
  5
3E3
100
AcDbEntity
  8
Sc.1_5
 62
     9
  6
CONTINUOUS
370
    -2
100
AcDbLine
 10
2899.23552413
 20
-1766.7117693
 30
0.0
 11
2899.82763969
 21
-1767.23605013
 31
0.0
  0
LINE
  5
3E4
100
AcDbEntity
  8
Sc.1_5
 62
     9
  6
CONTINUOUS
370
    -2
100
AcDbLine
 10
2894.61277452
 20
-1769.38525555
 30
0.0
 11
2895.20489009
 21
-1769.90953638
 31
0.0
  0
LINE
  5
3E5
100
AcDbEntity
  8
Sc.1_5
 62
     9
  6
CONTINUOUS
370
    -2
100
AcDbLine
 10
2889.99002492
 20
-1772.0587418
 30
0.0
 11
2890.58214048
 21
-1772.58302263
 31
0.0
  0
LINE
  5
3E6
100
AcDbEntity
  8
Sc.1_5
 62
     9
  6
CONTINUOUS
370
    -2
100
AcDbLine
 10
2885.36727532
 20
-1774.73222805
 30
0.0
 11
2885.95939088
 21
-1775.25650888
 31
0.0
  0
LINE
  5
3E7
100
AcDbEntity
  8
Sc.1_5
 62
     9
  6
CONTINUOUS
370
    -2
100
AcDbLine
 10
2898.6743349
 20
-1781.2419471
 30
0.0
 11
2898.83345877
 21
-1782.01664112
 31
0.0
  0
LINE
  5
3E8
100
AcDbEntity
  8
Sc.1_5
 62
     9
  6
CONTINUOUS
370
    -2
100
AcDbLine
 10
2894.05158556
 20
-1783.91543381
 30
0.0
 11
2894.21070943
 21
-1784.69012783
 31
0.0
  0
LINE
  5
3E9
100
AcDbEntity
  8
Sc.1_5
 62
     9
  6
CONTINUOUS
370
    -2
100
AcDbLine
 10
2889.42883623
 20
-1786.58892053
 30
0.0
 11
2889.5879601
 21
-1787.36361455
 31
0.0
  0
LINE
  5
3EA
100
AcDbEntity
  8
Sc.1_5
 62
     9
  6
CONTINUOUS
370
    -2
100
AcDbLine
 10
2890.02095161
 20
-1787.11319851
 30
0.0
 11
2889.42883605
 21
-1786.58891768
 31
0.0
  0
LINE
  5
3EB
100
AcDbEntity
  8
Sc.1_5
 62
     9
  6
CONTINUOUS
370
    -2
100
AcDbLine
 10
2894.64370122
 20
-1784.43971226
 30
0.0
 11
2894.05158565
 21
-1783.91543143
 31
0.0
  0
LINE
  5
3EC
100
AcDbEntity
  8
Sc.1_5
 62
     9
  6
CONTINUOUS
370
    -2
100
AcDbLine
 10
2899.26645082
 20
-1781.76622601
 30
0.0
 11
2898.67433525
 21
-1781.24194518
 31
0.0
  0
LINE
  5
3ED
100
AcDbEntity
  8
Sc.1_5
 62
     9
  6
CONTINUOUS
370
    -2
100
AcDbLine
 10
2900.04456547
 20
-1767.61113976
 30
0.0
 11
2900.2762213
 21
-1768.13881649
 31
0.0
  0
LINE
  5
3EE
100
AcDbEntity
  8
Sc.1_5
 62
     9
  6
CONTINUOUS
370
    -2
100
AcDbLine
 10
2895.42182009
 20
-1770.28463141
 30
0.0
 11
2895.65347592
 21
-1770.81230814
 31
0.0
  0
LINE
  5
3EF
100
AcDbEntity
  8
Sc.1_5
 62
     9
  6
CONTINUOUS
370
    -2
100
AcDbLine
 10
2890.79907471
 20
-1772.95812307
 30
0.0
 11
2891.03073054
 21
-1773.4857998
 31
0.0
  0
LINE
  5
3F0
100
AcDbEntity
  8
Sc.1_5
 62
     9
  6
CONTINUOUS
370
    -2
100
AcDbLine
 10
2886.17632933
 20
-1775.63161473
 30
0.0
 11
2886.40798516
 21
-1776.15929145
 31
0.0
  0
LINE
  5
3F1
100
AcDbEntity
  8
Sc.1_5
 62
     9
  6
CONTINUOUS
370
    -2
100
AcDbLine
 10
2900.04456371
 20
-1767.61113324
 30
0.0
 11
2900.38640092
 21
-1768.07508849
 31
0.0
  0
LINE
  5
3F2
100
AcDbEntity
  8
Sc.1_5
 62
     9
  6
CONTINUOUS
370
    -2
100
AcDbLine
 10
2895.42181179
 20
-1770.2846136
 30
0.0
 11
2895.76364901
 21
-1770.74856884
 31
0.0
  0
LINE
  5
3F3
100
AcDbEntity
  8
Sc.1_5
 62
     9
  6
CONTINUOUS
370
    -2
100
AcDbLine
 10
2890.79905988
 20
-1772.95809395
 30
0.0
 11
2891.14089709
 21
-1773.4220492
 31
0.0
  0
LINE
  5
3F4
100
AcDbEntity
  8
Sc.1_5
 62
     9
  6
CONTINUOUS
370
    -2
100
AcDbLine
 10
2886.17630796
 20
-1775.63157431
 30
0.0
 11
2886.51814518
 21
-1776.09552956
 31
0.0
  0
LINE
  5
3F5
100
AcDbEntity
  8
Sc.1_5
 62
     9
  6
CONTINUOUS
370
    -2
100
AcDbLine
 10
2889.21193117
 20
-1786.21386048
 30
0.0
 11
2888.9802752
 21
-1785.68618381
 31
0.0
  0
LINE
  5
3F6
100
AcDbEntity
  8
Sc.1_5
 62
     9
  6
CONTINUOUS
370
    -2
100
AcDbLine
 10
2893.83467584
 20
-1783.54036759
 30
0.0
 11
2893.60301987
 21
-1783.01269092
 31
0.0
  0
LINE
  5
3F7
100
AcDbEntity
  8
Sc.1_5
 62
     9
  6
CONTINUOUS
370
    -2
100
AcDbLine
 10
2898.45742051
 20
-1780.8668747
 30
0.0
 11
2898.22576454
 21
-1780.33919803
 31
0.0
  0
LINE
  5
3F8
100
AcDbEntity
  8
Sc.1_5
 62
     9
  6
CONTINUOUS
370
    -2
100
AcDbLine
 10
2889.21190219
 20
-1786.21381036
 30
0.0
 11
2888.87006497
 21
-1785.74985511
 31
0.0
  0
LINE
  5
3F9
100
AcDbEntity
  8
Sc.1_5
 62
     9
  6
CONTINUOUS
370
    -2
100
AcDbLine
 10
2893.8346541
 20
-1783.54033
 30
0.0
 11
2893.49281689
 21
-1783.07637475
 31
0.0
  0
LINE
  5
3FA
100
AcDbEntity
  8
Sc.1_5
 62
     9
  6
CONTINUOUS
370
    -2
100
AcDbLine
 10
2898.45740602
 20
-1780.86684964
 30
0.0
 11
2898.1155688
 21
-1780.40289439
 31
0.0
  0
ENDBLK
  5
3FB
100
AcDbEntity
100
AcDbBlockEnd
  0
BLOCK
  5
3FC
100
AcDbEntity
  8
Sc.1_5
100
AcDbBlockBegin
  2
*X2536
 70
     1
 10
0.0
 20
0.0
 30
0.0
  3
*X2536
  1

  4
Cadwork hatch
  0
LINE
  5
3FD
100
AcDbEntity
  8
Sc.1_5
 62
     9
  6
CONTINUOUS
370
    -2
100
AcDbLine
 10
2928.01177956
 20
-1780.04743483
 30
0.0
 11
2928.3210504
 21
-1780.22599243
 31
0.0
  0
LINE
  5
3FE
100
AcDbEntity
  8
Sc.1_5
 62
     9
  6
CONTINUOUS
370
    -2
100
AcDbLine
 10
2930.01191032
 20
-1781.20221086
 30
0.0
 11
2930.63045199
 21
-1781.55932606
 31
0.0
  0
LINE
  5
3FF
100
AcDbEntity
  8
Sc.1_5
 62
     9
  6
CONTINUOUS
370
    -2
100
AcDbLine
 10
2932.32131191
 20
-1782.53554449
 30
0.0
 11
2932.93985358
 21
-1782.8926597
 31
0.0
  0
LINE
  5
400
100
AcDbEntity
  8
Sc.1_5
 62
     9
  6
CONTINUOUS
370
    -2
100
AcDbLine
 10
2934.6307135
 20
-1783.86887812
 30
0.0
 11
2935.24925518
 21
-1784.22599333
 31
0.0
  0
LINE
  5
401
100
AcDbEntity
  8
Sc.1_5
 62
     9
  6
CONTINUOUS
370
    -2
100
AcDbLine
 10
2936.94011509
 20
-1785.20221176
 30
0.0
 11
2937.55865677
 21
-1785.55932696
 31
0.0
  0
LINE
  5
402
100
AcDbEntity
  8
Sc.1_5
 62
     9
  6
CONTINUOUS
370
    -2
100
AcDbLine
 10
2939.24951669
 20
-1786.53554539
 30
0.0
 11
2939.86805836
 21
-1786.89266059
 31
0.0
  0
LINE
  5
403
100
AcDbEntity
  8
Sc.1_5
 62
     9
  6
CONTINUOUS
370
    -2
100
AcDbLine
 10
2941.55891828
 20
-1787.86887902
 30
0.0
 11
2942.17745996
 21
-1788.22599422
 31
0.0
  0
LINE
  5
404
100
AcDbEntity
  8
Sc.1_5
 62
     9
  6
CONTINUOUS
370
    -2
100
AcDbLine
 10
2943.86831987
 20
-1789.20221265
 30
0.0
 11
2944.48686155
 21
-1789.55932785
 31
0.0
  0
LINE
  5
405
100
AcDbEntity
  8
Sc.1_5
 62
     9
  6
CONTINUOUS
370
    -2
100
AcDbLine
 10
2946.17772147
 20
-1790.53554628
 30
0.0
 11
2946.79626314
 21
-1790.89266148
 31
0.0
  0
LINE
  5
406
100
AcDbEntity
  8
Sc.1_5
 62
     9
  6
CONTINUOUS
370
    -2
100
AcDbLine
 10
2948.48712306
 20
-1791.86887991
 30
0.0
 11
2949.10566473
 21
-1792.22599511
 31
0.0
  0
LINE
  5
407
100
AcDbEntity
  8
Sc.1_5
 62
     9
  6
CONTINUOUS
370
    -2
100
AcDbLine
 10
2950.79652465
 20
-1793.20221354
 30
0.0
 11
2951.41506633
 21
-1793.55932875
 31
0.0
  0
LINE
  5
408
100
AcDbEntity
  8
Sc.1_5
 62
     9
  6
CONTINUOUS
370
    -2
100
AcDbLine
 10
2953.10592625
 20
-1794.53554717
 30
0.0
 11
2953.72446792
 21
-1794.89266238
 31
0.0
  0
LINE
  5
409
100
AcDbEntity
  8
Sc.1_5
 62
     9
  6
CONTINUOUS
370
    -2
100
AcDbLine
 10
2955.41532784
 20
-1795.86888081
 30
0.0
 11
2956.03386951
 21
-1796.22599601
 31
0.0
  0
LINE
  5
40A
100
AcDbEntity
  8
Sc.1_5
 62
     9
  6
CONTINUOUS
370
    -2
100
AcDbLine
 10
2957.72472943
 20
-1797.20221444
 30
0.0
 11
2958.34327111
 21
-1797.55932964
 31
0.0
  0
LINE
  5
40B
100
AcDbEntity
  8
Sc.1_5
 62
     9
  6
CONTINUOUS
370
    -2
100
AcDbLine
 10
2960.03413102
 20
-1798.53554807
 30
0.0
 11
2960.6526727
 21
-1798.89266327
 31
0.0
  0
LINE
  5
40C
100
AcDbEntity
  8
Sc.1_5
 62
     9
  6
CONTINUOUS
370
    -2
100
AcDbLine
 10
2962.34353262
 20
-1799.8688817
 30
0.0
 11
2962.96207429
 21
-1800.2259969
 31
0.0
  0
LINE
  5
40D
100
AcDbEntity
  8
Sc.1_5
 62
     9
  6
CONTINUOUS
370
    -2
100
AcDbLine
 10
2964.65293421
 20
-1801.20221533
 30
0.0
 11
2965.27147589
 21
-1801.55933053
 31
0.0
  0
LINE
  5
40E
100
AcDbEntity
  8
Sc.1_5
 62
     9
  6
CONTINUOUS
370
    -2
100
AcDbLine
 10
2966.9623358
 20
-1802.53554896
 30
0.0
 11
2967.58087748
 21
-1802.89266417
 31
0.0
  0
LINE
  5
40F
100
AcDbEntity
  8
Sc.1_5
 62
     9
  6
CONTINUOUS
370
    -2
100
AcDbLine
 10
2969.2717374
 20
-1803.86888259
 30
0.0
 11
2969.89027907
 21
-1804.2259978
 31
0.0
  0
LINE
  5
410
100
AcDbEntity
  8
Sc.1_5
 62
     9
  6
CONTINUOUS
370
    -2
100
AcDbLine
 10
2971.58113899
 20
-1805.20221623
 30
0.0
 11
2972.19968066
 21
-1805.55933143
 31
0.0
  0
LINE
  5
411
100
AcDbEntity
  8
Sc.1_5
 62
     9
  6
CONTINUOUS
370
    -2
100
AcDbLine
 10
2973.89054058
 20
-1806.53554986
 30
0.0
 11
2974.50908226
 21
-1806.89266506
 31
0.0
  0
LINE
  5
412
100
AcDbEntity
  8
Sc.1_5
 62
     9
  6
CONTINUOUS
370
    -2
100
AcDbLine
 10
2976.19994217
 20
-1807.86888349
 30
0.0
 11
2976.81848385
 21
-1808.22599869
 31
0.0
  0
LINE
  5
413
100
AcDbEntity
  8
Sc.1_5
 62
     9
  6
CONTINUOUS
370
    -2
100
AcDbLine
 10
2978.50934377
 20
-1809.20221712
 30
0.0
 11
2979.12788544
 21
-1809.55933232
 31
0.0
  0
LINE
  5
414
100
AcDbEntity
  8
Sc.1_5
 62
     9
  6
CONTINUOUS
370
    -2
100
AcDbLine
 10
2980.81874536
 20
-1810.53555075
 30
0.0
 11
2981.43728704
 21
-1810.89266595
 31
0.0
  0
LINE
  5
415
100
AcDbEntity
  8
Sc.1_5
 62
     9
  6
CONTINUOUS
370
    -2
100
AcDbLine
 10
2983.12814695
 20
-1811.86888438
 30
0.0
 11
2983.74668863
 21
-1812.22599958
 31
0.0
  0
LINE
  5
416
100
AcDbEntity
  8
Sc.1_5
 62
     9
  6
CONTINUOUS
370
    -2
100
AcDbLine
 10
2985.43754855
 20
-1813.20221801
 30
0.0
 11
2986.05609022
 21
-1813.55933322
 31
0.0
  0
LINE
  5
417
100
AcDbEntity
  8
Sc.1_5
 62
     9
  6
CONTINUOUS
370
    -2
100
AcDbLine
 10
2923.43814471
 20
-1793.30253721
 30
0.0
 11
2923.6545151
 21
-1792.92777269
 31
0.0
  0
LINE
  5
418
100
AcDbEntity
  8
Sc.1_5
 62
     9
  6
CONTINUOUS
370
    -2
100
AcDbLine
 10
2928.05694649
 20
-1795.96920366
 30
0.0
 11
2928.27331688
 21
-1795.59443914
 31
0.0
  0
LINE
  5
419
100
AcDbEntity
  8
Sc.1_5
 62
     9
  6
CONTINUOUS
370
    -2
100
AcDbLine
 10
2932.67574827
 20
-1798.63587011
 30
0.0
 11
2932.89211866
 21
-1798.26110559
 31
0.0
  0
LINE
  5
41A
100
AcDbEntity
  8
Sc.1_5
 62
     9
  6
CONTINUOUS
370
    -2
100
AcDbLine
 10
2937.29455005
 20
-1801.30253656
 30
0.0
 11
2937.51092045
 21
-1800.92777204
 31
0.0
  0
LINE
  5
41B
100
AcDbEntity
  8
Sc.1_5
 62
     9
  6
CONTINUOUS
370
    -2
100
AcDbLine
 10
2941.91335183
 20
-1803.96920301
 30
0.0
 11
2942.12972223
 21
-1803.5944385
 31
0.0
  0
LINE
  5
41C
100
AcDbEntity
  8
Sc.1_5
 62
     9
  6
CONTINUOUS
370
    -2
100
AcDbLine
 10
2946.53215361
 20
-1806.63586947
 30
0.0
 11
2946.74852401
 21
-1806.26110495
 31
0.0
  0
LINE
  5
41D
100
AcDbEntity
  8
Sc.1_5
 62
     9
  6
CONTINUOUS
370
    -2
100
AcDbLine
 10
2951.1509554
 20
-1809.30253592
 30
0.0
 11
2951.36732579
 21
-1808.9277714
 31
0.0
  0
LINE
  5
41E
100
AcDbEntity
  8
Sc.1_5
 62
     9
  6
CONTINUOUS
370
    -2
100
AcDbLine
 10
2955.76975718
 20
-1811.96920237
 30
0.0
 11
2955.98612757
 21
-1811.59443785
 31
0.0
  0
LINE
  5
41F
100
AcDbEntity
  8
Sc.1_5
 62
     9
  6
CONTINUOUS
370
    -2
100
AcDbLine
 10
2960.38855896
 20
-1814.63586882
 30
0.0
 11
2960.60492936
 21
-1814.2611043
 31
0.0
  0
LINE
  5
420
100
AcDbEntity
  8
Sc.1_5
 62
     9
  6
CONTINUOUS
370
    -2
100
AcDbLine
 10
2965.00736074
 20
-1817.30253527
 30
0.0
 11
2965.22373114
 21
-1816.92777076
 31
0.0
  0
LINE
  5
421
100
AcDbEntity
  8
Sc.1_5
 62
     9
  6
CONTINUOUS
370
    -2
100
AcDbLine
 10
2969.62616252
 20
-1819.96920173
 30
0.0
 11
2969.84253292
 21
-1819.59443721
 31
0.0
  0
LINE
  5
422
100
AcDbEntity
  8
Sc.1_5
 62
     9
  6
CONTINUOUS
370
    -2
100
AcDbLine
 10
2974.24496431
 20
-1822.63586818
 30
0.0
 11
2974.4613347
 21
-1822.26110366
 31
0.0
  0
LINE
  5
423
100
AcDbEntity
  8
Sc.1_5
 62
     9
  6
CONTINUOUS
370
    -2
100
AcDbLine
 10
2978.86376609
 20
-1825.30253463
 30
0.0
 11
2979.08013648
 21
-1824.92777011
 31
0.0
  0
LINE
  5
424
100
AcDbEntity
  8
Sc.1_5
 62
     9
  6
CONTINUOUS
370
    -2
100
AcDbLine
 10
2926.67844732
 20
-1782.35683602
 30
0.0
 11
2926.89481771
 21
-1781.9820715
 31
0.0
  0
LINE
  5
425
100
AcDbEntity
  8
Sc.1_5
 62
     9
  6
CONTINUOUS
370
    -2
100
AcDbLine
 10
2931.2972491
 20
-1785.02350247
 30
0.0
 11
2931.5136195
 21
-1784.64873795
 31
0.0
  0
LINE
  5
426
100
AcDbEntity
  8
Sc.1_5
 62
     9
  6
CONTINUOUS
370
    -2
100
AcDbLine
 10
2935.91605088
 20
-1787.69016892
 30
0.0
 11
2936.13242128
 21
-1787.3154044
 31
0.0
  0
LINE
  5
427
100
AcDbEntity
  8
Sc.1_5
 62
     9
  6
CONTINUOUS
370
    -2
100
AcDbLine
 10
2940.53485266
 20
-1790.35683537
 30
0.0
 11
2940.75122306
 21
-1789.98207086
 31
0.0
  0
LINE
  5
428
100
AcDbEntity
  8
Sc.1_5
 62
     9
  6
CONTINUOUS
370
    -2
100
AcDbLine
 10
2945.15365445
 20
-1793.02350183
 30
0.0
 11
2945.37002484
 21
-1792.64873731
 31
0.0
  0
LINE
  5
429
100
AcDbEntity
  8
Sc.1_5
 62
     9
  6
CONTINUOUS
370
    -2
100
AcDbLine
 10
2949.77245623
 20
-1795.69016828
 30
0.0
 11
2949.98882662
 21
-1795.31540376
 31
0.0
  0
LINE
  5
42A
100
AcDbEntity
  8
Sc.1_5
 62
     9
  6
CONTINUOUS
370
    -2
100
AcDbLine
 10
2954.39125801
 20
-1798.35683473
 30
0.0
 11
2954.60762841
 21
-1797.98207021
 31
0.0
  0
LINE
  5
42B
100
AcDbEntity
  8
Sc.1_5
 62
     9
  6
CONTINUOUS
370
    -2
100
AcDbLine
 10
2959.01005979
 20
-1801.02350118
 30
0.0
 11
2959.22643019
 21
-1800.64873666
 31
0.0
  0
LINE
  5
42C
100
AcDbEntity
  8
Sc.1_5
 62
     9
  6
CONTINUOUS
370
    -2
100
AcDbLine
 10
2963.62886157
 20
-1803.69016763
 30
0.0
 11
2963.84523197
 21
-1803.31540312
 31
0.0
  0
LINE
  5
42D
100
AcDbEntity
  8
Sc.1_5
 62
     9
  6
CONTINUOUS
370
    -2
100
AcDbLine
 10
2968.24766336
 20
-1806.35683409
 30
0.0
 11
2968.46403375
 21
-1805.98206957
 31
0.0
  0
LINE
  5
42E
100
AcDbEntity
  8
Sc.1_5
 62
     9
  6
CONTINUOUS
370
    -2
100
AcDbLine
 10
2972.86646514
 20
-1809.02350054
 30
0.0
 11
2973.08283553
 21
-1808.64873602
 31
0.0
  0
LINE
  5
42F
100
AcDbEntity
  8
Sc.1_5
 62
     9
  6
CONTINUOUS
370
    -2
100
AcDbLine
 10
2977.48526692
 20
-1811.69016699
 30
0.0
 11
2977.70163731
 21
-1811.31540247
 31
0.0
  0
LINE
  5
430
100
AcDbEntity
  8
Sc.1_5
 62
     9
  6
CONTINUOUS
370
    -2
100
AcDbLine
 10
2982.1040687
 20
-1814.35683344
 30
0.0
 11
2982.3204391
 21
-1813.98206892
 31
0.0
  0
LINE
  5
431
100
AcDbEntity
  8
Sc.1_5
 62
     9
  6
CONTINUOUS
370
    -2
100
AcDbLine
 10
2923.88578219
 20
-1792.40067376
 30
0.0
 11
2926.44777232
 21
-1782.88408002
 31
0.0
  0
LINE
  5
432
100
AcDbEntity
  8
Sc.1_5
 62
     9
  6
CONTINUOUS
370
    -2
100
AcDbLine
 10
2928.50457846
 20
-1795.06734759
 30
0.0
 11
2931.06656859
 21
-1785.55075385
 31
0.0
  0
LINE
  5
433
100
AcDbEntity
  8
Sc.1_5
 62
     9
  6
CONTINUOUS
370
    -2
100
AcDbLine
 10
2933.12337473
 20
-1797.73402142
 30
0.0
 11
2935.68536486
 21
-1788.21742768
 31
0.0
  0
LINE
  5
434
100
AcDbEntity
  8
Sc.1_5
 62
     9
  6
CONTINUOUS
370
    -2
100
AcDbLine
 10
2937.74217099
 20
-1800.40069525
 30
0.0
 11
2940.30416113
 21
-1790.88410151
 31
0.0
  0
LINE
  5
435
100
AcDbEntity
  8
Sc.1_5
 62
     9
  6
CONTINUOUS
370
    -2
100
AcDbLine
 10
2942.36096726
 20
-1803.06736908
 30
0.0
 11
2944.9229574
 21
-1793.55077534
 31
0.0
  0
LINE
  5
436
100
AcDbEntity
  8
Sc.1_5
 62
     9
  6
CONTINUOUS
370
    -2
100
AcDbLine
 10
2946.97976353
 20
-1805.73404291
 30
0.0
 11
2949.54175366
 21
-1796.21744917
 31
0.0
  0
LINE
  5
437
100
AcDbEntity
  8
Sc.1_5
 62
     9
  6
CONTINUOUS
370
    -2
100
AcDbLine
 10
2951.5985598
 20
-1808.40071674
 30
0.0
 11
2954.16054993
 21
-1798.884123
 31
0.0
  0
LINE
  5
438
100
AcDbEntity
  8
Sc.1_5
 62
     9
  6
CONTINUOUS
370
    -2
100
AcDbLine
 10
2956.21735607
 20
-1811.06739057
 30
0.0
 11
2958.7793462
 21
-1801.55079684
 31
0.0
  0
LINE
  5
439
100
AcDbEntity
  8
Sc.1_5
 62
     9
  6
CONTINUOUS
370
    -2
100
AcDbLine
 10
2960.83615234
 20
-1813.73406441
 30
0.0
 11
2963.39814247
 21
-1804.21747067
 31
0.0
  0
LINE
  5
43A
100
AcDbEntity
  8
Sc.1_5
 62
     9
  6
CONTINUOUS
370
    -2
100
AcDbLine
 10
2965.4549486
 20
-1816.40073824
 30
0.0
 11
2968.01693874
 21
-1806.8841445
 31
0.0
  0
LINE
  5
43B
100
AcDbEntity
  8
Sc.1_5
 62
     9
  6
CONTINUOUS
370
    -2
100
AcDbLine
 10
2970.07374487
 20
-1819.06741207
 30
0.0
 11
2972.63573501
 21
-1809.55081833
 31
0.0
  0
LINE
  5
43C
100
AcDbEntity
  8
Sc.1_5
 62
     9
  6
CONTINUOUS
370
    -2
100
AcDbLine
 10
2974.69254114
 20
-1821.7340859
 30
0.0
 11
2977.25453127
 21
-1812.21749216
 31
0.0
  0
LINE
  5
43D
100
AcDbEntity
  8
Sc.1_5
 62
     9
  6
CONTINUOUS
370
    -2
100
AcDbLine
 10
2979.31133741
 20
-1824.40075973
 30
0.0
 11
2981.87332754
 21
-1814.88416599
 31
0.0
  0
LINE
  5
43E
100
AcDbEntity
  8
Sc.1_5
 62
     9
  6
CONTINUOUS
370
    -2
100
AcDbLine
 10
2923.9953613
 20
-1792.46393929
 30
0.0
 11
2930.95597817
 21
-1785.48689388
 31
0.0
  0
LINE
  5
43F
100
AcDbEntity
  8
Sc.1_5
 62
     9
  6
CONTINUOUS
370
    -2
100
AcDbLine
 10
2928.61416671
 20
-1795.13059728
 30
0.0
 11
2935.57478358
 21
-1788.15355187
 31
0.0
  0
LINE
  5
440
100
AcDbEntity
  8
Sc.1_5
 62
     9
  6
CONTINUOUS
370
    -2
100
AcDbLine
 10
2933.23297213
 20
-1797.79725526
 30
0.0
 11
2940.193589
 21
-1790.82020985
 31
0.0
  0
LINE
  5
441
100
AcDbEntity
  8
Sc.1_5
 62
     9
  6
CONTINUOUS
370
    -2
100
AcDbLine
 10
2937.85177754
 20
-1800.46391325
 30
0.0
 11
2944.81239441
 21
-1793.48686784
 31
0.0
  0
LINE
  5
442
100
AcDbEntity
  8
Sc.1_5
 62
     9
  6
CONTINUOUS
370
    -2
100
AcDbLine
 10
2942.47058296
 20
-1803.13057124
 30
0.0
 11
2949.43119983
 21
-1796.15352583
 31
0.0
  0
LINE
  5
443
100
AcDbEntity
  8
Sc.1_5
 62
     9
  6
CONTINUOUS
370
    -2
100
AcDbLine
 10
2947.08938837
 20
-1805.79722923
 30
0.0
 11
2954.05000524
 21
-1798.82018382
 31
0.0
  0
LINE
  5
444
100
AcDbEntity
  8
Sc.1_5
 62
     9
  6
CONTINUOUS
370
    -2
100
AcDbLine
 10
2951.70819379
 20
-1808.46388722
 30
0.0
 11
2958.66881066
 21
-1801.48684181
 31
0.0
  0
LINE
  5
445
100
AcDbEntity
  8
Sc.1_5
 62
     9
  6
CONTINUOUS
370
    -2
100
AcDbLine
 10
2956.3269992
 20
-1811.1305452
 30
0.0
 11
2963.28761607
 21
-1804.15349979
 31
0.0
  0
LINE
  5
446
100
AcDbEntity
  8
Sc.1_5
 62
     9
  6
CONTINUOUS
370
    -2
100
AcDbLine
 10
2960.94580462
 20
-1813.79720319
 30
0.0
 11
2967.90642149
 21
-1806.82015778
 31
0.0
  0
LINE
  5
447
100
AcDbEntity
  8
Sc.1_5
 62
     9
  6
CONTINUOUS
370
    -2
100
AcDbLine
 10
2965.56461003
 20
-1816.46386118
 30
0.0
 11
2972.5252269
 21
-1809.48681577
 31
0.0
  0
LINE
  5
448
100
AcDbEntity
  8
Sc.1_5
 62
     9
  6
CONTINUOUS
370
    -2
100
AcDbLine
 10
2970.18341545
 20
-1819.13051917
 30
0.0
 11
2977.14403232
 21
-1812.15347376
 31
0.0
  0
LINE
  5
449
100
AcDbEntity
  8
Sc.1_5
 62
     9
  6
CONTINUOUS
370
    -2
100
AcDbLine
 10
2974.80222086
 20
-1821.79717715
 30
0.0
 11
2981.76283773
 21
-1814.82013175
 31
0.0
  0
LINE
  5
44A
100
AcDbEntity
  8
Sc.1_5
 62
     9
  6
CONTINUOUS
370
    -2
100
AcDbLine
 10
2979.42102628
 20
-1824.46383514
 30
0.0
 11
2980.45090782
 21
-1823.43152287
 31
0.0
  0
LINE
  5
44B
100
AcDbEntity
  8
Sc.1_5
 62
     9
  6
CONTINUOUS
370
    -2
100
AcDbLine
 10
2934.17745747
 20
-1802.08239846
 30
0.0
 11
2934.87844237
 21
-1802.26688541
 31
0.0
  0
LINE
  5
44C
100
AcDbEntity
  8
Sc.1_5
 62
     9
  6
CONTINUOUS
370
    -2
100
AcDbLine
 10
2938.79625956
 20
-1804.74906509
 30
0.0
 11
2939.49724393
 21
-1804.9335519
 31
0.0
  0
LINE
  5
44D
100
AcDbEntity
  8
Sc.1_5
 62
     9
  6
CONTINUOUS
370
    -2
100
AcDbLine
 10
2943.41506165
 20
-1807.41573172
 30
0.0
 11
2944.1160455
 21
-1807.6002184
 31
0.0
  0
LINE
  5
44E
100
AcDbEntity
  8
Sc.1_5
 62
     9
  6
CONTINUOUS
370
    -2
100
AcDbLine
 10
2948.03386374
 20
-1810.08239835
 30
0.0
 11
2948.73484707
 21
-1810.26688489
 31
0.0
  0
LINE
  5
44F
100
AcDbEntity
  8
Sc.1_5
 62
     9
  6
CONTINUOUS
370
    -2
100
AcDbLine
 10
2952.65266583
 20
-1812.74906498
 30
0.0
 11
2953.35364863
 21
-1812.93355138
 31
0.0
  0
LINE
  5
450
100
AcDbEntity
  8
Sc.1_5
 62
     9
  6
CONTINUOUS
370
    -2
100
AcDbLine
 10
2957.27146792
 20
-1815.41573161
 30
0.0
 11
2957.9724502
 21
-1815.60021787
 31
0.0
  0
LINE
  5
451
100
AcDbEntity
  8
Sc.1_5
 62
     9
  6
CONTINUOUS
370
    -2
100
AcDbLine
 10
2961.89027001
 20
-1818.08239824
 30
0.0
 11
2962.59125176
 21
-1818.26688437
 31
0.0
  0
LINE
  5
452
100
AcDbEntity
  8
Sc.1_5
 62
     9
  6
CONTINUOUS
370
    -2
100
AcDbLine
 10
2966.5090721
 20
-1820.74906487
 30
0.0
 11
2967.21005333
 21
-1820.93355086
 31
0.0
  0
LINE
  5
453
100
AcDbEntity
  8
Sc.1_5
 62
     9
  6
CONTINUOUS
370
    -2
100
AcDbLine
 10
2971.12787419
 20
-1823.4157315
 30
0.0
 11
2971.82885489
 21
-1823.60021735
 31
0.0
  0
LINE
  5
454
100
AcDbEntity
  8
Sc.1_5
 62
     9
  6
CONTINUOUS
370
    -2
100
AcDbLine
 10
2975.74667628
 20
-1826.08239813
 30
0.0
 11
2976.44765646
 21
-1826.26688384
 31
0.0
  0
LINE
  5
455
100
AcDbEntity
  8
Sc.1_5
 62
     9
  6
CONTINUOUS
370
    -2
100
AcDbLine
 10
2938.17772477
 20
-1804.39195254
 30
0.0
 11
2937.66745465
 21
-1803.87711807
 31
0.0
  0
LINE
  5
456
100
AcDbEntity
  8
Sc.1_5
 62
     9
  6
CONTINUOUS
370
    -2
100
AcDbLine
 10
2942.79652683
 20
-1807.05861817
 30
0.0
 11
2942.28625671
 21
-1806.5437837
 31
0.0
  0
LINE
  5
457
100
AcDbEntity
  8
Sc.1_5
 62
     9
  6
CONTINUOUS
370
    -2
100
AcDbLine
 10
2947.4153289
 20
-1809.7252838
 30
0.0
 11
2946.90505878
 21
-1809.21044933
 31
0.0
  0
LINE
  5
458
100
AcDbEntity
  8
Sc.1_5
 62
     9
  6
CONTINUOUS
370
    -2
100
AcDbLine
 10
2952.03413096
 20
-1812.39194943
 30
0.0
 11
2951.52386084
 21
-1811.87711496
 31
0.0
  0
LINE
  5
459
100
AcDbEntity
  8
Sc.1_5
 62
     9
  6
CONTINUOUS
370
    -2
100
AcDbLine
 10
2956.65293302
 20
-1815.05861506
 30
0.0
 11
2956.1426629
 21
-1814.54378059
 31
0.0
  0
LINE
  5
45A
100
AcDbEntity
  8
Sc.1_5
 62
     9
  6
CONTINUOUS
370
    -2
100
AcDbLine
 10
2961.27173509
 20
-1817.72528069
 30
0.0
 11
2960.76146497
 21
-1817.21044622
 31
0.0
  0
LINE
  5
45B
100
AcDbEntity
  8
Sc.1_5
 62
     9
  6
CONTINUOUS
370
    -2
100
AcDbLine
 10
2965.89053715
 20
-1820.39194632
 30
0.0
 11
2965.38026703
 21
-1819.87711185
 31
0.0
  0
LINE
  5
45C
100
AcDbEntity
  8
Sc.1_5
 62
     9
  6
CONTINUOUS
370
    -2
100
AcDbLine
 10
2970.50933921
 20
-1823.05861195
 30
0.0
 11
2969.99906909
 21
-1822.54377748
 31
0.0
  0
LINE
  5
45D
100
AcDbEntity
  8
Sc.1_5
 62
     9
  6
CONTINUOUS
370
    -2
100
AcDbLine
 10
2975.12814128
 20
-1825.72527758
 30
0.0
 11
2974.61787116
 21
-1825.21044311
 31
0.0
  0
LINE
  5
45E
100
AcDbEntity
  8
Sc.1_5
 62
     9
  6
CONTINUOUS
370
    -2
100
AcDbLine
 10
2929.31090774
 20
-1781.01771771
 30
0.0
 11
2930.01190255
 21
-1781.20220727
 31
0.0
  0
LINE
  5
45F
100
AcDbEntity
  8
Sc.1_5
 62
     9
  6
CONTINUOUS
370
    -2
100
AcDbLine
 10
2933.9297093
 20
-1783.6843842
 30
0.0
 11
2934.63070411
 21
-1783.86887376
 31
0.0
  0
LINE
  5
460
100
AcDbEntity
  8
Sc.1_5
 62
     9
  6
CONTINUOUS
370
    -2
100
AcDbLine
 10
2938.54851087
 20
-1786.3510507
 30
0.0
 11
2939.24950568
 21
-1786.53554025
 31
0.0
  0
LINE
  5
461
100
AcDbEntity
  8
Sc.1_5
 62
     9
  6
CONTINUOUS
370
    -2
100
AcDbLine
 10
2943.16731243
 20
-1789.01771719
 30
0.0
 11
2943.86830724
 21
-1789.20220675
 31
0.0
  0
LINE
  5
462
100
AcDbEntity
  8
Sc.1_5
 62
     9
  6
CONTINUOUS
370
    -2
100
AcDbLine
 10
2947.786114
 20
-1791.68438368
 30
0.0
 11
2948.48710881
 21
-1791.86887324
 31
0.0
  0
LINE
  5
463
100
AcDbEntity
  8
Sc.1_5
 62
     9
  6
CONTINUOUS
370
    -2
100
AcDbLine
 10
2952.40491556
 20
-1794.35105017
 30
0.0
 11
2953.10591037
 21
-1794.53553973
 31
0.0
  0
LINE
  5
464
100
AcDbEntity
  8
Sc.1_5
 62
     9
  6
CONTINUOUS
370
    -2
100
AcDbLine
 10
2957.02371713
 20
-1797.01771666
 30
0.0
 11
2957.72471194
 21
-1797.20220622
 31
0.0
  0
LINE
  5
465
100
AcDbEntity
  8
Sc.1_5
 62
     9
  6
CONTINUOUS
370
    -2
100
AcDbLine
 10
2961.64251869
 20
-1799.68438316
 30
0.0
 11
2962.34351351
 21
-1799.86887272
 31
0.0
  0
LINE
  5
466
100
AcDbEntity
  8
Sc.1_5
 62
     9
  6
CONTINUOUS
370
    -2
100
AcDbLine
 10
2966.26132026
 20
-1802.35104965
 30
0.0
 11
2966.96231507
 21
-1802.53553921
 31
0.0
  0
LINE
  5
467
100
AcDbEntity
  8
Sc.1_5
 62
     9
  6
CONTINUOUS
370
    -2
100
AcDbLine
 10
2970.88012182
 20
-1805.01771614
 30
0.0
 11
2971.58111664
 21
-1805.2022057
 31
0.0
  0
LINE
  5
468
100
AcDbEntity
  8
Sc.1_5
 62
     9
  6
CONTINUOUS
370
    -2
100
AcDbLine
 10
2975.49892339
 20
-1807.68438263
 30
0.0
 11
2976.1999182
 21
-1807.86887219
 31
0.0
  0
LINE
  5
469
100
AcDbEntity
  8
Sc.1_5
 62
     9
  6
CONTINUOUS
370
    -2
100
AcDbLine
 10
2980.11772495
 20
-1810.35104913
 30
0.0
 11
2980.81871977
 21
-1810.53553868
 31
0.0
  0
LINE
  5
46A
100
AcDbEntity
  8
Sc.1_5
 62
     9
  6
CONTINUOUS
370
    -2
100
AcDbLine
 10
2984.73652652
 20
-1813.01771562
 30
0.0
 11
2985.43752133
 21
-1813.20220518
 31
0.0
  0
LINE
  5
46B
100
AcDbEntity
  8
Sc.1_5
 62
     9
  6
CONTINUOUS
370
    -2
100
AcDbLine
 10
2986.05607717
 20
-1813.55932526
 30
0.0
 11
2986.11582211
 21
-1813.61960462
 31
0.0
  0
LINE
  5
46C
100
AcDbEntity
  8
Sc.1_5
 62
     9
  6
CONTINUOUS
370
    -2
100
AcDbLine
 10
2981.43727547
 20
-1810.89265902
 30
0.0
 11
2981.94754552
 21
-1811.40749355
 31
0.0
  0
LINE
  5
46D
100
AcDbEntity
  8
Sc.1_5
 62
     9
  6
CONTINUOUS
370
    -2
100
AcDbLine
 10
2976.81847376
 20
-1808.22599277
 30
0.0
 11
2977.32874381
 21
-1808.74082731
 31
0.0
  0
LINE
  5
46E
100
AcDbEntity
  8
Sc.1_5
 62
     9
  6
CONTINUOUS
370
    -2
100
AcDbLine
 10
2972.19967205
 20
-1805.55932653
 30
0.0
 11
2972.7099421
 21
-1806.07416106
 31
0.0
  0
LINE
  5
46F
100
AcDbEntity
  8
Sc.1_5
 62
     9
  6
CONTINUOUS
370
    -2
100
AcDbLine
 10
2967.58087034
 20
-1802.89266028
 30
0.0
 11
2968.09114039
 21
-1803.40749482
 31
0.0
  0
LINE
  5
470
100
AcDbEntity
  8
Sc.1_5
 62
     9
  6
CONTINUOUS
370
    -2
100
AcDbLine
 10
2962.96206863
 20
-1800.22599404
 30
0.0
 11
2963.47233868
 21
-1800.74082857
 31
0.0
  0
LINE
  5
471
100
AcDbEntity
  8
Sc.1_5
 62
     9
  6
CONTINUOUS
370
    -2
100
AcDbLine
 10
2958.34326692
 20
-1797.55932779
 30
0.0
 11
2958.85353698
 21
-1798.07416233
 31
0.0
  0
LINE
  5
472
100
AcDbEntity
  8
Sc.1_5
 62
     9
  6
CONTINUOUS
370
    -2
100
AcDbLine
 10
2953.72446522
 20
-1794.89266155
 30
0.0
 11
2954.23473527
 21
-1795.40749609
 31
0.0
  0
LINE
  5
473
100
AcDbEntity
  8
Sc.1_5
 62
     9
  6
CONTINUOUS
370
    -2
100
AcDbLine
 10
2949.10566351
 20
-1792.22599531
 30
0.0
 11
2949.61593356
 21
-1792.74082984
 31
0.0
  0
LINE
  5
474
100
AcDbEntity
  8
Sc.1_5
 62
     9
  6
CONTINUOUS
370
    -2
100
AcDbLine
 10
2944.4868618
 20
-1789.55932906
 30
0.0
 11
2944.99713185
 21
-1790.0741636
 31
0.0
  0
LINE
  5
475
100
AcDbEntity
  8
Sc.1_5
 62
     9
  6
CONTINUOUS
370
    -2
100
AcDbLine
 10
2939.86806009
 20
-1786.89266282
 30
0.0
 11
2940.37833014
 21
-1787.40749735
 31
0.0
  0
LINE
  5
476
100
AcDbEntity
  8
Sc.1_5
 62
     9
  6
CONTINUOUS
370
    -2
100
AcDbLine
 10
2935.24925838
 20
-1784.22599657
 30
0.0
 11
2935.75952843
 21
-1784.74083111
 31
0.0
  0
LINE
  5
477
100
AcDbEntity
  8
Sc.1_5
 62
     9
  6
CONTINUOUS
370
    -2
100
AcDbLine
 10
2930.63045667
 20
-1781.55933033
 30
0.0
 11
2931.14072673
 21
-1782.07416486
 31
0.0
  0
LINE
  5
478
100
AcDbEntity
  8
Sc.1_5
 62
     9
  6
CONTINUOUS
370
    -2
100
AcDbLine
 10
2921.37072565
 20
-1794.26102265
 30
0.0
 11
2921.71832895
 21
-1794.25517516
 31
0.0
  0
LINE
  5
479
100
AcDbEntity
  8
Sc.1_5
 62
     9
  6
CONTINUOUS
370
    -2
100
AcDbLine
 10
2925.98952818
 20
-1796.92768953
 30
0.0
 11
2926.33713155
 21
-1796.92184204
 31
0.0
  0
LINE
  5
47A
100
AcDbEntity
  8
Sc.1_5
 62
     9
  6
CONTINUOUS
370
    -2
100
AcDbLine
 10
2930.60833071
 20
-1799.59435641
 30
0.0
 11
2930.95593415
 21
-1799.58850892
 31
0.0
  0
LINE
  5
47B
100
AcDbEntity
  8
Sc.1_5
 62
     9
  6
CONTINUOUS
370
    -2
100
AcDbLine
 10
2934.87845606
 20
-1802.26688885
 30
0.0
 11
2935.57473674
 21
-1802.2551758
 31
0.0
  0
LINE
  5
47C
100
AcDbEntity
  8
Sc.1_5
 62
     9
  6
CONTINUOUS
370
    -2
100
AcDbLine
 10
2939.49725866
 20
-1804.93355574
 30
0.0
 11
2940.19353934
 21
-1804.92184268
 31
0.0
  0
LINE
  5
47D
100
AcDbEntity
  8
Sc.1_5
 62
     9
  6
CONTINUOUS
370
    -2
100
AcDbLine
 10
2944.11606126
 20
-1807.60022262
 30
0.0
 11
2944.81234194
 21
-1807.58850957
 31
0.0
  0
LINE
  5
47E
100
AcDbEntity
  8
Sc.1_5
 62
     9
  6
CONTINUOUS
370
    -2
100
AcDbLine
 10
2948.73486385
 20
-1810.2668895
 30
0.0
 11
2949.43114454
 21
-1810.25517645
 31
0.0
  0
LINE
  5
47F
100
AcDbEntity
  8
Sc.1_5
 62
     9
  6
CONTINUOUS
370
    -2
100
AcDbLine
 10
2953.35366645
 20
-1812.93355638
 30
0.0
 11
2954.04994713
 21
-1812.92184333
 31
0.0
  0
LINE
  5
480
100
AcDbEntity
  8
Sc.1_5
 62
     9
  6
CONTINUOUS
370
    -2
100
AcDbLine
 10
2957.97246905
 20
-1815.60022326
 30
0.0
 11
2958.66874973
 21
-1815.58851021
 31
0.0
  0
LINE
  5
481
100
AcDbEntity
  8
Sc.1_5
 62
     9
  6
CONTINUOUS
370
    -2
100
AcDbLine
 10
2962.59127165
 20
-1818.26689015
 30
0.0
 11
2963.28755233
 21
-1818.2551771
 31
0.0
  0
LINE
  5
482
100
AcDbEntity
  8
Sc.1_5
 62
     9
  6
CONTINUOUS
370
    -2
100
AcDbLine
 10
2967.21007424
 20
-1820.93355703
 30
0.0
 11
2967.90635493
 21
-1820.92184398
 31
0.0
  0
LINE
  5
483
100
AcDbEntity
  8
Sc.1_5
 62
     9
  6
CONTINUOUS
370
    -2
100
AcDbLine
 10
2971.82887684
 20
-1823.60022391
 30
0.0
 11
2972.52515752
 21
-1823.58851086
 31
0.0
  0
LINE
  5
484
100
AcDbEntity
  8
Sc.1_5
 62
     9
  6
CONTINUOUS
370
    -2
100
AcDbLine
 10
2976.44767944
 20
-1826.26689079
 30
0.0
 11
2977.14396012
 21
-1826.25517774
 31
0.0
  0
LINE
  5
485
100
AcDbEntity
  8
Sc.1_5
 62
     9
  6
CONTINUOUS
370
    -2
100
AcDbLine
 10
2923.63836258
 20
-1795.57024344
 30
0.0
 11
2923.46962538
 21
-1795.26628702
 31
0.0
  0
LINE
  5
486
100
AcDbEntity
  8
Sc.1_5
 62
     9
  6
CONTINUOUS
370
    -2
100
AcDbLine
 10
2928.2571646
 20
-1798.23691003
 30
0.0
 11
2928.08842776
 21
-1797.93295428
 31
0.0
  0
LINE
  5
487
100
AcDbEntity
  8
Sc.1_5
 62
     9
  6
CONTINUOUS
370
    -2
100
AcDbLine
 10
2932.87596661
 20
-1800.90357661
 30
0.0
 11
2932.70723015
 21
-1800.59962153
 31
0.0
  0
LINE
  5
488
100
AcDbEntity
  8
Sc.1_5
 62
     9
  6
CONTINUOUS
370
    -2
100
AcDbLine
 10
2937.66402903
 20
-1803.87514208
 30
0.0
 11
2937.32603253
 21
-1803.26628878
 31
0.0
  0
LINE
  5
489
100
AcDbEntity
  8
Sc.1_5
 62
     9
  6
CONTINUOUS
370
    -2
100
AcDbLine
 10
2942.28283142
 20
-1806.54180934
 30
0.0
 11
2941.94483492
 21
-1805.93295603
 31
0.0
  0
LINE
  5
48A
100
AcDbEntity
  8
Sc.1_5
 62
     9
  6
CONTINUOUS
370
    -2
100
AcDbLine
 10
2946.9016338
 20
-1809.20847659
 30
0.0
 11
2946.5636373
 21
-1808.59962328
 31
0.0
  0
LINE
  5
48B
100
AcDbEntity
  8
Sc.1_5
 62
     9
  6
CONTINUOUS
370
    -2
100
AcDbLine
 10
2951.52043619
 20
-1811.87514384
 30
0.0
 11
2951.18243969
 21
-1811.26629053
 31
0.0
  0
LINE
  5
48C
100
AcDbEntity
  8
Sc.1_5
 62
     9
  6
CONTINUOUS
370
    -2
100
AcDbLine
 10
2956.13923857
 20
-1814.54181109
 30
0.0
 11
2955.80124207
 21
-1813.93295778
 31
0.0
  0
LINE
  5
48D
100
AcDbEntity
  8
Sc.1_5
 62
     9
  6
CONTINUOUS
370
    -2
100
AcDbLine
 10
2960.75804096
 20
-1817.20847834
 30
0.0
 11
2960.42004446
 21
-1816.59962503
 31
0.0
  0
LINE
  5
48E
100
AcDbEntity
  8
Sc.1_5
 62
     9
  6
CONTINUOUS
370
    -2
100
AcDbLine
 10
2965.37684334
 20
-1819.87514559
 30
0.0
 11
2965.03884684
 21
-1819.26629228
 31
0.0
  0
LINE
  5
48F
100
AcDbEntity
  8
Sc.1_5
 62
     9
  6
CONTINUOUS
370
    -2
100
AcDbLine
 10
2969.99564573
 20
-1822.54181284
 30
0.0
 11
2969.65764922
 21
-1821.93295954
 31
0.0
  0
LINE
  5
490
100
AcDbEntity
  8
Sc.1_5
 62
     9
  6
CONTINUOUS
370
    -2
100
AcDbLine
 10
2974.61444811
 20
-1825.20848009
 30
0.0
 11
2974.27645161
 21
-1824.59962679
 31
0.0
  0
LINE
  5
491
100
AcDbEntity
  8
Sc.1_5
 62
     9
  6
CONTINUOUS
370
    -2
100
AcDbLine
 10
2928.61463857
 20
-1781.02943522
 30
0.0
 11
2929.31091925
 21
-1781.01772217
 31
0.0
  0
LINE
  5
492
100
AcDbEntity
  8
Sc.1_5
 62
     9
  6
CONTINUOUS
370
    -2
100
AcDbLine
 10
2933.23344117
 20
-1783.6961021
 30
0.0
 11
2933.92972185
 21
-1783.68438905
 31
0.0
  0
LINE
  5
493
100
AcDbEntity
  8
Sc.1_5
 62
     9
  6
CONTINUOUS
370
    -2
100
AcDbLine
 10
2937.85224377
 20
-1786.36276898
 30
0.0
 11
2938.54852445
 21
-1786.35105593
 31
0.0
  0
LINE
  5
494
100
AcDbEntity
  8
Sc.1_5
 62
     9
  6
CONTINUOUS
370
    -2
100
AcDbLine
 10
2942.47104636
 20
-1789.02943586
 30
0.0
 11
2943.16732705
 21
-1789.01772281
 31
0.0
  0
LINE
  5
495
100
AcDbEntity
  8
Sc.1_5
 62
     9
  6
CONTINUOUS
370
    -2
100
AcDbLine
 10
2947.08984896
 20
-1791.69610275
 30
0.0
 11
2947.78612964
 21
-1791.6843897
 31
0.0
  0
LINE
  5
496
100
AcDbEntity
  8
Sc.1_5
 62
     9
  6
CONTINUOUS
370
    -2
100
AcDbLine
 10
2951.70865156
 20
-1794.36276963
 30
0.0
 11
2952.40493224
 21
-1794.35105658
 31
0.0
  0
LINE
  5
497
100
AcDbEntity
  8
Sc.1_5
 62
     9
  6
CONTINUOUS
370
    -2
100
AcDbLine
 10
2956.32745416
 20
-1797.02943651
 30
0.0
 11
2957.02373484
 21
-1797.01772346
 31
0.0
  0
LINE
  5
498
100
AcDbEntity
  8
Sc.1_5
 62
     9
  6
CONTINUOUS
370
    -2
100
AcDbLine
 10
2960.94625675
 20
-1799.69610339
 30
0.0
 11
2961.64253744
 21
-1799.68439034
 31
0.0
  0
LINE
  5
499
100
AcDbEntity
  8
Sc.1_5
 62
     9
  6
CONTINUOUS
370
    -2
100
AcDbLine
 10
2965.56505935
 20
-1802.36277028
 30
0.0
 11
2966.26134003
 21
-1802.35105722
 31
0.0
  0
LINE
  5
49A
100
AcDbEntity
  8
Sc.1_5
 62
     9
  6
CONTINUOUS
370
    -2
100
AcDbLine
 10
2970.18386195
 20
-1805.02943716
 30
0.0
 11
2970.88014263
 21
-1805.01772411
 31
0.0
  0
LINE
  5
49B
100
AcDbEntity
  8
Sc.1_5
 62
     9
  6
CONTINUOUS
370
    -2
100
AcDbLine
 10
2974.80266455
 20
-1807.69610404
 30
0.0
 11
2975.49894523
 21
-1807.68439099
 31
0.0
  0
LINE
  5
49C
100
AcDbEntity
  8
Sc.1_5
 62
     9
  6
CONTINUOUS
370
    -2
100
AcDbLine
 10
2979.42146715
 20
-1810.36277092
 30
0.0
 11
2980.11774783
 21
-1810.35105787
 31
0.0
  0
LINE
  5
49D
100
AcDbEntity
  8
Sc.1_5
 62
     9
  6
CONTINUOUS
370
    -2
100
AcDbLine
 10
2984.04026974
 20
-1813.0294378
 30
0.0
 11
2984.73655043
 21
-1813.01772475
 31
0.0
  0
LINE
  5
49E
100
AcDbEntity
  8
Sc.1_5
 62
     9
  6
CONTINUOUS
370
    -2
100
AcDbLine
 10
2981.94754781
 20
-1811.40749268
 30
0.0
 11
2982.28554435
 21
-1812.01634596
 31
0.0
  0
LINE
  5
49F
100
AcDbEntity
  8
Sc.1_5
 62
     9
  6
CONTINUOUS
370
    -2
100
AcDbLine
 10
2977.32874525
 20
-1808.74082574
 30
0.0
 11
2977.66674179
 21
-1809.34967902
 31
0.0
  0
LINE
  5
4A0
100
AcDbEntity
  8
Sc.1_5
 62
     9
  6
CONTINUOUS
370
    -2
100
AcDbLine
 10
2972.70994268
 20
-1806.07415879
 30
0.0
 11
2973.04793922
 21
-1806.68301208
 31
0.0
  0
LINE
  5
4A1
100
AcDbEntity
  8
Sc.1_5
 62
     9
  6
CONTINUOUS
370
    -2
100
AcDbLine
 10
2968.09114012
 20
-1803.40749185
 30
0.0
 11
2968.42913666
 21
-1804.01634513
 31
0.0
  0
LINE
  5
4A2
100
AcDbEntity
  8
Sc.1_5
 62
     9
  6
CONTINUOUS
370
    -2
100
AcDbLine
 10
2963.47233756
 20
-1800.74082491
 30
0.0
 11
2963.8103341
 21
-1801.34967819
 31
0.0
  0
LINE
  5
4A3
100
AcDbEntity
  8
Sc.1_5
 62
     9
  6
CONTINUOUS
370
    -2
100
AcDbLine
 10
2958.853535
 20
-1798.07415796
 30
0.0
 11
2959.19153154
 21
-1798.68301125
 31
0.0
  0
LINE
  5
4A4
100
AcDbEntity
  8
Sc.1_5
 62
     9
  6
CONTINUOUS
370
    -2
100
AcDbLine
 10
2954.23473243
 20
-1795.40749102
 30
0.0
 11
2954.57272898
 21
-1796.0163443
 31
0.0
  0
LINE
  5
4A5
100
AcDbEntity
  8
Sc.1_5
 62
     9
  6
CONTINUOUS
370
    -2
100
AcDbLine
 10
2949.61592987
 20
-1792.74082408
 30
0.0
 11
2949.95392641
 21
-1793.34967736
 31
0.0
  0
LINE
  5
4A6
100
AcDbEntity
  8
Sc.1_5
 62
     9
  6
CONTINUOUS
370
    -2
100
AcDbLine
 10
2944.99712731
 20
-1790.07415713
 30
0.0
 11
2945.33512385
 21
-1790.68301042
 31
0.0
  0
LINE
  5
4A7
100
AcDbEntity
  8
Sc.1_5
 62
     9
  6
CONTINUOUS
370
    -2
100
AcDbLine
 10
2940.37832475
 20
-1787.40749019
 30
0.0
 11
2940.71632129
 21
-1788.01634347
 31
0.0
  0
LINE
  5
4A8
100
AcDbEntity
  8
Sc.1_5
 62
     9
  6
CONTINUOUS
370
    -2
100
AcDbLine
 10
2935.75952218
 20
-1784.74082324
 30
0.0
 11
2936.09751873
 21
-1785.34967653
 31
0.0
  0
LINE
  5
4A9
100
AcDbEntity
  8
Sc.1_5
 62
     9
  6
CONTINUOUS
370
    -2
100
AcDbLine
 10
2931.14071962
 20
-1782.0741563
 30
0.0
 11
2931.47871616
 21
-1782.68300959
 31
0.0
  0
LINE
  5
4AA
100
AcDbEntity
  8
Sc.1_5
 62
     9
  6
CONTINUOUS
370
    -2
100
AcDbLine
 10
2921.71832678
 20
-1794.25517467
 30
0.0
 11
2922.29035423
 21
-1794.10190038
 31
0.0
  0
LINE
  5
4AB
100
AcDbEntity
  8
Sc.1_5
 62
     9
  6
CONTINUOUS
370
    -2
100
AcDbLine
 10
2926.33712978
 20
-1796.92184182
 30
0.0
 11
2926.90915723
 21
-1796.76856753
 31
0.0
  0
LINE
  5
4AC
100
AcDbEntity
  8
Sc.1_5
 62
     9
  6
CONTINUOUS
370
    -2
100
AcDbLine
 10
2930.95593278
 20
-1799.58850898
 30
0.0
 11
2931.52796023
 21
-1799.43523469
 31
0.0
  0
LINE
  5
4AD
100
AcDbEntity
  8
Sc.1_5
 62
     9
  6
CONTINUOUS
370
    -2
100
AcDbLine
 10
2935.57473578
 20
-1802.25517613
 30
0.0
 11
2936.14676322
 21
-1802.10190184
 31
0.0
  0
LINE
  5
4AE
100
AcDbEntity
  8
Sc.1_5
 62
     9
  6
CONTINUOUS
370
    -2
100
AcDbLine
 10
2940.19353878
 20
-1804.92184329
 30
0.0
 11
2940.76556622
 21
-1804.768569
 31
0.0
  0
LINE
  5
4AF
100
AcDbEntity
  8
Sc.1_5
 62
     9
  6
CONTINUOUS
370
    -2
100
AcDbLine
 10
2944.81234178
 20
-1807.58851045
 30
0.0
 11
2945.38436922
 21
-1807.43523615
 31
0.0
  0
LINE
  5
4B0
100
AcDbEntity
  8
Sc.1_5
 62
     9
  6
CONTINUOUS
370
    -2
100
AcDbLine
 10
2949.43114478
 20
-1810.2551776
 30
0.0
 11
2950.00317222
 21
-1810.10190331
 31
0.0
  0
LINE
  5
4B1
100
AcDbEntity
  8
Sc.1_5
 62
     9
  6
CONTINUOUS
370
    -2
100
AcDbLine
 10
2954.04994778
 20
-1812.92184476
 30
0.0
 11
2954.62197522
 21
-1812.76857046
 31
0.0
  0
LINE
  5
4B2
100
AcDbEntity
  8
Sc.1_5
 62
     9
  6
CONTINUOUS
370
    -2
100
AcDbLine
 10
2958.66875078
 20
-1815.58851191
 30
0.0
 11
2959.24077822
 21
-1815.43523762
 31
0.0
  0
LINE
  5
4B3
100
AcDbEntity
  8
Sc.1_5
 62
     9
  6
CONTINUOUS
370
    -2
100
AcDbLine
 10
2963.28755378
 20
-1818.25517907
 30
0.0
 11
2963.85958122
 21
-1818.10190477
 31
0.0
  0
LINE
  5
4B4
100
AcDbEntity
  8
Sc.1_5
 62
     9
  6
CONTINUOUS
370
    -2
100
AcDbLine
 10
2967.90635678
 20
-1820.92184622
 30
0.0
 11
2968.47838422
 21
-1820.76857193
 31
0.0
  0
LINE
  5
4B5
100
AcDbEntity
  8
Sc.1_5
 62
     9
  6
CONTINUOUS
370
    -2
100
AcDbLine
 10
2972.52515978
 20
-1823.58851338
 30
0.0
 11
2973.09718722
 21
-1823.43523908
 31
0.0
  0
LINE
  5
4B6
100
AcDbEntity
  8
Sc.1_5
 62
     9
  6
CONTINUOUS
370
    -2
100
AcDbLine
 10
2977.14396278
 20
-1826.25518053
 30
0.0
 11
2977.71599022
 21
-1826.10190624
 31
0.0
  0
LINE
  5
4B7
100
AcDbEntity
  8
Sc.1_5
 62
     9
  6
CONTINUOUS
370
    -2
100
AcDbLine
 10
2923.47304532
 20
-1795.26826189
 30
0.0
 11
2923.31977103
 21
-1794.69623444
 31
0.0
  0
LINE
  5
4B8
100
AcDbEntity
  8
Sc.1_5
 62
     9
  6
CONTINUOUS
370
    -2
100
AcDbLine
 10
2928.09184832
 20
-1797.93492905
 30
0.0
 11
2927.93857403
 21
-1797.3629016
 31
0.0
  0
LINE
  5
4B9
100
AcDbEntity
  8
Sc.1_5
 62
     9
  6
CONTINUOUS
370
    -2
100
AcDbLine
 10
2932.71065132
 20
-1800.6015962
 30
0.0
 11
2932.55737703
 21
-1800.02956876
 31
0.0
  0
LINE
  5
4BA
100
AcDbEntity
  8
Sc.1_5
 62
     9
  6
CONTINUOUS
370
    -2
100
AcDbLine
 10
2937.32945432
 20
-1803.26826336
 30
0.0
 11
2937.17618003
 21
-1802.69623591
 31
0.0
  0
LINE
  5
4BB
100
AcDbEntity
  8
Sc.1_5
 62
     9
  6
CONTINUOUS
370
    -2
100
AcDbLine
 10
2941.94825732
 20
-1805.93493051
 30
0.0
 11
2941.79498303
 21
-1805.36290307
 31
0.0
  0
LINE
  5
4BC
100
AcDbEntity
  8
Sc.1_5
 62
     9
  6
CONTINUOUS
370
    -2
100
AcDbLine
 10
2946.56706032
 20
-1808.60159767
 30
0.0
 11
2946.41378603
 21
-1808.02957022
 31
0.0
  0
LINE
  5
4BD
100
AcDbEntity
  8
Sc.1_5
 62
     9
  6
CONTINUOUS
370
    -2
100
AcDbLine
 10
2951.18586332
 20
-1811.26826482
 30
0.0
 11
2951.03258903
 21
-1810.69623738
 31
0.0
  0
LINE
  5
4BE
100
AcDbEntity
  8
Sc.1_5
 62
     9
  6
CONTINUOUS
370
    -2
100
AcDbLine
 10
2955.80466632
 20
-1813.93493198
 30
0.0
 11
2955.65139203
 21
-1813.36290453
 31
0.0
  0
LINE
  5
4BF
100
AcDbEntity
  8
Sc.1_5
 62
     9
  6
CONTINUOUS
370
    -2
100
AcDbLine
 10
2960.42346932
 20
-1816.60159914
 30
0.0
 11
2960.27019503
 21
-1816.02957169
 31
0.0
  0
LINE
  5
4C0
100
AcDbEntity
  8
Sc.1_5
 62
     9
  6
CONTINUOUS
370
    -2
100
AcDbLine
 10
2965.04227232
 20
-1819.26826629
 30
0.0
 11
2964.88899803
 21
-1818.69623884
 31
0.0
  0
LINE
  5
4C1
100
AcDbEntity
  8
Sc.1_5
 62
     9
  6
CONTINUOUS
370
    -2
100
AcDbLine
 10
2969.66107532
 20
-1821.93493345
 30
0.0
 11
2969.50780103
 21
-1821.362906
 31
0.0
  0
LINE
  5
4C2
100
AcDbEntity
  8
Sc.1_5
 62
     9
  6
CONTINUOUS
370
    -2
100
AcDbLine
 10
2974.27987832
 20
-1824.6016006
 30
0.0
 11
2974.12660403
 21
-1824.02957315
 31
0.0
  0
LINE
  5
4C3
100
AcDbEntity
  8
Sc.1_5
 62
     9
  6
CONTINUOUS
370
    -2
100
AcDbLine
 10
2928.04261129
 20
-1781.18270928
 30
0.0
 11
2928.61463874
 21
-1781.02943499
 31
0.0
  0
LINE
  5
4C4
100
AcDbEntity
  8
Sc.1_5
 62
     9
  6
CONTINUOUS
370
    -2
100
AcDbLine
 10
2932.66141429
 20
-1783.84937643
 30
0.0
 11
2933.23344174
 21
-1783.69610214
 31
0.0
  0
LINE
  5
4C5
100
AcDbEntity
  8
Sc.1_5
 62
     9
  6
CONTINUOUS
370
    -2
100
AcDbLine
 10
2937.28021729
 20
-1786.51604359
 30
0.0
 11
2937.85224474
 21
-1786.3627693
 31
0.0
  0
LINE
  5
4C6
100
AcDbEntity
  8
Sc.1_5
 62
     9
  6
CONTINUOUS
370
    -2
100
AcDbLine
 10
2941.89902029
 20
-1789.18271074
 30
0.0
 11
2942.47104774
 21
-1789.02943645
 31
0.0
  0
LINE
  5
4C7
100
AcDbEntity
  8
Sc.1_5
 62
     9
  6
CONTINUOUS
370
    -2
100
AcDbLine
 10
2946.51782329
 20
-1791.8493779
 30
0.0
 11
2947.08985074
 21
-1791.69610361
 31
0.0
  0
LINE
  5
4C8
100
AcDbEntity
  8
Sc.1_5
 62
     9
  6
CONTINUOUS
370
    -2
100
AcDbLine
 10
2951.13662629
 20
-1794.51604505
 30
0.0
 11
2951.70865374
 21
-1794.36277076
 31
0.0
  0
LINE
  5
4C9
100
AcDbEntity
  8
Sc.1_5
 62
     9
  6
CONTINUOUS
370
    -2
100
AcDbLine
 10
2955.75542929
 20
-1797.18271221
 30
0.0
 11
2956.32745674
 21
-1797.02943792
 31
0.0
  0
LINE
  5
4CA
100
AcDbEntity
  8
Sc.1_5
 62
     9
  6
CONTINUOUS
370
    -2
100
AcDbLine
 10
2960.37423229
 20
-1799.84937937
 30
0.0
 11
2960.94625974
 21
-1799.69610507
 31
0.0
  0
LINE
  5
4CB
100
AcDbEntity
  8
Sc.1_5
 62
     9
  6
CONTINUOUS
370
    -2
100
AcDbLine
 10
2964.99303529
 20
-1802.51604652
 30
0.0
 11
2965.56506274
 21
-1802.36277223
 31
0.0
  0
LINE
  5
4CC
100
AcDbEntity
  8
Sc.1_5
 62
     9
  6
CONTINUOUS
370
    -2
100
AcDbLine
 10
2969.61183829
 20
-1805.18271368
 30
0.0
 11
2970.18386574
 21
-1805.02943938
 31
0.0
  0
LINE
  5
4CD
100
AcDbEntity
  8
Sc.1_5
 62
     9
  6
CONTINUOUS
370
    -2
100
AcDbLine
 10
2974.23064129
 20
-1807.84938083
 30
0.0
 11
2974.80266874
 21
-1807.69610654
 31
0.0
  0
LINE
  5
4CE
100
AcDbEntity
  8
Sc.1_5
 62
     9
  6
CONTINUOUS
370
    -2
100
AcDbLine
 10
2978.84944429
 20
-1810.51604799
 30
0.0
 11
2979.42147174
 21
-1810.36277369
 31
0.0
  0
LINE
  5
4CF
100
AcDbEntity
  8
Sc.1_5
 62
     9
  6
CONTINUOUS
370
    -2
100
AcDbLine
 10
2983.46824729
 20
-1813.18271514
 30
0.0
 11
2984.04027474
 21
-1813.02944085
 31
0.0
  0
LINE
  5
4D0
100
AcDbEntity
  8
Sc.1_5
 62
     9
  6
CONTINUOUS
370
    -2
100
AcDbLine
 10
2982.28554798
 20
-1812.01635075
 30
0.0
 11
2982.43882227
 21
-1812.5883782
 31
0.0
  0
LINE
  5
4D1
100
AcDbEntity
  8
Sc.1_5
 62
     9
  6
CONTINUOUS
370
    -2
100
AcDbLine
 10
2977.66674498
 20
-1809.3496836
 30
0.0
 11
2977.82001927
 21
-1809.92171105
 31
0.0
  0
LINE
  5
4D2
100
AcDbEntity
  8
Sc.1_5
 62
     9
  6
CONTINUOUS
370
    -2
100
AcDbLine
 10
2973.04794198
 20
-1806.68301644
 30
0.0
 11
2973.20121627
 21
-1807.25504389
 31
0.0
  0
LINE
  5
4D3
100
AcDbEntity
  8
Sc.1_5
 62
     9
  6
CONTINUOUS
370
    -2
100
AcDbLine
 10
2968.42913898
 20
-1804.01634929
 30
0.0
 11
2968.58241327
 21
-1804.58837674
 31
0.0
  0
LINE
  5
4D4
100
AcDbEntity
  8
Sc.1_5
 62
     9
  6
CONTINUOUS
370
    -2
100
AcDbLine
 10
2963.81033598
 20
-1801.34968213
 30
0.0
 11
2963.96361027
 21
-1801.92170958
 31
0.0
  0
LINE
  5
4D5
100
AcDbEntity
  8
Sc.1_5
 62
     9
  6
CONTINUOUS
370
    -2
100
AcDbLine
 10
2959.19153298
 20
-1798.68301498
 30
0.0
 11
2959.34480727
 21
-1799.25504243
 31
0.0
  0
LINE
  5
4D6
100
AcDbEntity
  8
Sc.1_5
 62
     9
  6
CONTINUOUS
370
    -2
100
AcDbLine
 10
2954.57272998
 20
-1796.01634782
 30
0.0
 11
2954.72600427
 21
-1796.58837527
 31
0.0
  0
LINE
  5
4D7
100
AcDbEntity
  8
Sc.1_5
 62
     9
  6
CONTINUOUS
370
    -2
100
AcDbLine
 10
2949.95392698
 20
-1793.34968067
 30
0.0
 11
2950.10720127
 21
-1793.92170812
 31
0.0
  0
LINE
  5
4D8
100
AcDbEntity
  8
Sc.1_5
 62
     9
  6
CONTINUOUS
370
    -2
100
AcDbLine
 10
2945.33512398
 20
-1790.68301351
 30
0.0
 11
2945.48839827
 21
-1791.25504096
 31
0.0
  0
LINE
  5
4D9
100
AcDbEntity
  8
Sc.1_5
 62
     9
  6
CONTINUOUS
370
    -2
100
AcDbLine
 10
2940.71632098
 20
-1788.01634636
 30
0.0
 11
2940.86959527
 21
-1788.5883738
 31
0.0
  0
LINE
  5
4DA
100
AcDbEntity
  8
Sc.1_5
 62
     9
  6
CONTINUOUS
370
    -2
100
AcDbLine
 10
2936.09751798
 20
-1785.3496792
 30
0.0
 11
2936.25079227
 21
-1785.92170665
 31
0.0
  0
LINE
  5
4DB
100
AcDbEntity
  8
Sc.1_5
 62
     9
  6
CONTINUOUS
370
    -2
100
AcDbLine
 10
2931.47871498
 20
-1782.68301205
 30
0.0
 11
2931.63198927
 21
-1783.25503949
 31
0.0
  0
LINE
  5
4DC
100
AcDbEntity
  8
Sc.1_5
 62
     9
  6
CONTINUOUS
370
    -2
100
AcDbLine
 10
2922.29035405
 20
-1794.10189908
 30
0.0
 11
2922.84717361
 21
-1793.82658159
 31
0.0
  0
LINE
  5
4DD
100
AcDbEntity
  8
Sc.1_5
 62
     9
  6
CONTINUOUS
370
    -2
100
AcDbLine
 10
2926.90915681
 20
-1796.76856539
 30
0.0
 11
2927.46597636
 21
-1796.49324791
 31
0.0
  0
LINE
  5
4DE
100
AcDbEntity
  8
Sc.1_5
 62
     9
  6
CONTINUOUS
370
    -2
100
AcDbLine
 10
2931.52795957
 20
-1799.43523171
 30
0.0
 11
2932.08477912
 21
-1799.15991423
 31
0.0
  0
LINE
  5
4DF
100
AcDbEntity
  8
Sc.1_5
 62
     9
  6
CONTINUOUS
370
    -2
100
AcDbLine
 10
2936.14676232
 20
-1802.10189803
 30
0.0
 11
2936.70358188
 21
-1801.82658055
 31
0.0
  0
LINE
  5
4E0
100
AcDbEntity
  8
Sc.1_5
 62
     9
  6
CONTINUOUS
370
    -2
100
AcDbLine
 10
2940.76556508
 20
-1804.76856435
 30
0.0
 11
2941.32238464
 21
-1804.49324687
 31
0.0
  0
LINE
  5
4E1
100
AcDbEntity
  8
Sc.1_5
 62
     9
  6
CONTINUOUS
370
    -2
100
AcDbLine
 10
2945.38436784
 20
-1807.43523067
 30
0.0
 11
2945.94118739
 21
-1807.15991318
 31
0.0
  0
LINE
  5
4E2
100
AcDbEntity
  8
Sc.1_5
 62
     9
  6
CONTINUOUS
370
    -2
100
AcDbLine
 10
2950.0031706
 20
-1810.10189699
 30
0.0
 11
2950.55999015
 21
-1809.8265795
 31
0.0
  0
LINE
  5
4E3
100
AcDbEntity
  8
Sc.1_5
 62
     9
  6
CONTINUOUS
370
    -2
100
AcDbLine
 10
2954.62197335
 20
-1812.7685633
 30
0.0
 11
2955.17879291
 21
-1812.49324582
 31
0.0
  0
LINE
  5
4E4
100
AcDbEntity
  8
Sc.1_5
 62
     9
  6
CONTINUOUS
370
    -2
100
AcDbLine
 10
2959.24077611
 20
-1815.43522962
 30
0.0
 11
2959.79759566
 21
-1815.15991214
 31
0.0
  0
LINE
  5
4E5
100
AcDbEntity
  8
Sc.1_5
 62
     9
  6
CONTINUOUS
370
    -2
100
AcDbLine
 10
2963.85957887
 20
-1818.10189594
 30
0.0
 11
2964.41639842
 21
-1817.82657846
 31
0.0
  0
LINE
  5
4E6
100
AcDbEntity
  8
Sc.1_5
 62
     9
  6
CONTINUOUS
370
    -2
100
AcDbLine
 10
2968.47838162
 20
-1820.76856226
 30
0.0
 11
2969.03520118
 21
-1820.49324477
 31
0.0
  0
LINE
  5
4E7
100
AcDbEntity
  8
Sc.1_5
 62
     9
  6
CONTINUOUS
370
    -2
100
AcDbLine
 10
2973.09718438
 20
-1823.43522858
 30
0.0
 11
2973.65400394
 21
-1823.15991109
 31
0.0
  0
LINE
  5
4E8
100
AcDbEntity
  8
Sc.1_5
 62
     9
  6
CONTINUOUS
370
    -2
100
AcDbLine
 10
2977.71598714
 20
-1826.10189489
 30
0.0
 11
2978.27280669
 21
-1825.82657741
 31
0.0
  0
LINE
  5
4E9
100
AcDbEntity
  8
Sc.1_5
 62
     9
  6
CONTINUOUS
370
    -2
100
AcDbLine
 10
2923.3197703
 20
-1794.69623393
 30
0.0
 11
2923.27979249
 21
-1794.0763553
 31
0.0
  0
LINE
  5
4EA
100
AcDbEntity
  8
Sc.1_5
 62
     9
  6
CONTINUOUS
370
    -2
100
AcDbLine
 10
2927.93857227
 20
-1797.3629016
 30
0.0
 11
2927.89859447
 21
-1796.74302298
 31
0.0
  0
LINE
  5
4EB
100
AcDbEntity
  8
Sc.1_5
 62
     9
  6
CONTINUOUS
370
    -2
100
AcDbLine
 10
2932.55737425
 20
-1800.02956927
 30
0.0
 11
2932.51739645
 21
-1799.40969065
 31
0.0
  0
LINE
  5
4EC
100
AcDbEntity
  8
Sc.1_5
 62
     9
  6
CONTINUOUS
370
    -2
100
AcDbLine
 10
2937.17617622
 20
-1802.69623694
 30
0.0
 11
2937.13619842
 21
-1802.07635832
 31
0.0
  0
LINE
  5
4ED
100
AcDbEntity
  8
Sc.1_5
 62
     9
  6
CONTINUOUS
370
    -2
100
AcDbLine
 10
2941.7949782
 20
-1805.36290461
 30
0.0
 11
2941.7550004
 21
-1804.74302599
 31
0.0
  0
LINE
  5
4EE
100
AcDbEntity
  8
Sc.1_5
 62
     9
  6
CONTINUOUS
370
    -2
100
AcDbLine
 10
2946.41378018
 20
-1808.02957229
 30
0.0
 11
2946.37380237
 21
-1807.40969366
 31
0.0
  0
LINE
  5
4EF
100
AcDbEntity
  8
Sc.1_5
 62
     9
  6
CONTINUOUS
370
    -2
100
AcDbLine
 10
2951.03258215
 20
-1810.69623996
 30
0.0
 11
2950.99260435
 21
-1810.07636133
 31
0.0
  0
LINE
  5
4F0
100
AcDbEntity
  8
Sc.1_5
 62
     9
  6
CONTINUOUS
370
    -2
100
AcDbLine
 10
2955.65138413
 20
-1813.36290763
 30
0.0
 11
2955.61140633
 21
-1812.743029
 31
0.0
  0
LINE
  5
4F1
100
AcDbEntity
  8
Sc.1_5
 62
     9
  6
CONTINUOUS
370
    -2
100
AcDbLine
 10
2960.2701861
 20
-1816.0295753
 30
0.0
 11
2960.2302083
 21
-1815.40969668
 31
0.0
  0
LINE
  5
4F2
100
AcDbEntity
  8
Sc.1_5
 62
     9
  6
CONTINUOUS
370
    -2
100
AcDbLine
 10
2964.88898808
 20
-1818.69624297
 30
0.0
 11
2964.84901028
 21
-1818.07636435
 31
0.0
  0
LINE
  5
4F3
100
AcDbEntity
  8
Sc.1_5
 62
     9
  6
CONTINUOUS
370
    -2
100
AcDbLine
 10
2969.50779006
 20
-1821.36291064
 30
0.0
 11
2969.46781225
 21
-1820.74303202
 31
0.0
  0
LINE
  5
4F4
100
AcDbEntity
  8
Sc.1_5
 62
     9
  6
CONTINUOUS
370
    -2
100
AcDbLine
 10
2974.12659203
 20
-1824.02957831
 30
0.0
 11
2974.08661423
 21
-1823.40969969
 31
0.0
  0
LINE
  5
4F5
100
AcDbEntity
  8
Sc.1_5
 62
     9
  6
CONTINUOUS
370
    -2
100
AcDbLine
 10
2978.72737024
 20
-1826.41677718
 30
0.0
 11
2978.70541621
 21
-1826.07636736
 31
0.0
  0
LINE
  5
4F6
100
AcDbEntity
  8
Sc.1_5
 62
     9
  6
CONTINUOUS
370
    -2
100
AcDbLine
 10
2927.48579087
 20
-1781.45802483
 30
0.0
 11
2928.04261042
 21
-1781.18270735
 31
0.0
  0
LINE
  5
4F7
100
AcDbEntity
  8
Sc.1_5
 62
     9
  6
CONTINUOUS
370
    -2
100
AcDbLine
 10
2932.10459363
 20
-1784.12469115
 30
0.0
 11
2932.66141318
 21
-1783.84937366
 31
0.0
  0
LINE
  5
4F8
100
AcDbEntity
  8
Sc.1_5
 62
     9
  6
CONTINUOUS
370
    -2
100
AcDbLine
 10
2936.72339638
 20
-1786.79135747
 30
0.0
 11
2937.28021594
 21
-1786.51603998
 31
0.0
  0
LINE
  5
4F9
100
AcDbEntity
  8
Sc.1_5
 62
     9
  6
CONTINUOUS
370
    -2
100
AcDbLine
 10
2941.34219914
 20
-1789.45802378
 30
0.0
 11
2941.89901869
 21
-1789.1827063
 31
0.0
  0
LINE
  5
4FA
100
AcDbEntity
  8
Sc.1_5
 62
     9
  6
CONTINUOUS
370
    -2
100
AcDbLine
 10
2945.9610019
 20
-1792.1246901
 30
0.0
 11
2946.51782145
 21
-1791.84937262
 31
0.0
  0
LINE
  5
4FB
100
AcDbEntity
  8
Sc.1_5
 62
     9
  6
CONTINUOUS
370
    -2
100
AcDbLine
 10
2950.57980465
 20
-1794.79135642
 30
0.0
 11
2951.13662421
 21
-1794.51603894
 31
0.0
  0
LINE
  5
4FC
100
AcDbEntity
  8
Sc.1_5
 62
     9
  6
CONTINUOUS
370
    -2
100
AcDbLine
 10
2955.19860741
 20
-1797.45802274
 30
0.0
 11
2955.75542697
 21
-1797.18270526
 31
0.0
  0
LINE
  5
4FD
100
AcDbEntity
  8
Sc.1_5
 62
     9
  6
CONTINUOUS
370
    -2
100
AcDbLine
 10
2959.81741017
 20
-1800.12468906
 30
0.0
 11
2960.37422972
 21
-1799.84937157
 31
0.0
  0
LINE
  5
4FE
100
AcDbEntity
  8
Sc.1_5
 62
     9
  6
CONTINUOUS
370
    -2
100
AcDbLine
 10
2964.43621293
 20
-1802.79135537
 30
0.0
 11
2964.99303248
 21
-1802.51603789
 31
0.0
  0
LINE
  5
4FF
100
AcDbEntity
  8
Sc.1_5
 62
     9
  6
CONTINUOUS
370
    -2
100
AcDbLine
 10
2969.05501568
 20
-1805.45802169
 30
0.0
 11
2969.61183524
 21
-1805.18270421
 31
0.0
  0
LINE
  5
500
100
AcDbEntity
  8
Sc.1_5
 62
     9
  6
CONTINUOUS
370
    -2
100
AcDbLine
 10
2973.67381844
 20
-1808.12468801
 30
0.0
 11
2974.230638
 21
-1807.84937053
 31
0.0
  0
LINE
  5
501
100
AcDbEntity
  8
Sc.1_5
 62
     9
  6
CONTINUOUS
370
    -2
100
AcDbLine
 10
2978.2926212
 20
-1810.79135433
 30
0.0
 11
2978.84944075
 21
-1810.51603685
 31
0.0
  0
LINE
  5
502
100
AcDbEntity
  8
Sc.1_5
 62
     9
  6
CONTINUOUS
370
    -2
100
AcDbLine
 10
2982.91142396
 20
-1813.45802065
 30
0.0
 11
2983.46824351
 21
-1813.18270316
 31
0.0
  0
LINE
  5
503
100
AcDbEntity
  8
Sc.1_5
 62
     9
  6
CONTINUOUS
370
    -2
100
AcDbLine
 10
2982.43881621
 20
-1812.58837798
 30
0.0
 11
2982.47879406
 21
-1813.2082566
 31
0.0
  0
LINE
  5
504
100
AcDbEntity
  8
Sc.1_5
 62
     9
  6
CONTINUOUS
370
    -2
100
AcDbLine
 10
2977.82001406
 20
-1809.92171061
 30
0.0
 11
2977.8599919
 21
-1810.54158923
 31
0.0
  0
LINE
  5
505
100
AcDbEntity
  8
Sc.1_5
 62
     9
  6
CONTINUOUS
370
    -2
100
AcDbLine
 10
2973.20121191
 20
-1807.25504325
 30
0.0
 11
2973.24118975
 21
-1807.87492187
 31
0.0
  0
LINE
  5
506
100
AcDbEntity
  8
Sc.1_5
 62
     9
  6
CONTINUOUS
370
    -2
100
AcDbLine
 10
2968.58240975
 20
-1804.58837589
 30
0.0
 11
2968.6223876
 21
-1805.20825451
 31
0.0
  0
LINE
  5
507
100
AcDbEntity
  8
Sc.1_5
 62
     9
  6
CONTINUOUS
370
    -2
100
AcDbLine
 10
2963.9636076
 20
-1801.92170852
 30
0.0
 11
2964.00358544
 21
-1802.54158714
 31
0.0
  0
LINE
  5
508
100
AcDbEntity
  8
Sc.1_5
 62
     9
  6
CONTINUOUS
370
    -2
100
AcDbLine
 10
2959.34480545
 20
-1799.25504116
 30
0.0
 11
2959.38478329
 21
-1799.87491978
 31
0.0
  0
LINE
  5
509
100
AcDbEntity
  8
Sc.1_5
 62
     9
  6
CONTINUOUS
370
    -2
100
AcDbLine
 10
2954.72600329
 20
-1796.58837379
 30
0.0
 11
2954.76598113
 21
-1797.20825242
 31
0.0
  0
LINE
  5
50A
100
AcDbEntity
  8
Sc.1_5
 62
     9
  6
CONTINUOUS
370
    -2
100
AcDbLine
 10
2950.10720114
 20
-1793.92170643
 30
0.0
 11
2950.14717898
 21
-1794.54158505
 31
0.0
  0
LINE
  5
50B
100
AcDbEntity
  8
Sc.1_5
 62
     9
  6
CONTINUOUS
370
    -2
100
AcDbLine
 10
2945.48839898
 20
-1791.25503907
 30
0.0
 11
2945.52837683
 21
-1791.87491769
 31
0.0
  0
LINE
  5
50C
100
AcDbEntity
  8
Sc.1_5
 62
     9
  6
CONTINUOUS
370
    -2
100
AcDbLine
 10
2940.86959683
 20
-1788.5883717
 30
0.0
 11
2940.90957467
 21
-1789.20825032
 31
0.0
  0
LINE
  5
50D
100
AcDbEntity
  8
Sc.1_5
 62
     9
  6
CONTINUOUS
370
    -2
100
AcDbLine
 10
2936.25079468
 20
-1785.92170434
 30
0.0
 11
2936.29077252
 21
-1786.54158296
 31
0.0
  0
LINE
  5
50E
100
AcDbEntity
  8
Sc.1_5
 62
     9
  6
CONTINUOUS
370
    -2
100
AcDbLine
 10
2931.63199252
 20
-1783.25503698
 30
0.0
 11
2931.67197037
 21
-1783.8749156
 31
0.0
  0
LINE
  5
50F
100
AcDbEntity
  8
Sc.1_5
 62
     9
  6
CONTINUOUS
370
    -2
100
AcDbLine
 10
2922.84717171
 20
-1793.82658289
 30
0.0
 11
2923.43814432
 21
-1793.30253718
 31
0.0
  0
LINE
  5
510
100
AcDbEntity
  8
Sc.1_5
 62
     9
  6
CONTINUOUS
370
    -2
100
AcDbLine
 10
2927.46597463
 20
-1796.49324968
 30
0.0
 11
2928.05694724
 21
-1795.96920398
 31
0.0
  0
LINE
  5
511
100
AcDbEntity
  8
Sc.1_5
 62
     9
  6
CONTINUOUS
370
    -2
100
AcDbLine
 10
2932.08477755
 20
-1799.15991648
 30
0.0
 11
2932.67575016
 21
-1798.63587078
 31
0.0
  0
LINE
  5
512
100
AcDbEntity
  8
Sc.1_5
 62
     9
  6
CONTINUOUS
370
    -2
100
AcDbLine
 10
2936.70358046
 20
-1801.82658328
 30
0.0
 11
2937.29455308
 21
-1801.30253758
 31
0.0
  0
LINE
  5
513
100
AcDbEntity
  8
Sc.1_5
 62
     9
  6
CONTINUOUS
370
    -2
100
AcDbLine
 10
2941.32238338
 20
-1804.49325008
 30
0.0
 11
2941.91335599
 21
-1803.96920438
 31
0.0
  0
LINE
  5
514
100
AcDbEntity
  8
Sc.1_5
 62
     9
  6
CONTINUOUS
370
    -2
100
AcDbLine
 10
2945.9411863
 20
-1807.15991688
 30
0.0
 11
2946.53215891
 21
-1806.63587118
 31
0.0
  0
LINE
  5
515
100
AcDbEntity
  8
Sc.1_5
 62
     9
  6
CONTINUOUS
370
    -2
100
AcDbLine
 10
2950.55998922
 20
-1809.82658368
 30
0.0
 11
2951.15096183
 21
-1809.30253797
 31
0.0
  0
LINE
  5
516
100
AcDbEntity
  8
Sc.1_5
 62
     9
  6
CONTINUOUS
370
    -2
100
AcDbLine
 10
2955.17879213
 20
-1812.49325048
 30
0.0
 11
2955.76976474
 21
-1811.96920477
 31
0.0
  0
LINE
  5
517
100
AcDbEntity
  8
Sc.1_5
 62
     9
  6
CONTINUOUS
370
    -2
100
AcDbLine
 10
2959.79759505
 20
-1815.15991728
 30
0.0
 11
2960.38856766
 21
-1814.63587157
 31
0.0
  0
LINE
  5
518
100
AcDbEntity
  8
Sc.1_5
 62
     9
  6
CONTINUOUS
370
    -2
100
AcDbLine
 10
2964.41639797
 20
-1817.82658407
 30
0.0
 11
2965.00737058
 21
-1817.30253837
 31
0.0
  0
LINE
  5
519
100
AcDbEntity
  8
Sc.1_5
 62
     9
  6
CONTINUOUS
370
    -2
100
AcDbLine
 10
2969.03520088
 20
-1820.49325087
 30
0.0
 11
2969.62617349
 21
-1819.96920517
 31
0.0
  0
LINE
  5
51A
100
AcDbEntity
  8
Sc.1_5
 62
     9
  6
CONTINUOUS
370
    -2
100
AcDbLine
 10
2973.6540038
 20
-1823.15991767
 30
0.0
 11
2974.24497641
 21
-1822.63587197
 31
0.0
  0
LINE
  5
51B
100
AcDbEntity
  8
Sc.1_5
 62
     9
  6
CONTINUOUS
370
    -2
100
AcDbLine
 10
2978.27280672
 20
-1825.82658447
 30
0.0
 11
2978.86377933
 21
-1825.30253877
 31
0.0
  0
LINE
  5
51C
100
AcDbEntity
  8
Sc.1_5
 62
     9
  6
CONTINUOUS
370
    -2
100
AcDbLine
 10
2923.27979388
 20
-1794.07635772
 30
0.0
 11
2923.43814446
 21
-1793.30253757
 31
0.0
  0
LINE
  5
51D
100
AcDbEntity
  8
Sc.1_5
 62
     9
  6
CONTINUOUS
370
    -2
100
AcDbLine
 10
2927.89859653
 20
-1796.74302498
 30
0.0
 11
2928.05694711
 21
-1795.96920483
 31
0.0
  0
LINE
  5
51E
100
AcDbEntity
  8
Sc.1_5
 62
     9
  6
CONTINUOUS
370
    -2
100
AcDbLine
 10
2932.51739917
 20
-1799.40969224
 30
0.0
 11
2932.67574976
 21
-1798.63587209
 31
0.0
  0
LINE
  5
51F
100
AcDbEntity
  8
Sc.1_5
 62
     9
  6
CONTINUOUS
370
    -2
100
AcDbLine
 10
2937.13620182
 20
-1802.0763595
 30
0.0
 11
2937.29455241
 21
-1801.30253936
 31
0.0
  0
LINE
  5
520
100
AcDbEntity
  8
Sc.1_5
 62
     9
  6
CONTINUOUS
370
    -2
100
AcDbLine
 10
2941.75500447
 20
-1804.74302676
 30
0.0
 11
2941.91335506
 21
-1803.96920662
 31
0.0
  0
LINE
  5
521
100
AcDbEntity
  8
Sc.1_5
 62
     9
  6
CONTINUOUS
370
    -2
100
AcDbLine
 10
2946.37380712
 20
-1807.40969403
 30
0.0
 11
2946.53215771
 21
-1806.63587388
 31
0.0
  0
LINE
  5
522
100
AcDbEntity
  8
Sc.1_5
 62
     9
  6
CONTINUOUS
370
    -2
100
AcDbLine
 10
2950.99260977
 20
-1810.07636129
 30
0.0
 11
2951.15096036
 21
-1809.30254114
 31
0.0
  0
LINE
  5
523
100
AcDbEntity
  8
Sc.1_5
 62
     9
  6
CONTINUOUS
370
    -2
100
AcDbLine
 10
2955.61141242
 20
-1812.74302855
 30
0.0
 11
2955.76976301
 21
-1811.9692084
 31
0.0
  0
LINE
  5
524
100
AcDbEntity
  8
Sc.1_5
 62
     9
  6
CONTINUOUS
370
    -2
100
AcDbLine
 10
2960.23021507
 20
-1815.40969581
 30
0.0
 11
2960.38856566
 21
-1814.63587566
 31
0.0
  0
LINE
  5
525
100
AcDbEntity
  8
Sc.1_5
 62
     9
  6
CONTINUOUS
370
    -2
100
AcDbLine
 10
2964.84901772
 20
-1818.07636307
 30
0.0
 11
2965.00736831
 21
-1817.30254293
 31
0.0
  0
LINE
  5
526
100
AcDbEntity
  8
Sc.1_5
 62
     9
  6
CONTINUOUS
370
    -2
100
AcDbLine
 10
2969.46782037
 20
-1820.74303033
 30
0.0
 11
2969.62617096
 21
-1819.96921019
 31
0.0
  0
LINE
  5
527
100
AcDbEntity
  8
Sc.1_5
 62
     9
  6
CONTINUOUS
370
    -2
100
AcDbLine
 10
2974.08662302
 20
-1823.4096976
 30
0.0
 11
2974.24497361
 21
-1822.63587745
 31
0.0
  0
LINE
  5
528
100
AcDbEntity
  8
Sc.1_5
 62
     9
  6
CONTINUOUS
370
    -2
100
AcDbLine
 10
2978.70542567
 20
-1826.07636486
 30
0.0
 11
2978.86377626
 21
-1825.30254471
 31
0.0
  0
LINE
  5
529
100
AcDbEntity
  8
Sc.1_5
 62
     9
  6
CONTINUOUS
370
    -2
100
AcDbLine
 10
2926.89481716
 20
-1781.98207027
 30
0.0
 11
2927.48578901
 21
-1781.45802524
 31
0.0
  0
LINE
  5
52A
100
AcDbEntity
  8
Sc.1_5
 62
     9
  6
CONTINUOUS
370
    -2
100
AcDbLine
 10
2931.51361931
 20
-1784.64873774
 30
0.0
 11
2932.10459192
 21
-1784.12469204
 31
0.0
  0
LINE
  5
52B
100
AcDbEntity
  8
Sc.1_5
 62
     9
  6
CONTINUOUS
370
    -2
100
AcDbLine
 10
2936.13242223
 20
-1787.31540454
 30
0.0
 11
2936.72339484
 21
-1786.79135884
 31
0.0
  0
LINE
  5
52C
100
AcDbEntity
  8
Sc.1_5
 62
     9
  6
CONTINUOUS
370
    -2
100
AcDbLine
 10
2940.75122515
 20
-1789.98207134
 30
0.0
 11
2941.34219776
 21
-1789.45802564
 31
0.0
  0
LINE
  5
52D
100
AcDbEntity
  8
Sc.1_5
 62
     9
  6
CONTINUOUS
370
    -2
100
AcDbLine
 10
2945.37002806
 20
-1792.64873814
 30
0.0
 11
2945.96100067
 21
-1792.12469244
 31
0.0
  0
LINE
  5
52E
100
AcDbEntity
  8
Sc.1_5
 62
     9
  6
CONTINUOUS
370
    -2
100
AcDbLine
 10
2949.98883098
 20
-1795.31540494
 30
0.0
 11
2950.57980359
 21
-1794.79135923
 31
0.0
  0
LINE
  5
52F
100
AcDbEntity
  8
Sc.1_5
 62
     9
  6
CONTINUOUS
370
    -2
100
AcDbLine
 10
2954.6076339
 20
-1797.98207174
 30
0.0
 11
2955.19860651
 21
-1797.45802603
 31
0.0
  0
LINE
  5
530
100
AcDbEntity
  8
Sc.1_5
 62
     9
  6
CONTINUOUS
370
    -2
100
AcDbLine
 10
2959.22643681
 20
-1800.64873854
 30
0.0
 11
2959.81740943
 21
-1800.12469283
 31
0.0
  0
LINE
  5
531
100
AcDbEntity
  8
Sc.1_5
 62
     9
  6
CONTINUOUS
370
    -2
100
AcDbLine
 10
2963.84523973
 20
-1803.31540533
 30
0.0
 11
2964.43621234
 21
-1802.79135963
 31
0.0
  0
LINE
  5
532
100
AcDbEntity
  8
Sc.1_5
 62
     9
  6
CONTINUOUS
370
    -2
100
AcDbLine
 10
2968.46404265
 20
-1805.98207213
 30
0.0
 11
2969.05501526
 21
-1805.45802643
 31
0.0
  0
LINE
  5
533
100
AcDbEntity
  8
Sc.1_5
 62
     9
  6
CONTINUOUS
370
    -2
100
AcDbLine
 10
2973.08284557
 20
-1808.64873893
 30
0.0
 11
2973.67381818
 21
-1808.12469323
 31
0.0
  0
LINE
  5
534
100
AcDbEntity
  8
Sc.1_5
 62
     9
  6
CONTINUOUS
370
    -2
100
AcDbLine
 10
2977.70164848
 20
-1811.31540573
 30
0.0
 11
2978.29262109
 21
-1810.79136003
 31
0.0
  0
LINE
  5
535
100
AcDbEntity
  8
Sc.1_5
 62
     9
  6
CONTINUOUS
370
    -2
100
AcDbLine
 10
2982.3204514
 20
-1813.98207253
 30
0.0
 11
2982.91142401
 21
-1813.45802683
 31
0.0
  0
LINE
  5
536
100
AcDbEntity
  8
Sc.1_5
 62
     9
  6
CONTINUOUS
370
    -2
100
AcDbLine
 10
2982.4787982
 20
-1813.20825808
 30
0.0
 11
2982.32044761
 21
-1813.98207823
 31
0.0
  0
LINE
  5
537
100
AcDbEntity
  8
Sc.1_5
 62
     9
  6
CONTINUOUS
370
    -2
100
AcDbLine
 10
2977.85999555
 20
-1810.54159082
 30
0.0
 11
2977.70164496
 21
-1811.31541096
 31
0.0
  0
LINE
  5
538
100
AcDbEntity
  8
Sc.1_5
 62
     9
  6
CONTINUOUS
370
    -2
100
AcDbLine
 10
2973.2411929
 20
-1807.87492356
 30
0.0
 11
2973.08284231
 21
-1808.6487437
 31
0.0
  0
LINE
  5
539
100
AcDbEntity
  8
Sc.1_5
 62
     9
  6
CONTINUOUS
370
    -2
100
AcDbLine
 10
2968.62239025
 20
-1805.20825629
 30
0.0
 11
2968.46403966
 21
-1805.98207644
 31
0.0
  0
LINE
  5
53A
100
AcDbEntity
  8
Sc.1_5
 62
     9
  6
CONTINUOUS
370
    -2
100
AcDbLine
 10
2964.0035876
 20
-1802.54158903
 30
0.0
 11
2963.84523701
 21
-1803.31540918
 31
0.0
  0
LINE
  5
53B
100
AcDbEntity
  8
Sc.1_5
 62
     9
  6
CONTINUOUS
370
    -2
100
AcDbLine
 10
2959.38478495
 20
-1799.87492177
 30
0.0
 11
2959.22643436
 21
-1800.64874192
 31
0.0
  0
LINE
  5
53C
100
AcDbEntity
  8
Sc.1_5
 62
     9
  6
CONTINUOUS
370
    -2
100
AcDbLine
 10
2954.7659823
 20
-1797.20825451
 30
0.0
 11
2954.60763172
 21
-1797.98207465
 31
0.0
  0
LINE
  5
53D
100
AcDbEntity
  8
Sc.1_5
 62
     9
  6
CONTINUOUS
370
    -2
100
AcDbLine
 10
2950.14717965
 20
-1794.54158725
 30
0.0
 11
2949.98882907
 21
-1795.31540739
 31
0.0
  0
LINE
  5
53E
100
AcDbEntity
  8
Sc.1_5
 62
     9
  6
CONTINUOUS
370
    -2
100
AcDbLine
 10
2945.528377
 20
-1791.87491999
 30
0.0
 11
2945.37002642
 21
-1792.64874013
 31
0.0
  0
LINE
  5
53F
100
AcDbEntity
  8
Sc.1_5
 62
     9
  6
CONTINUOUS
370
    -2
100
AcDbLine
 10
2940.90957435
 20
-1789.20825272
 30
0.0
 11
2940.75122377
 21
-1789.98207287
 31
0.0
  0
LINE
  5
540
100
AcDbEntity
  8
Sc.1_5
 62
     9
  6
CONTINUOUS
370
    -2
100
AcDbLine
 10
2936.2907717
 20
-1786.54158546
 30
0.0
 11
2936.13242112
 21
-1787.31540561
 31
0.0
  0
LINE
  5
541
100
AcDbEntity
  8
Sc.1_5
 62
     9
  6
CONTINUOUS
370
    -2
100
AcDbLine
 10
2931.67196905
 20
-1783.8749182
 30
0.0
 11
2931.51361847
 21
-1784.64873835
 31
0.0
  0
LINE
  5
542
100
AcDbEntity
  8
Sc.1_5
 62
     9
  6
CONTINUOUS
370
    -2
100
AcDbLine
 10
2923.65451822
 20
-1792.92776589
 30
0.0
 11
2923.99557698
 21
-1792.46415268
 31
0.0
  0
LINE
  5
543
100
AcDbEntity
  8
Sc.1_5
 62
     9
  6
CONTINUOUS
370
    -2
100
AcDbLine
 10
2928.27332344
 20
-1795.59442681
 30
0.0
 11
2928.6143822
 21
-1795.13081359
 31
0.0
  0
LINE
  5
544
100
AcDbEntity
  8
Sc.1_5
 62
     9
  6
CONTINUOUS
370
    -2
100
AcDbLine
 10
2932.89212866
 20
-1798.26108772
 30
0.0
 11
2933.23318742
 21
-1797.79747451
 31
0.0
  0
LINE
  5
545
100
AcDbEntity
  8
Sc.1_5
 62
     9
  6
CONTINUOUS
370
    -2
100
AcDbLine
 10
2937.51093389
 20
-1800.92774863
 30
0.0
 11
2937.85199264
 21
-1800.46413542
 31
0.0
  0
LINE
  5
546
100
AcDbEntity
  8
Sc.1_5
 62
     9
  6
CONTINUOUS
370
    -2
100
AcDbLine
 10
2942.12973911
 20
-1803.59440954
 30
0.0
 11
2942.47079786
 21
-1803.13079633
 31
0.0
  0
LINE
  5
547
100
AcDbEntity
  8
Sc.1_5
 62
     9
  6
CONTINUOUS
370
    -2
100
AcDbLine
 10
2946.74854433
 20
-1806.26107046
 30
0.0
 11
2947.08960309
 21
-1805.79745724
 31
0.0
  0
LINE
  5
548
100
AcDbEntity
  8
Sc.1_5
 62
     9
  6
CONTINUOUS
370
    -2
100
AcDbLine
 10
2951.36734955
 20
-1808.92773137
 30
0.0
 11
2951.70840831
 21
-1808.46411815
 31
0.0
  0
LINE
  5
549
100
AcDbEntity
  8
Sc.1_5
 62
     9
  6
CONTINUOUS
370
    -2
100
AcDbLine
 10
2955.98615477
 20
-1811.59439228
 30
0.0
 11
2956.32721353
 21
-1811.13077907
 31
0.0
  0
LINE
  5
54A
100
AcDbEntity
  8
Sc.1_5
 62
     9
  6
CONTINUOUS
370
    -2
100
AcDbLine
 10
2960.60496
 20
-1814.26105319
 30
0.0
 11
2960.94601875
 21
-1813.79743998
 31
0.0
  0
LINE
  5
54B
100
AcDbEntity
  8
Sc.1_5
 62
     9
  6
CONTINUOUS
370
    -2
100
AcDbLine
 10
2965.22376522
 20
-1816.9277141
 30
0.0
 11
2965.56482397
 21
-1816.46410089
 31
0.0
  0
LINE
  5
54C
100
AcDbEntity
  8
Sc.1_5
 62
     9
  6
CONTINUOUS
370
    -2
100
AcDbLine
 10
2969.84257044
 20
-1819.59437502
 30
0.0
 11
2970.1836292
 21
-1819.1307618
 31
0.0
  0
LINE
  5
54D
100
AcDbEntity
  8
Sc.1_5
 62
     9
  6
CONTINUOUS
370
    -2
100
AcDbLine
 10
2974.46137566
 20
-1822.26103593
 30
0.0
 11
2974.80243442
 21
-1821.79742272
 31
0.0
  0
LINE
  5
54E
100
AcDbEntity
  8
Sc.1_5
 62
     9
  6
CONTINUOUS
370
    -2
100
AcDbLine
 10
2979.08018088
 20
-1824.92769684
 30
0.0
 11
2979.42123964
 21
-1824.46408363
 31
0.0
  0
LINE
  5
54F
100
AcDbEntity
  8
Sc.1_5
 62
     9
  6
CONTINUOUS
370
    -2
100
AcDbLine
 10
2923.65451502
 20
-1792.92777158
 30
0.0
 11
2923.88548647
 21
-1792.40059942
 31
0.0
  0
LINE
  5
550
100
AcDbEntity
  8
Sc.1_5
 62
     9
  6
CONTINUOUS
370
    -2
100
AcDbLine
 10
2928.27331373
 20
-1795.59444378
 30
0.0
 11
2928.50428517
 21
-1795.06727162
 31
0.0
  0
LINE
  5
551
100
AcDbEntity
  8
Sc.1_5
 62
     9
  6
CONTINUOUS
370
    -2
100
AcDbLine
 10
2932.89211243
 20
-1798.26111598
 30
0.0
 11
2933.12308388
 21
-1797.73394382
 31
0.0
  0
LINE
  5
552
100
AcDbEntity
  8
Sc.1_5
 62
     9
  6
CONTINUOUS
370
    -2
100
AcDbLine
 10
2937.51091114
 20
-1800.92778818
 30
0.0
 11
2937.74188258
 21
-1800.40061602
 31
0.0
  0
LINE
  5
553
100
AcDbEntity
  8
Sc.1_5
 62
     9
  6
CONTINUOUS
370
    -2
100
AcDbLine
 10
2942.12970984
 20
-1803.59446038
 30
0.0
 11
2942.36068128
 21
-1803.06728823
 31
0.0
  0
LINE
  5
554
100
AcDbEntity
  8
Sc.1_5
 62
     9
  6
CONTINUOUS
370
    -2
100
AcDbLine
 10
2946.74850855
 20
-1806.26113258
 30
0.0
 11
2946.97947999
 21
-1805.73396043
 31
0.0
  0
LINE
  5
555
100
AcDbEntity
  8
Sc.1_5
 62
     9
  6
CONTINUOUS
370
    -2
100
AcDbLine
 10
2951.36730725
 20
-1808.92780478
 30
0.0
 11
2951.59827869
 21
-1808.40063263
 31
0.0
  0
LINE
  5
556
100
AcDbEntity
  8
Sc.1_5
 62
     9
  6
CONTINUOUS
370
    -2
100
AcDbLine
 10
2955.98610596
 20
-1811.59447698
 30
0.0
 11
2956.2170774
 21
-1811.06730483
 31
0.0
  0
LINE
  5
557
100
AcDbEntity
  8
Sc.1_5
 62
     9
  6
CONTINUOUS
370
    -2
100
AcDbLine
 10
2960.60490466
 20
-1814.26114919
 30
0.0
 11
2960.8358761
 21
-1813.73397703
 31
0.0
  0
LINE
  5
558
100
AcDbEntity
  8
Sc.1_5
 62
     9
  6
CONTINUOUS
370
    -2
100
AcDbLine
 10
2965.22370336
 20
-1816.92782139
 30
0.0
 11
2965.45467481
 21
-1816.40064923
 31
0.0
  0
LINE
  5
559
100
AcDbEntity
  8
Sc.1_5
 62
     9
  6
CONTINUOUS
370
    -2
100
AcDbLine
 10
2969.84250207
 20
-1819.59449359
 30
0.0
 11
2970.07347351
 21
-1819.06732143
 31
0.0
  0
LINE
  5
55A
100
AcDbEntity
  8
Sc.1_5
 62
     9
  6
CONTINUOUS
370
    -2
100
AcDbLine
 10
2974.46130077
 20
-1822.26116579
 30
0.0
 11
2974.69227221
 21
-1821.73399363
 31
0.0
  0
LINE
  5
55B
100
AcDbEntity
  8
Sc.1_5
 62
     9
  6
CONTINUOUS
370
    -2
100
AcDbLine
 10
2979.08009948
 20
-1824.92783799
 30
0.0
 11
2979.31107092
 21
-1824.40066584
 31
0.0
  0
LINE
  5
55C
100
AcDbEntity
  8
Sc.1_5
 62
     9
  6
CONTINUOUS
370
    -2
100
AcDbLine
 10
2982.10412177
 20
-1814.35675126
 30
0.0
 11
2981.76306314
 21
-1814.82036456
 31
0.0
  0
LINE
  5
55D
100
AcDbEntity
  8
Sc.1_5
 62
     9
  6
CONTINUOUS
370
    -2
100
AcDbLine
 10
2977.48531584
 20
-1811.69009158
 30
0.0
 11
2977.14425721
 21
-1812.15370488
 31
0.0
  0
LINE
  5
55E
100
AcDbEntity
  8
Sc.1_5
 62
     9
  6
CONTINUOUS
370
    -2
100
AcDbLine
 10
2972.86650991
 20
-1809.02343189
 30
0.0
 11
2972.52545127
 21
-1809.4870452
 31
0.0
  0
LINE
  5
55F
100
AcDbEntity
  8
Sc.1_5
 62
     9
  6
CONTINUOUS
370
    -2
100
AcDbLine
 10
2968.24770397
 20
-1806.35677221
 30
0.0
 11
2967.90664534
 21
-1806.82038552
 31
0.0
  0
LINE
  5
560
100
AcDbEntity
  8
Sc.1_5
 62
     9
  6
CONTINUOUS
370
    -2
100
AcDbLine
 10
2963.62889804
 20
-1803.69011253
 30
0.0
 11
2963.28783941
 21
-1804.15372583
 31
0.0
  0
LINE
  5
561
100
AcDbEntity
  8
Sc.1_5
 62
     9
  6
CONTINUOUS
370
    -2
100
AcDbLine
 10
2959.01009211
 20
-1801.02345285
 30
0.0
 11
2958.66903348
 21
-1801.48706615
 31
0.0
  0
LINE
  5
562
100
AcDbEntity
  8
Sc.1_5
 62
     9
  6
CONTINUOUS
370
    -2
100
AcDbLine
 10
2954.39128618
 20
-1798.35679317
 30
0.0
 11
2954.05022754
 21
-1798.82040647
 31
0.0
  0
LINE
  5
563
100
AcDbEntity
  8
Sc.1_5
 62
     9
  6
CONTINUOUS
370
    -2
100
AcDbLine
 10
2949.77248025
 20
-1795.69013348
 30
0.0
 11
2949.43142161
 21
-1796.15374679
 31
0.0
  0
LINE
  5
564
100
AcDbEntity
  8
Sc.1_5
 62
     9
  6
CONTINUOUS
370
    -2
100
AcDbLine
 10
2945.15367431
 20
-1793.0234738
 30
0.0
 11
2944.81261568
 21
-1793.48708711
 31
0.0
  0
LINE
  5
565
100
AcDbEntity
  8
Sc.1_5
 62
     9
  6
CONTINUOUS
370
    -2
100
AcDbLine
 10
2940.53486838
 20
-1790.35681412
 30
0.0
 11
2940.19380975
 21
-1790.82042742
 31
0.0
  0
LINE
  5
566
100
AcDbEntity
  8
Sc.1_5
 62
     9
  6
CONTINUOUS
370
    -2
100
AcDbLine
 10
2935.91606245
 20
-1787.69015444
 30
0.0
 11
2935.57500382
 21
-1788.15376774
 31
0.0
  0
LINE
  5
567
100
AcDbEntity
  8
Sc.1_5
 62
     9
  6
CONTINUOUS
370
    -2
100
AcDbLine
 10
2931.29725652
 20
-1785.02349475
 30
0.0
 11
2930.95619788
 21
-1785.48710806
 31
0.0
  0
LINE
  5
568
100
AcDbEntity
  8
Sc.1_5
 62
     9
  6
CONTINUOUS
370
    -2
100
AcDbLine
 10
2926.67845059
 20
-1782.35683507
 30
0.0
 11
2926.67843195
 21
-1782.35686041
 31
0.0
  0
LINE
  5
569
100
AcDbEntity
  8
Sc.1_5
 62
     9
  6
CONTINUOUS
370
    -2
100
AcDbLine
 10
2982.10403291
 20
-1814.35690026
 30
0.0
 11
2981.87306147
 21
-1814.88407242
 31
0.0
  0
LINE
  5
56A
100
AcDbEntity
  8
Sc.1_5
 62
     9
  6
CONTINUOUS
370
    -2
100
AcDbLine
 10
2977.48523421
 20
-1811.69022806
 30
0.0
 11
2977.25426277
 21
-1812.21740021
 31
0.0
  0
LINE
  5
56B
100
AcDbEntity
  8
Sc.1_5
 62
     9
  6
CONTINUOUS
370
    -2
100
AcDbLine
 10
2972.8664355
 20
-1809.02355586
 30
0.0
 11
2972.63546406
 21
-1809.55072801
 31
0.0
  0
LINE
  5
56C
100
AcDbEntity
  8
Sc.1_5
 62
     9
  6
CONTINUOUS
370
    -2
100
AcDbLine
 10
2968.2476368
 20
-1806.35688366
 30
0.0
 11
2968.01666536
 21
-1806.88405581
 31
0.0
  0
LINE
  5
56D
100
AcDbEntity
  8
Sc.1_5
 62
     9
  6
CONTINUOUS
370
    -2
100
AcDbLine
 10
2963.6288381
 20
-1803.69021146
 30
0.0
 11
2963.39786665
 21
-1804.21738361
 31
0.0
  0
LINE
  5
56E
100
AcDbEntity
  8
Sc.1_5
 62
     9
  6
CONTINUOUS
370
    -2
100
AcDbLine
 10
2959.01003939
 20
-1801.02353925
 30
0.0
 11
2958.77906795
 21
-1801.55071141
 31
0.0
  0
LINE
  5
56F
100
AcDbEntity
  8
Sc.1_5
 62
     9
  6
CONTINUOUS
370
    -2
100
AcDbLine
 10
2954.39124069
 20
-1798.35686705
 30
0.0
 11
2954.16026925
 21
-1798.88403921
 31
0.0
  0
LINE
  5
570
100
AcDbEntity
  8
Sc.1_5
 62
     9
  6
CONTINUOUS
370
    -2
100
AcDbLine
 10
2949.77244198
 20
-1795.69019485
 30
0.0
 11
2949.54147054
 21
-1796.21736701
 31
0.0
  0
LINE
  5
571
100
AcDbEntity
  8
Sc.1_5
 62
     9
  6
CONTINUOUS
370
    -2
100
AcDbLine
 10
2945.15364328
 20
-1793.02352265
 30
0.0
 11
2944.92267184
 21
-1793.55069481
 31
0.0
  0
LINE
  5
572
100
AcDbEntity
  8
Sc.1_5
 62
     9
  6
CONTINUOUS
370
    -2
100
AcDbLine
 10
2940.53484457
 20
-1790.35685045
 30
0.0
 11
2940.30387313
 21
-1790.8840226
 31
0.0
  0
LINE
  5
573
100
AcDbEntity
  8
Sc.1_5
 62
     9
  6
CONTINUOUS
370
    -2
100
AcDbLine
 10
2935.91604587
 20
-1787.69017825
 30
0.0
 11
2935.68507443
 21
-1788.2173504
 31
0.0
  0
LINE
  5
574
100
AcDbEntity
  8
Sc.1_5
 62
     9
  6
CONTINUOUS
370
    -2
100
AcDbLine
 10
2931.29724717
 20
-1785.02350605
 30
0.0
 11
2931.06627572
 21
-1785.5506782
 31
0.0
  0
LINE
  5
575
100
AcDbEntity
  8
Sc.1_5
 62
     9
  6
CONTINUOUS
370
    -2
100
AcDbLine
 10
2926.67844846
 20
-1782.35683385
 30
0.0
 11
2926.44747702
 21
-1782.884006
 31
0.0
  0
ENDBLK
  5
576
100
AcDbEntity
100
AcDbBlockEnd
  0
BLOCK
  5
577
100
AcDbEntity
  8
Sc.1_5
100
AcDbBlockBegin
  2
*X2537
 70
     1
 10
0.0
 20
0.0
 30
0.0
  3
*X2537
  1

  4
Cadwork hatch
  0
LINE
  5
578
100
AcDbEntity
  8
Sc.1_5
 62
     9
  6
CONTINUOUS
370
    -2
100
AcDbLine
 10
2901.08138726
 20
-1763.96301825
 30
0.0
 11
2901.39092186
 21
-1764.14203219
 31
0.0
  0
LINE
  5
579
100
AcDbEntity
  8
Sc.1_5
 62
     9
  6
CONTINUOUS
370
    -2
100
AcDbLine
 10
2903.08322659
 20
-1765.1207471
 30
0.0
 11
2903.7022968
 21
-1765.47877555
 31
0.0
  0
LINE
  5
57A
100
AcDbEntity
  8
Sc.1_5
 62
     9
  6
CONTINUOUS
370
    -2
100
AcDbLine
 10
2905.39460153
 20
-1766.45749045
 30
0.0
 11
2906.01367174
 21
-1766.8155189
 31
0.0
  0
LINE
  5
57B
100
AcDbEntity
  8
Sc.1_5
 62
     9
  6
CONTINUOUS
370
    -2
100
AcDbLine
 10
2907.70597646
 20
-1767.79423381
 30
0.0
 11
2908.32504667
 21
-1768.15226226
 31
0.0
  0
LINE
  5
57C
100
AcDbEntity
  8
Sc.1_5
 62
     9
  6
CONTINUOUS
370
    -2
100
AcDbLine
 10
2910.0173514
 20
-1769.13097717
 30
0.0
 11
2910.63642161
 21
-1769.48900562
 31
0.0
  0
LINE
  5
57D
100
AcDbEntity
  8
Sc.1_5
 62
     9
  6
CONTINUOUS
370
    -2
100
AcDbLine
 10
2912.32872634
 20
-1770.46772052
 30
0.0
 11
2912.94779654
 21
-1770.82574898
 31
0.0
  0
LINE
  5
57E
100
AcDbEntity
  8
Sc.1_5
 62
     9
  6
CONTINUOUS
370
    -2
100
AcDbLine
 10
2914.64010127
 20
-1771.80446388
 30
0.0
 11
2915.25917148
 21
-1772.16249233
 31
0.0
  0
LINE
  5
57F
100
AcDbEntity
  8
Sc.1_5
 62
     9
  6
CONTINUOUS
370
    -2
100
AcDbLine
 10
2916.95147621
 20
-1773.14120724
 30
0.0
 11
2917.57054642
 21
-1773.49923569
 31
0.0
  0
LINE
  5
580
100
AcDbEntity
  8
Sc.1_5
 62
     9
  6
CONTINUOUS
370
    -2
100
AcDbLine
 10
2919.26285114
 20
-1774.4779506
 30
0.0
 11
2919.88192135
 21
-1774.83597905
 31
0.0
  0
LINE
  5
581
100
AcDbEntity
  8
Sc.1_5
 62
     9
  6
CONTINUOUS
370
    -2
100
AcDbLine
 10
2901.11487177
 20
-1779.90520291
 30
0.0
 11
2901.33179548
 21
-1779.53011816
 31
0.0
  0
LINE
  5
582
100
AcDbEntity
  8
Sc.1_5
 62
     9
  6
CONTINUOUS
370
    -2
100
AcDbLine
 10
2905.73762023
 20
-1782.57868881
 30
0.0
 11
2905.95454395
 21
-1782.20360406
 31
0.0
  0
LINE
  5
583
100
AcDbEntity
  8
Sc.1_5
 62
     9
  6
CONTINUOUS
370
    -2
100
AcDbLine
 10
2910.3603687
 20
-1785.25217471
 30
0.0
 11
2910.57729242
 21
-1784.87708997
 31
0.0
  0
LINE
  5
584
100
AcDbEntity
  8
Sc.1_5
 62
     9
  6
CONTINUOUS
370
    -2
100
AcDbLine
 10
2904.36739326
 20
-1768.9478784
 30
0.0
 11
2904.58431698
 21
-1768.57279365
 31
0.0
  0
LINE
  5
585
100
AcDbEntity
  8
Sc.1_5
 62
     9
  6
CONTINUOUS
370
    -2
100
AcDbLine
 10
2908.99014173
 20
-1771.6213643
 30
0.0
 11
2909.20706544
 21
-1771.24627955
 31
0.0
  0
LINE
  5
586
100
AcDbEntity
  8
Sc.1_5
 62
     9
  6
CONTINUOUS
370
    -2
100
AcDbLine
 10
2913.61289019
 20
-1774.2948502
 30
0.0
 11
2913.82981391
 21
-1773.91976545
 31
0.0
  0
LINE
  5
587
100
AcDbEntity
  8
Sc.1_5
 62
     9
  6
CONTINUOUS
370
    -2
100
AcDbLine
 10
2918.23563866
 20
-1776.9683361
 30
0.0
 11
2918.45256238
 21
-1776.59325135
 31
0.0
  0
LINE
  5
588
100
AcDbEntity
  8
Sc.1_5
 62
     9
  6
CONTINUOUS
370
    -2
100
AcDbLine
 10
2901.56374176
 20
-1779.00252236
 30
0.0
 11
2904.13602867
 21
-1769.47563467
 31
0.0
  0
LINE
  5
589
100
AcDbEntity
  8
Sc.1_5
 62
     9
  6
CONTINUOUS
370
    -2
100
AcDbLine
 10
2906.1864847
 20
-1781.67601564
 30
0.0
 11
2908.75877161
 21
-1772.14912795
 31
0.0
  0
LINE
  5
58A
100
AcDbEntity
  8
Sc.1_5
 62
     9
  6
CONTINUOUS
370
    -2
100
AcDbLine
 10
2910.80922764
 20
-1784.34950893
 30
0.0
 11
2913.38151455
 21
-1774.82262124
 31
0.0
  0
LINE
  5
58B
100
AcDbEntity
  8
Sc.1_5
 62
     9
  6
CONTINUOUS
370
    -2
100
AcDbLine
 10
2917.04826116
 20
-1781.0368042
 30
0.0
 11
2918.0042575
 21
-1777.49611453
 31
0.0
  0
LINE
  5
58C
100
AcDbEntity
  8
Sc.1_5
 62
     9
  6
CONTINUOUS
370
    -2
100
AcDbLine
 10
2901.06724362
 20
-1772.37232954
 30
0.0
 11
2904.02534376
 21
-1769.4116114
 31
0.0
  0
LINE
  5
58D
100
AcDbEntity
  8
Sc.1_5
 62
     9
  6
CONTINUOUS
370
    -2
100
AcDbLine
 10
2901.67342367
 20
-1779.06593381
 30
0.0
 11
2908.64809587
 21
-1772.08508883
 31
0.0
  0
LINE
  5
58E
100
AcDbEntity
  8
Sc.1_5
 62
     9
  6
CONTINUOUS
370
    -2
100
AcDbLine
 10
2906.29617578
 20
-1781.73941124
 30
0.0
 11
2913.27084798
 21
-1774.75856626
 31
0.0
  0
LINE
  5
58F
100
AcDbEntity
  8
Sc.1_5
 62
     9
  6
CONTINUOUS
370
    -2
100
AcDbLine
 10
2910.9189279
 20
-1784.41288867
 30
0.0
 11
2917.89360009
 21
-1777.43204369
 31
0.0
  0
LINE
  5
590
100
AcDbEntity
  8
Sc.1_5
 62
     9
  6
CONTINUOUS
370
    -2
100
AcDbLine
 10
2902.62324004
 20
-1783.35917177
 30
0.0
 11
2903.31770865
 21
-1783.54249068
 31
0.0
  0
LINE
  5
591
100
AcDbEntity
  8
Sc.1_5
 62
     9
  6
CONTINUOUS
370
    -2
100
AcDbLine
 10
2907.26748268
 20
-1786.03833158
 30
0.0
 11
2907.9404569
 21
-1786.21597662
 31
0.0
  0
LINE
  5
592
100
AcDbEntity
  8
Sc.1_5
 62
     9
  6
CONTINUOUS
370
    -2
100
AcDbLine
 10
2911.91172532
 20
-1788.7174914
 30
0.0
 11
2912.52096392
 21
-1788.87831214
 31
0.0
  0
LINE
  5
593
100
AcDbEntity
  8
Sc.1_5
 62
     9
  6
CONTINUOUS
370
    -2
100
AcDbLine
 10
2901.99372166
 20
-1782.99601667
 30
0.0
 11
2901.48635485
 21
-1782.48335697
 31
0.0
  0
LINE
  5
594
100
AcDbEntity
  8
Sc.1_5
 62
     9
  6
CONTINUOUS
370
    -2
100
AcDbLine
 10
2906.60096
 20
-1785.65382954
 30
0.0
 11
2906.1091036
 21
-1785.15684205
 31
0.0
  0
LINE
  5
595
100
AcDbEntity
  8
Sc.1_5
 62
     9
  6
CONTINUOUS
370
    -2
100
AcDbLine
 10
2911.20819834
 20
-1788.3116424
 30
0.0
 11
2910.73185235
 21
-1787.83032712
 31
0.0
  0
LINE
  5
596
100
AcDbEntity
  8
Sc.1_5
 62
     9
  6
CONTINUOUS
370
    -2
100
AcDbLine
 10
2902.38146263
 20
-1764.93550088
 30
0.0
 11
2903.08321881
 21
-1765.1207435
 31
0.0
  0
LINE
  5
597
100
AcDbEntity
  8
Sc.1_5
 62
     9
  6
CONTINUOUS
370
    -2
100
AcDbLine
 10
2907.00421088
 20
-1767.60898683
 30
0.0
 11
2907.70596706
 21
-1767.79422944
 31
0.0
  0
LINE
  5
598
100
AcDbEntity
  8
Sc.1_5
 62
     9
  6
CONTINUOUS
370
    -2
100
AcDbLine
 10
2911.62695913
 20
-1770.28247277
 30
0.0
 11
2912.32871531
 21
-1770.46771538
 31
0.0
  0
LINE
  5
599
100
AcDbEntity
  8
Sc.1_5
 62
     9
  6
CONTINUOUS
370
    -2
100
AcDbLine
 10
2916.24970738
 20
-1772.95595871
 30
0.0
 11
2916.95146356
 21
-1773.14120132
 31
0.0
  0
LINE
  5
59A
100
AcDbEntity
  8
Sc.1_5
 62
     9
  6
CONTINUOUS
370
    -2
100
AcDbLine
 10
2917.57054666
 20
-1773.4992369
 30
0.0
 11
2918.08109035
 21
-1774.01510676
 31
0.0
  0
LINE
  5
59B
100
AcDbEntity
  8
Sc.1_5
 62
     9
  6
CONTINUOUS
370
    -2
100
AcDbLine
 10
2912.94779827
 20
-1770.82575121
 30
0.0
 11
2913.45834196
 21
-1771.34162107
 31
0.0
  0
LINE
  5
59C
100
AcDbEntity
  8
Sc.1_5
 62
     9
  6
CONTINUOUS
370
    -2
100
AcDbLine
 10
2908.32504988
 20
-1768.15226551
 30
0.0
 11
2908.83559356
 21
-1768.66813538
 31
0.0
  0
LINE
  5
59D
100
AcDbEntity
  8
Sc.1_5
 62
     9
  6
CONTINUOUS
370
    -2
100
AcDbLine
 10
2903.70230148
 20
-1765.47877982
 30
0.0
 11
2904.21284517
 21
-1765.99464968
 31
0.0
  0
LINE
  5
59E
100
AcDbEntity
  8
Sc.1_5
 62
     9
  6
CONTINUOUS
370
    -2
100
AcDbLine
 10
2903.31772132
 20
-1783.54249374
 30
0.0
 11
2904.01490201
 21
-1783.53127909
 31
0.0
  0
LINE
  5
59F
100
AcDbEntity
  8
Sc.1_5
 62
     9
  6
CONTINUOUS
370
    -2
100
AcDbLine
 10
2907.94047061
 20
-1786.21598007
 30
0.0
 11
2908.63765129
 21
-1786.20476542
 31
0.0
  0
LINE
  5
5A0
100
AcDbEntity
  8
Sc.1_5
 62
     9
  6
CONTINUOUS
370
    -2
100
AcDbLine
 10
2901.48292566
 20
-1782.48137267
 30
0.0
 11
2901.14494539
 21
-1781.8714907
 31
0.0
  0
LINE
  5
5A1
100
AcDbEntity
  8
Sc.1_5
 62
     9
  6
CONTINUOUS
370
    -2
100
AcDbLine
 10
2906.10567473
 20
-1785.15485938
 30
0.0
 11
2905.76769446
 21
-1784.54497741
 31
0.0
  0
LINE
  5
5A2
100
AcDbEntity
  8
Sc.1_5
 62
     9
  6
CONTINUOUS
370
    -2
100
AcDbLine
 10
2910.7284238
 20
-1787.82834608
 30
0.0
 11
2910.39044353
 21
-1787.21846411
 31
0.0
  0
LINE
  5
5A3
100
AcDbEntity
  8
Sc.1_5
 62
     9
  6
CONTINUOUS
370
    -2
100
AcDbLine
 10
2901.68429347
 20
-1764.94672001
 30
0.0
 11
2902.38147416
 21
-1764.93550536
 31
0.0
  0
LINE
  5
5A4
100
AcDbEntity
  8
Sc.1_5
 62
     9
  6
CONTINUOUS
370
    -2
100
AcDbLine
 10
2906.30704276
 20
-1767.62020634
 30
0.0
 11
2907.00422344
 21
-1767.60899169
 31
0.0
  0
LINE
  5
5A5
100
AcDbEntity
  8
Sc.1_5
 62
     9
  6
CONTINUOUS
370
    -2
100
AcDbLine
 10
2910.92979204
 20
-1770.29369267
 30
0.0
 11
2911.62697273
 21
-1770.28247802
 31
0.0
  0
LINE
  5
5A6
100
AcDbEntity
  8
Sc.1_5
 62
     9
  6
CONTINUOUS
370
    -2
100
AcDbLine
 10
2915.55254132
 20
-1772.96717901
 30
0.0
 11
2916.24972201
 21
-1772.95596435
 31
0.0
  0
LINE
  5
5A7
100
AcDbEntity
  8
Sc.1_5
 62
     9
  6
CONTINUOUS
370
    -2
100
AcDbLine
 10
2918.08108581
 20
-1774.01510029
 30
0.0
 11
2918.41906611
 21
-1774.62498223
 31
0.0
  0
LINE
  5
5A8
100
AcDbEntity
  8
Sc.1_5
 62
     9
  6
CONTINUOUS
370
    -2
100
AcDbLine
 10
2913.45833656
 20
-1771.34161389
 30
0.0
 11
2913.79631687
 21
-1771.95149584
 31
0.0
  0
LINE
  5
5A9
100
AcDbEntity
  8
Sc.1_5
 62
     9
  6
CONTINUOUS
370
    -2
100
AcDbLine
 10
2908.83558731
 20
-1768.6681275
 30
0.0
 11
2909.17356762
 21
-1769.27800945
 31
0.0
  0
LINE
  5
5AA
100
AcDbEntity
  8
Sc.1_5
 62
     9
  6
CONTINUOUS
370
    -2
100
AcDbLine
 10
2904.21283806
 20
-1765.9946411
 30
0.0
 11
2904.55081837
 21
-1766.60452305
 31
0.0
  0
LINE
  5
5AB
100
AcDbEntity
  8
Sc.1_5
 62
     9
  6
CONTINUOUS
370
    -2
100
AcDbLine
 10
2904.01490064
 20
-1783.53127915
 30
0.0
 11
2904.58777341
 21
-1783.37823041
 31
0.0
  0
LINE
  5
5AC
100
AcDbEntity
  8
Sc.1_5
 62
     9
  6
CONTINUOUS
370
    -2
100
AcDbLine
 10
2908.63765033
 20
-1786.20476575
 30
0.0
 11
2909.21052309
 21
-1786.05171702
 31
0.0
  0
LINE
  5
5AD
100
AcDbEntity
  8
Sc.1_5
 62
     9
  6
CONTINUOUS
370
    -2
100
AcDbLine
 10
2901.14836888
 20
-1781.87347053
 30
0.0
 11
2901.05187113
 21
-1781.51227232
 31
0.0
  0
LINE
  5
5AE
100
AcDbEntity
  8
Sc.1_5
 62
     9
  6
CONTINUOUS
370
    -2
100
AcDbLine
 10
2905.77111856
 20
-1784.54695713
 30
0.0
 11
2905.61806983
 21
-1783.97408437
 31
0.0
  0
LINE
  5
5AF
100
AcDbEntity
  8
Sc.1_5
 62
     9
  6
CONTINUOUS
370
    -2
100
AcDbLine
 10
2910.39386825
 20
-1787.22044374
 30
0.0
 11
2910.24081951
 21
-1786.64757098
 31
0.0
  0
LINE
  5
5B0
100
AcDbEntity
  8
Sc.1_5
 62
     9
  6
CONTINUOUS
370
    -2
100
AcDbLine
 10
2901.11142088
 20
-1765.09976851
 30
0.0
 11
2901.68429364
 21
-1764.94671977
 31
0.0
  0
LINE
  5
5B1
100
AcDbEntity
  8
Sc.1_5
 62
     9
  6
CONTINUOUS
370
    -2
100
AcDbLine
 10
2905.73417056
 20
-1767.77325511
 30
0.0
 11
2906.30704333
 21
-1767.62020638
 31
0.0
  0
LINE
  5
5B2
100
AcDbEntity
  8
Sc.1_5
 62
     9
  6
CONTINUOUS
370
    -2
100
AcDbLine
 10
2910.35692025
 20
-1770.44674172
 30
0.0
 11
2910.92979301
 21
-1770.29369299
 31
0.0
  0
LINE
  5
5B3
100
AcDbEntity
  8
Sc.1_5
 62
     9
  6
CONTINUOUS
370
    -2
100
AcDbLine
 10
2914.97966994
 20
-1773.12022833
 30
0.0
 11
2915.5525427
 21
-1772.96717959
 31
0.0
  0
LINE
  5
5B4
100
AcDbEntity
  8
Sc.1_5
 62
     9
  6
CONTINUOUS
370
    -2
100
AcDbLine
 10
2919.60241962
 20
-1775.79371493
 30
0.0
 11
2920.16161332
 21
-1775.6443207
 31
0.0
  0
LINE
  5
5B5
100
AcDbEntity
  8
Sc.1_5
 62
     9
  6
CONTINUOUS
370
    -2
100
AcDbLine
 10
2918.41906624
 20
-1774.62498533
 30
0.0
 11
2918.57211497
 21
-1775.1978581
 31
0.0
  0
LINE
  5
5B6
100
AcDbEntity
  8
Sc.1_5
 62
     9
  6
CONTINUOUS
370
    -2
100
AcDbLine
 10
2913.79631655
 20
-1771.95149873
 30
0.0
 11
2913.94936529
 21
-1772.52437149
 31
0.0
  0
LINE
  5
5B7
100
AcDbEntity
  8
Sc.1_5
 62
     9
  6
CONTINUOUS
370
    -2
100
AcDbLine
 10
2909.17356687
 20
-1769.27801212
 30
0.0
 11
2909.3266156
 21
-1769.85088488
 31
0.0
  0
LINE
  5
5B8
100
AcDbEntity
  8
Sc.1_5
 62
     9
  6
CONTINUOUS
370
    -2
100
AcDbLine
 10
2904.55081718
 20
-1766.60452551
 30
0.0
 11
2904.70386592
 21
-1767.17739828
 31
0.0
  0
LINE
  5
5B9
100
AcDbEntity
  8
Sc.1_5
 62
     9
  6
CONTINUOUS
370
    -2
100
AcDbLine
 10
2904.58777275
 20
-1783.37822744
 30
0.0
 11
2905.14550814
 21
-1783.10296806
 31
0.0
  0
LINE
  5
5BA
100
AcDbEntity
  8
Sc.1_5
 62
     9
  6
CONTINUOUS
370
    -2
100
AcDbLine
 10
2909.21052219
 20
-1786.0517132
 30
0.0
 11
2909.76825758
 21
-1785.77645383
 31
0.0
  0
LINE
  5
5BB
100
AcDbEntity
  8
Sc.1_5
 62
     9
  6
CONTINUOUS
370
    -2
100
AcDbLine
 10
2905.61806704
 20
-1783.97408488
 30
0.0
 11
2905.57849512
 21
-1783.35338322
 31
0.0
  0
LINE
  5
5BC
100
AcDbEntity
  8
Sc.1_5
 62
     9
  6
CONTINUOUS
370
    -2
100
AcDbLine
 10
2910.2408157
 20
-1786.64757201
 30
0.0
 11
2910.20124378
 21
-1786.02687035
 31
0.0
  0
LINE
  5
5BD
100
AcDbEntity
  8
Sc.1_5
 62
     9
  6
CONTINUOUS
370
    -2
100
AcDbLine
 10
2901.07944882
 20
-1765.11554533
 30
0.0
 11
2901.11142001
 21
-1765.09976657
 31
0.0
  0
LINE
  5
5BE
100
AcDbEntity
  8
Sc.1_5
 62
     9
  6
CONTINUOUS
370
    -2
100
AcDbLine
 10
2905.17643406
 20
-1768.04851172
 30
0.0
 11
2905.73416945
 21
-1767.77325234
 31
0.0
  0
LINE
  5
5BF
100
AcDbEntity
  8
Sc.1_5
 62
     9
  6
CONTINUOUS
370
    -2
100
AcDbLine
 10
2909.79918351
 20
-1770.72199748
 30
0.0
 11
2910.3569189
 21
-1770.44673811
 31
0.0
  0
LINE
  5
5C0
100
AcDbEntity
  8
Sc.1_5
 62
     9
  6
CONTINUOUS
370
    -2
100
AcDbLine
 10
2914.42193295
 20
-1773.39548325
 30
0.0
 11
2914.97966834
 21
-1773.12022388
 31
0.0
  0
LINE
  5
5C1
100
AcDbEntity
  8
Sc.1_5
 62
     9
  6
CONTINUOUS
370
    -2
100
AcDbLine
 10
2919.04468239
 20
-1776.06896902
 30
0.0
 11
2919.60241778
 21
-1775.79370965
 31
0.0
  0
LINE
  5
5C2
100
AcDbEntity
  8
Sc.1_5
 62
     9
  6
CONTINUOUS
370
    -2
100
AcDbLine
 10
2918.57211569
 20
-1775.1978562
 30
0.0
 11
2918.61168765
 21
-1775.81855786
 31
0.0
  0
LINE
  5
5C3
100
AcDbEntity
  8
Sc.1_5
 62
     9
  6
CONTINUOUS
370
    -2
100
AcDbLine
 10
2913.94936685
 20
-1772.52436939
 30
0.0
 11
2913.98893881
 21
-1773.14507105
 31
0.0
  0
LINE
  5
5C4
100
AcDbEntity
  8
Sc.1_5
 62
     9
  6
CONTINUOUS
370
    -2
100
AcDbLine
 10
2909.32661801
 20
-1769.85088257
 30
0.0
 11
2909.36618998
 21
-1770.47158423
 31
0.0
  0
LINE
  5
5C5
100
AcDbEntity
  8
Sc.1_5
 62
     9
  6
CONTINUOUS
370
    -2
100
AcDbLine
 10
2904.70386918
 20
-1767.17739576
 30
0.0
 11
2904.74344114
 21
-1767.79809742
 31
0.0
  0
LINE
  5
5C6
100
AcDbEntity
  8
Sc.1_5
 62
     9
  6
CONTINUOUS
370
    -2
100
AcDbLine
 10
2901.05448413
 20
-1779.95867333
 30
0.0
 11
2901.11487252
 21
-1779.90520323
 31
0.0
  0
LINE
  5
5C7
100
AcDbEntity
  8
Sc.1_5
 62
     9
  6
CONTINUOUS
370
    -2
100
AcDbLine
 10
2905.14550656
 20
-1783.10297031
 30
0.0
 11
2905.73762212
 21
-1782.57868948
 31
0.0
  0
LINE
  5
5C8
100
AcDbEntity
  8
Sc.1_5
 62
     9
  6
CONTINUOUS
370
    -2
100
AcDbLine
 10
2909.76825616
 20
-1785.77645656
 30
0.0
 11
2910.36037173
 21
-1785.25217573
 31
0.0
  0
LINE
  5
5C9
100
AcDbEntity
  8
Sc.1_5
 62
     9
  6
CONTINUOUS
370
    -2
100
AcDbLine
 10
2901.05407624
 20
-1780.20118991
 30
0.0
 11
2901.11487239
 21
-1779.90520408
 31
0.0
  0
LINE
  5
5CA
100
AcDbEntity
  8
Sc.1_5
 62
     9
  6
CONTINUOUS
370
    -2
100
AcDbLine
 10
2905.57849785
 20
-1783.35338482
 30
0.0
 11
2905.73762173
 21
-1782.5786908
 31
0.0
  0
LINE
  5
5CB
100
AcDbEntity
  8
Sc.1_5
 62
     9
  6
CONTINUOUS
370
    -2
100
AcDbLine
 10
2910.20124719
 20
-1786.02687153
 30
0.0
 11
2910.36037106
 21
-1785.25217751
 31
0.0
  0
LINE
  5
5CC
100
AcDbEntity
  8
Sc.1_5
 62
     9
  6
CONTINUOUS
370
    -2
100
AcDbLine
 10
2904.58431679
 20
-1768.57279344
 30
0.0
 11
2905.17643236
 21
-1768.04851261
 31
0.0
  0
LINE
  5
5CD
100
AcDbEntity
  8
Sc.1_5
 62
     9
  6
CONTINUOUS
370
    -2
100
AcDbLine
 10
2909.2070664
 20
-1771.24627969
 30
0.0
 11
2909.79918196
 21
-1770.72199886
 31
0.0
  0
LINE
  5
5CE
100
AcDbEntity
  8
Sc.1_5
 62
     9
  6
CONTINUOUS
370
    -2
100
AcDbLine
 10
2913.829816
 20
-1773.91976594
 30
0.0
 11
2914.42193157
 21
-1773.39548511
 31
0.0
  0
LINE
  5
5CF
100
AcDbEntity
  8
Sc.1_5
 62
     9
  6
CONTINUOUS
370
    -2
100
AcDbLine
 10
2918.4525656
 20
-1776.59325219
 30
0.0
 11
2919.04468117
 21
-1776.06897136
 31
0.0
  0
LINE
  5
5D0
100
AcDbEntity
  8
Sc.1_5
 62
     9
  6
CONTINUOUS
370
    -2
100
AcDbLine
 10
2918.61168783
 20
-1775.81856016
 30
0.0
 11
2918.45256395
 21
-1776.59325418
 31
0.0
  0
LINE
  5
5D1
100
AcDbEntity
  8
Sc.1_5
 62
     9
  6
CONTINUOUS
370
    -2
100
AcDbLine
 10
2913.98893849
 20
-1773.14507345
 30
0.0
 11
2913.82981462
 21
-1773.91976747
 31
0.0
  0
LINE
  5
5D2
100
AcDbEntity
  8
Sc.1_5
 62
     9
  6
CONTINUOUS
370
    -2
100
AcDbLine
 10
2909.36618916
 20
-1770.47158673
 30
0.0
 11
2909.20706528
 21
-1771.24628076
 31
0.0
  0
LINE
  5
5D3
100
AcDbEntity
  8
Sc.1_5
 62
     9
  6
CONTINUOUS
370
    -2
100
AcDbLine
 10
2904.74343982
 20
-1767.79810002
 30
0.0
 11
2904.58431595
 21
-1768.57279404
 31
0.0
  0
LINE
  5
5D4
100
AcDbEntity
  8
Sc.1_5
 62
     9
  6
CONTINUOUS
370
    -2
100
AcDbLine
 10
2901.33180206
 20
-1779.53010582
 30
0.0
 11
2901.67363928
 21
-1779.06615057
 31
0.0
  0
LINE
  5
5D5
100
AcDbEntity
  8
Sc.1_5
 62
     9
  6
CONTINUOUS
370
    -2
100
AcDbLine
 10
2905.95455398
 20
-1782.20358617
 30
0.0
 11
2906.29639119
 21
-1781.73963093
 31
0.0
  0
LINE
  5
5D6
100
AcDbEntity
  8
Sc.1_5
 62
     9
  6
CONTINUOUS
370
    -2
100
AcDbLine
 10
2910.57730589
 20
-1784.87706653
 30
0.0
 11
2910.91914311
 21
-1784.41311128
 31
0.0
  0
LINE
  5
5D7
100
AcDbEntity
  8
Sc.1_5
 62
     9
  6
CONTINUOUS
370
    -2
100
AcDbLine
 10
2901.33179232
 20
-1779.5301228
 30
0.0
 11
2901.56344816
 21
-1779.00244607
 31
0.0
  0
LINE
  5
5D8
100
AcDbEntity
  8
Sc.1_5
 62
     9
  6
CONTINUOUS
370
    -2
100
AcDbLine
 10
2905.9545377
 20
-1782.20361446
 30
0.0
 11
2906.18619354
 21
-1781.67593773
 31
0.0
  0
LINE
  5
5D9
100
AcDbEntity
  8
Sc.1_5
 62
     9
  6
CONTINUOUS
370
    -2
100
AcDbLine
 10
2910.57728309
 20
-1784.87710611
 30
0.0
 11
2910.80893892
 21
-1784.34942939
 31
0.0
  0
LINE
  5
5DA
100
AcDbEntity
  8
Sc.1_5
 62
     9
  6
CONTINUOUS
370
    -2
100
AcDbLine
 10
2918.23565857
 20
-1776.96830806
 30
0.0
 11
2917.89382148
 21
-1777.4322634
 31
0.0
  0
LINE
  5
5DB
100
AcDbEntity
  8
Sc.1_5
 62
     9
  6
CONTINUOUS
370
    -2
100
AcDbLine
 10
2913.61290595
 20
-1774.29482893
 30
0.0
 11
2913.27106885
 21
-1774.75878427
 31
0.0
  0
LINE
  5
5DC
100
AcDbEntity
  8
Sc.1_5
 62
     9
  6
CONTINUOUS
370
    -2
100
AcDbLine
 10
2908.99015332
 20
-1771.6213498
 30
0.0
 11
2908.64831623
 21
-1772.08530514
 31
0.0
  0
LINE
  5
5DD
100
AcDbEntity
  8
Sc.1_5
 62
     9
  6
CONTINUOUS
370
    -2
100
AcDbLine
 10
2904.36740069
 20
-1768.94787068
 30
0.0
 11
2904.0255636
 21
-1769.41182602
 31
0.0
  0
LINE
  5
5DE
100
AcDbEntity
  8
Sc.1_5
 62
     9
  6
CONTINUOUS
370
    -2
100
AcDbLine
 10
2918.23562746
 20
-1776.96835695
 30
0.0
 11
2918.00397163
 21
-1777.49603367
 31
0.0
  0
LINE
  5
5DF
100
AcDbEntity
  8
Sc.1_5
 62
     9
  6
CONTINUOUS
370
    -2
100
AcDbLine
 10
2913.61288208
 20
-1774.29486529
 30
0.0
 11
2913.38122625
 21
-1774.82254202
 31
0.0
  0
LINE
  5
5E0
100
AcDbEntity
  8
Sc.1_5
 62
     9
  6
CONTINUOUS
370
    -2
100
AcDbLine
 10
2908.9901367
 20
-1771.62137363
 30
0.0
 11
2908.75848087
 21
-1772.14905036
 31
0.0
  0
LINE
  5
5E1
100
AcDbEntity
  8
Sc.1_5
 62
     9
  6
CONTINUOUS
370
    -2
100
AcDbLine
 10
2904.36739132
 20
-1768.94788198
 30
0.0
 11
2904.13573549
 21
-1769.47555871
 31
0.0
  0
ENDBLK
  5
5E2
100
AcDbEntity
100
AcDbBlockEnd
  0
ENDSEC
  0
SECTION
  2
ENTITIES
  0
LWPOLYLINE
  5
5E3
100
AcDbEntity
  8
Sc.1_5
 62
     9
  6
CONTINUOUS
370
    20
100
AcDbPolyline
 90
        6
 70
     1
 43
0.0
 38
914.4
 39
-914.4
 10
2928.01178006
 20
-1780.04743397
 10
2986.12698792
 20
-1813.60026487
 10
2978.12698707
 20
-1827.45667121
 10
2933.68993961
 20
-1801.8009299
 10
2933.87501173
 20
-1801.48037558
 10
2920.19685143
 20
-1793.58328605
  0
INSERT
  5
5E4
100
AcDbEntity
  8
Sc.1_5
 62
     0
370
    20
100
AcDbBlockReference
  2
*X2536
 10
0.0
 20
0.0
 30
0.0
  0
3DFACE
  5
5E5
100
AcDbEntity
  8
Sc.1_5
 62
     9
  6
CONTINUOUS
370
    20
100
AcDbFace
 70
     0
 10
2901.08138726
 20
-1763.9630171
 30
914.4
 11
2920.44147506
 21
-1775.15958601
 31
914.4
 12
2912.43839947
 22
-1789.02131795
 32
914.4
 13
2901.05029099
 23
-1782.4517726
 33
914.4
  0
INSERT
  5
5E6
100
AcDbEntity
  8
Sc.1_5
 62
     0
370
    20
100
AcDbBlockReference
  2
*X2537
 10
0.0
 20
0.0
 30
0.0
  0
3DFACE
  5
5E7
100
AcDbEntity
  8
Sc.1_5
 62
     9
  6
CONTINUOUS
370
    20
100
AcDbFace
 70
     0
 10
2873.9169296
 20
-1779.64202099
 30
914.4
 11
2816.98449692
 21
-1812.51197632
 31
914.4
 12
2824.98449777
 22
-1826.36838266
 32
914.4
 13
2881.91693036
 23
-1793.49842738
 33
914.4
  0
INSERT
  5
5E8
100
AcDbEntity
  8
Sc.1_5
 62
     0
370
    20
100
AcDbBlockReference
  2
*X2534
 10
0.0
 20
0.0
 30
0.0
  0
3DFACE
  5
5E9
100
AcDbEntity
  8
Sc.1_5
 62
     9
  6
CONTINUOUS
370
    20
100
AcDbFace
 70
     0
 10
2901.01919471
 20
-1763.9630171
 30
914.4
 11
2881.70573149
 21
-1775.1326215
 31
914.4
 12
2889.70883646
 22
-1788.99440432
 32
914.4
 13
2901.05029099
 23
-1782.4517726
 33
914.4
  0
INSERT
  5
5EA
100
AcDbEntity
  8
Sc.1_5
 62
     0
370
    20
100
AcDbBlockReference
  2
*X2535
 10
0.0
 20
0.0
 30
0.0
  0
LINE
  5
5EB
100
AcDbEntity
  8
Sc.1_5
 62
     7
  6
CONTINUOUS
100
AcDbLine
 10
2978.01553953
 20
-1837.5772176
 30
0.0
 11
2978.03366113
 21
-1837.54583007
 31
0.0
  0
LINE
  5
5EC
100
AcDbEntity
  8
Sc.1_5
 62
     7
  6
CONTINUOUS
100
AcDbLine
 10
2887.08143711
 20
-1838.42189208
 30
0.0
 11
2887.08143711
 21
-1870.40117066
 31
0.0
  0
LINE
  5
5ED
100
AcDbEntity
  8
Sc.1_5
 62
     7
  6
CONTINUOUS
100
AcDbLine
 10
2915.08133741
 20
-1870.40117066
 30
0.0
 11
2915.08133741
 21
-1838.42189208
 31
0.0
  0
LINE
  5
5EE
100
AcDbEntity
  8
Sc.1_5
 62
     9
  6
CONTINUOUS
100
AcDbLine
 10
2887.08122944
 20
-1829.42189208
 30
0.0
 11
2908.08127648
 21
-1814.94766291
 31
0.0
  0
LINE
  5
5EF
100
AcDbEntity
  8
Sc.1_5
 62
     9
  6
CONTINUOUS
100
AcDbLine
 10
2915.08122944
 20
-1829.42189208
 30
0.0
 11
2894.08125277
 21
-1814.94778317
 31
0.0
  0
LINE
  5
5F0
100
AcDbEntity
  8
Sc.1_5
 62
     7
  6
CONTINUOUS
370
    35
100
AcDbLine
 10
2887.08122944
 20
-1829.42189208
 30
0.0
 11
2887.08122944
 21
-1818.98924964
 31
0.0
  0
LINE
  5
5F1
100
AcDbEntity
  8
Sc.1_5
 62
     7
  6
CONTINUOUS
370
    35
100
AcDbLine
 10
2915.08122944
 20
-1829.42189208
 30
0.0
 11
2915.08122944
 21
-1818.98903652
 31
0.0
  0
LINE
  5
5F2
100
AcDbEntity
  8
Sc.1_5
 62
     7
  6
CONTINUOUS
100
AcDbLine
 10
2905.33514543
 20
-1752.91648092
 30
0.0
 11
2907.38233999
 21
-1760.55671871
 31
0.0
  0
LINE
  5
5F3
100
AcDbEntity
  8
Sc.1_5
 62
     7
  6
CONTINUOUS
100
AcDbLine
 10
2907.38233999
 20
-1760.55671871
 30
0.0
 11
2989.409348
 21
-1807.91504674
 31
0.0
  0
LINE
  5
5F4
100
AcDbEntity
  8
Sc.1_5
 62
     7
  6
CONTINUOUS
100
AcDbLine
 10
2992.20586903
 20
-1803.07133023
 30
0.0
 11
2905.33514543
 21
-1752.91648092
 31
0.0
  0
ARC
  5
5F5
100
AcDbEntity
  8
Sc.1_5
 62
     7
  6
CONTINUOUS
100
AcDbCircle
 10
2900.36911942
 20
-1751.55929235
 30
0.0
 40
5.0
100
AcDbArc
 50
355.58883546
 51
193.01067867
  0
LINE
  5
5F6
100
AcDbEntity
  8
Sc.1_5
 62
     7
  6
CADWORK_13
370
    25
100
AcDbLine
 10
2988.89697607
 20
-1808.80250096
 30
0.0
 11
2901.17639887
 21
-1758.1570021
 31
0.0
  0
LINE
  5
5F7
100
AcDbEntity
  8
Sc.1_5
 62
     7
  6
CONTINUOUS
100
AcDbLine
 10
2905.40697431
 20
-1752.94991702
 30
0.0
 11
2902.60697372
 21
-1757.79965894
 31
0.0
  0
LINE
  5
5F8
100
AcDbEntity
  8
Sc.1_5
 62
     7
  6
CONTINUOUS
100
AcDbLine
 10
2937.48613107
 20
-1770.49518058
 30
0.0
 11
2905.35430834
 21
-1751.9438589
 31
0.0
  0
LINE
  5
5F9
100
AcDbEntity
  8
Sc.1_5
 62
     7
  6
CONTINUOUS
100
AcDbLine
 10
2937.48613107
 20
-1770.49518058
 30
0.0
 11
2937.3814159
 21
-1776.49426674
 31
0.0
  0
LINE
  5
5FA
100
AcDbEntity
  8
Sc.1_5
 62
     7
  6
CONTINUOUS
100
AcDbLine
 10
2902.60697372
 20
-1757.79965894
 30
0.0
 11
2907.38233999
 21
-1760.55671871
 31
0.0
  0
LINE
  5
5FB
100
AcDbEntity
  8
Sc.1_5
 62
     7
  6
CONTINUOUS
100
AcDbLine
 10
2895.60322298
 20
-1753.6075899
 30
0.0
 11
2811.13283659
 21
-1802.37660382
 31
0.0
  0
LINE
  5
5FC
100
AcDbEntity
  8
Sc.1_5
 62
     7
  6
CONTINUOUS
100
AcDbLine
 10
2813.92935762
 20
-1807.22032033
 30
0.0
 11
2893.55602842
 21
-1761.24782769
 31
0.0
  0
LINE
  5
5FD
100
AcDbEntity
  8
Sc.1_5
 62
     7
  6
CONTINUOUS
100
AcDbLine
 10
2893.55602842
 20
-1761.24782769
 30
0.0
 11
2895.60322298
 21
-1753.6075899
 31
0.0
  0
LINE
  5
5FE
100
AcDbEntity
  8
Sc.1_5
 62
     7
  6
CADWORK_13
370
    25
100
AcDbLine
 10
2814.44173552
 20
-1808.10778489
 30
0.0
 11
2900.95900506
 21
-1758.1570021
 31
0.0
  0
LINE
  5
5FF
100
AcDbEntity
  8
Sc.1_5
 62
     7
  6
CONTINUOUS
100
AcDbLine
 10
2895.5313941
 20
-1753.641026
 30
0.0
 11
2898.33139468
 21
-1758.49076792
 31
0.0
  0
LINE
  5
600
100
AcDbEntity
  8
Sc.1_5
 62
     7
  6
CONTINUOUS
100
AcDbLine
 10
2864.64927287
 20
-1770.49518058
 30
0.0
 11
2895.49747881
 21
-1752.68495561
 31
0.0
  0
LINE
  5
601
100
AcDbEntity
  8
Sc.1_5
 62
     7
  6
CONTINUOUS
100
AcDbLine
 10
2864.64927287
 20
-1770.49518058
 30
0.0
 11
2864.75398803
 21
-1776.49426674
 31
0.0
  0
LINE
  5
602
100
AcDbEntity
  8
Sc.1_5
 62
     7
  6
CONTINUOUS
100
AcDbLine
 10
2898.33139468
 20
-1758.49076792
 30
0.0
 11
2893.55602842
 21
-1761.24782769
 31
0.0
  0
LINE
  5
603
100
AcDbEntity
  8
Sc.1_5
 62
     7
  6
CONTINUOUS
100
AcDbLine
 10
2830.68659833
 20
-1836.24470886
 30
0.0
 11
2825.10647125
 21
-1836.57964568
 31
0.0
  0
LINE
  5
604
100
AcDbEntity
  8
Sc.1_5
 62
     7
  6
CONTINUOUS
100
AcDbLine
 10
2825.10647125
 20
-1836.57964568
 30
0.0
 11
2831.26672484
 21
-1827.24951816
 31
0.0
  0
LINE
  5
605
100
AcDbEntity
  8
Sc.1_5
 62
     7
  6
CONTINUOUS
100
AcDbLine
 10
2831.26672484
 20
-1827.24951816
 30
0.0
 11
2825.68659775
 21
-1827.58445498
 31
0.0
  0
LINE
  5
606
100
AcDbEntity
  8
Sc.1_5
 62
     7
  6
CONTINUOUS
100
AcDbLine
 10
2825.68659775
 20
-1827.58445498
 30
0.0
 11
2808.10607188
 21
-1797.13409505
 31
0.0
  0
LINE
  5
607
100
AcDbEntity
  8
Sc.1_5
 62
     7
  6
CONTINUOUS
100
AcDbLine
 10
2844.30375332
 20
-1859.83030998
 30
0.0
 11
2830.68659833
 21
-1836.24470886
 31
0.0
  0
LINE
  5
608
100
AcDbEntity
  8
Sc.1_5
 62
     7
  6
CONTINUOUS
100
AcDbLine
 10
2972.47586093
 20
-1837.24470908
 30
0.0
 11
2963.52097238
 21
-1852.75503206
 31
0.0
  0
LINE
  5
609
100
AcDbEntity
  8
Sc.1_5
 62
     7
  6
CONTINUOUS
100
AcDbLine
 10
2995.88112553
 20
-1796.70559889
 30
0.0
 11
2977.47586075
 21
-1828.58445477
 31
0.0
  0
LINE
  5
60A
100
AcDbEntity
  8
Sc.1_5
 62
     7
  6
CONTINUOUS
100
AcDbLine
 10
2977.47586075
 20
-1828.58445477
 30
0.0
 11
2971.89573364
 21
-1828.24951843
 31
0.0
  0
LINE
  5
60B
100
AcDbEntity
  8
Sc.1_5
 62
     7
  6
CONTINUOUS
100
AcDbLine
 10
2971.89573364
 20
-1828.24951843
 30
0.0
 11
2978.05598804
 21
-1837.57964541
 31
0.0
  0
LINE
  5
60C
100
AcDbEntity
  8
Sc.1_5
 62
     7
  6
CONTINUOUS
100
AcDbLine
 10
2978.05598804
 20
-1837.57964541
 30
0.0
 11
2972.47586093
 21
-1837.24470908
 31
0.0
  0
LINE
  5
60D
100
AcDbEntity
  8
Sc.1_5
 62
     7
  6
CONTINUOUS
100
AcDbLine
 10
2904.40908093
 20
-1870.40117022
 30
0.0
 11
2901.90908133
 21
-1875.40117052
 31
0.0
  0
LINE
  5
60E
100
AcDbEntity
  8
Sc.1_5
 62
     7
  6
CONTINUOUS
100
AcDbLine
 10
2901.90908133
 20
-1875.40117052
 30
0.0
 11
2896.90908038
 21
-1865.40117081
 31
0.0
  0
LINE
  5
60F
100
AcDbEntity
  8
Sc.1_5
 62
     7
  6
CONTINUOUS
100
AcDbLine
 10
2896.90908038
 20
-1865.40117081
 30
0.0
 11
2894.40908078
 21
-1870.4011711
 31
0.0
  0
LINE
  5
610
100
AcDbEntity
  8
Sc.1_5
 62
     7
  6
CONTINUOUS
100
AcDbLine
 10
2894.40908078
 20
-1870.4011711
 30
0.0
 11
2882.31491395
 21
-1870.40117216
 31
0.0
  0
LINE
  5
611
100
AcDbEntity
  8
Sc.1_5
 62
     7
  6
CONTINUOUS
100
AcDbLine
 10
2919.25713191
 20
-1870.40116893
 30
0.0
 11
2904.40908093
 21
-1870.40117022
 31
0.0
  0
LWPOLYLINE
  5
612
102
{ACAD_REACTORS
330
613
102
}
100
AcDbEntity
  8
Sc.1_5
 62
     7
  6
CONTINUOUS
100
AcDbPolyline
 90
        9
 70
     1
 43
0.0
 10
2935.14500721
 20
-1799.28067889
 10
2901.08138726
 20
-1779.61403874
 10
2867.01776731
 20
-1799.28067889
 10
2867.65276505
 20
-1800.38052724
 42
0.41421356
 10
2869.38761113
 20
-1800.84537785
 10
2900.32387843
 20
-1782.9843156
 42
-0.24187551
 10
2901.83889608
 20
-1782.9843156
 10
2932.77516339
 20
-1800.84537784
 42
0.41421356
 10
2934.51000947
 20
-1800.38052724
  0
HATCH
  5
613
100
AcDbEntity
  8
Sc.1_5
 62
     9
  6
CONTINUOUS
100
AcDbHatch
 10
0.0
 20
0.0
 30
0.0
210
0.0
220
0.0
230
1.0
  2
STEEL
 70
     0
 71
     1
 91
        1
 92
        7
 72
     1
 73
     1
 93
        9
 10
2935.14500721
 20
-1799.28067889
 42
0.0
 10
2901.08138726
 20
-1779.61403874
 42
0.0
 10
2867.01776731
 20
-1799.28067889
 42
0.0
 10
2867.65276505
 20
-1800.38052724
 42
0.41421356
 10
2869.38761113
 20
-1800.84537785
 42
0.0
 10
2900.32387843
 20
-1782.9843156
 42
-0.24187551
 10
2901.83889608
 20
-1782.9843156
 42
0.0
 10
2932.77516339
 20
-1800.84537784
 42
0.41421356
 10
2934.51000947
 20
-1800.38052724
 42
0.0
 97
        1
330
612
 75
     0
 76
     2
 52
0.0
 41
1.0
 77
     0
 78
     2
 53
45.0
 43
0.0
 44
0.0
 45
-2.82842712
 46
2.82842712
 79
     2
 49
320.0
 49
0.0
 53
45.0
 43
0.0
 44
2.0
 45
-2.82842712
 46
2.82842712
 79
     2
 49
320.0
 49
0.0
 47
0.775229
 98
        1
 10
0.0
 20
0.0
  0
LWPOLYLINE
  5
614
102
{ACAD_REACTORS
330
615
102
}
100
AcDbEntity
  8
Sc.1_5
 62
     7
  6
CONTINUOUS
100
AcDbPolyline
 90
        4
 70
     1
 43
0.0
 10
2917.38133741
 20
-1870.40117066
 10
2917.38133741
 20
-1820.69254656
 10
2915.58133741
 20
-1819.65331608
 10
2915.58133741
 20
-1870.40117066
  0
HATCH
  5
615
100
AcDbEntity
  8
Sc.1_5
 62
     9
  6
CONTINUOUS
100
AcDbHatch
 10
0.0
 20
0.0
 30
0.0
210
0.0
220
0.0
230
1.0
  2
CDWK12A
 70
     0
 71
     1
 91
        1
 92
        7
 72
     0
 73
     1
 93
        4
 10
2917.38133741
 20
-1870.40117066
 10
2917.38133741
 20
-1820.69254656
 10
2915.58133741
 20
-1819.65331608
 10
2915.58133741
 20
-1870.40117066
 97
        1
330
614
 75
     0
 76
     2
 52
0.0
 41
1.0
 77
     0
 78
    15
 53
0.0
 43
0.0
 44
0.0
 45
2.70000005
 46
4.9000001
 79
     2
 49
0.0
 49
-3.70000005
 53
0.0
 43
0.0
 44
0.0
 45
4.4000001
 46
4.80000019
 79
     2
 49
0.0
 49
-5.4000001
 53
0.0
 43
0.0
 44
0.0
 45
1.39999998
 46
4.5999999
 79
     2
 49
0.0
 49
-2.4000001
 53
0.0
 43
0.0
 44
0.0
 45
2.20000005
 46
4.19999981
 79
     2
 49
0.0
 49
-3.20000005
 53
0.0
 43
0.0
 44
0.0
 45
3.79999995
 46
4.0
 79
     2
 49
0.0
 49
-4.80000019
 53
0.0
 43
0.0
 44
0.0
 45
1.20000005
 46
3.79999995
 79
     2
 49
0.0
 49
-2.20000005
 53
0.0
 43
0.0
 44
0.0
 45
2.9000001
 46
3.5
 79
     2
 49
0.0
 49
-3.9000001
 53
0.0
 43
0.0
 44
0.0
 45
4.5999999
 46
3.4000001
 79
     2
 49
0.0
 49
-5.5999999
 53
0.0
 43
0.0
 44
0.0
 45
1.89999998
 46
2.9000001
 79
     2
 49
0.0
 49
-2.9000001
 53
0.0
 43
0.0
 44
0.0
 45
3.20000005
 46
2.79999995
 79
     2
 49
0.0
 49
-4.19999981
 53
0.0
 43
0.0
 44
0.0
 45
3.9000001
 46
2.4000001
 79
     2
 49
0.0
 49
-4.9000001
 53
0.0
 43
0.0
 44
0.0
 45
2.4000001
 46
2.0999999
 79
     2
 49
0.0
 49
-3.4000001
 53
0.0
 43
0.0
 44
0.0
 45
4.9000001
 46
2.0999999
 79
     2
 49
0.0
 49
-5.9000001
 53
0.0
 43
0.0
 44
0.0
 45
3.5999999
 46
1.5
 79
     2
 49
0.0
 49
-4.5999999
 53
0.0
 43
0.0
 44
0.0
 45
1.60000002
 46
1.39999998
 79
     2
 49
0.0
 49
-2.5999999
 47
0.775229
 98
        1
 10
0.0
 20
0.0
  0
LWPOLYLINE
  5
616
102
{ACAD_REACTORS
330
617
102
}
100
AcDbEntity
  8
Sc.1_5
 62
     7
  6
CONTINUOUS
100
AcDbPolyline
 90
        4
 70
     1
 43
0.0
 10
2842.14598723
 20
-1856.09295324
 10
2886.68655272
 20
-1830.37744577
 10
2886.68655272
 20
-1828.2989848
 10
2841.24598723
 20
-1854.53410751
  0
HATCH
  5
617
100
AcDbEntity
  8
Sc.1_5
 62
     9
  6
CONTINUOUS
100
AcDbHatch
 10
0.0
 20
0.0
 30
0.0
210
0.0
220
0.0
230
1.0
  2
CDWK12A
 70
     0
 71
     1
 91
        1
 92
        7
 72
     0
 73
     1
 93
        4
 10
2842.14598723
 20
-1856.09295324
 10
2886.68655272
 20
-1830.37744577
 10
2886.68655272
 20
-1828.2989848
 10
2841.24598723
 20
-1854.53410751
 97
        1
330
616
 75
     0
 76
     2
 52
0.0
 41
1.0
 77
     0
 78
    15
 53
0.0
 43
0.0
 44
0.0
 45
2.70000005
 46
4.9000001
 79
     2
 49
0.0
 49
-3.70000005
 53
0.0
 43
0.0
 44
0.0
 45
4.4000001
 46
4.80000019
 79
     2
 49
0.0
 49
-5.4000001
 53
0.0
 43
0.0
 44
0.0
 45
1.39999998
 46
4.5999999
 79
     2
 49
0.0
 49
-2.4000001
 53
0.0
 43
0.0
 44
0.0
 45
2.20000005
 46
4.19999981
 79
     2
 49
0.0
 49
-3.20000005
 53
0.0
 43
0.0
 44
0.0
 45
3.79999995
 46
4.0
 79
     2
 49
0.0
 49
-4.80000019
 53
0.0
 43
0.0
 44
0.0
 45
1.20000005
 46
3.79999995
 79
     2
 49
0.0
 49
-2.20000005
 53
0.0
 43
0.0
 44
0.0
 45
2.9000001
 46
3.5
 79
     2
 49
0.0
 49
-3.9000001
 53
0.0
 43
0.0
 44
0.0
 45
4.5999999
 46
3.4000001
 79
     2
 49
0.0
 49
-5.5999999
 53
0.0
 43
0.0
 44
0.0
 45
1.89999998
 46
2.9000001
 79
     2
 49
0.0
 49
-2.9000001
 53
0.0
 43
0.0
 44
0.0
 45
3.20000005
 46
2.79999995
 79
     2
 49
0.0
 49
-4.19999981
 53
0.0
 43
0.0
 44
0.0
 45
3.9000001
 46
2.4000001
 79
     2
 49
0.0
 49
-4.9000001
 53
0.0
 43
0.0
 44
0.0
 45
2.4000001
 46
2.0999999
 79
     2
 49
0.0
 49
-3.4000001
 53
0.0
 43
0.0
 44
0.0
 45
4.9000001
 46
2.0999999
 79
     2
 49
0.0
 49
-5.9000001
 53
0.0
 43
0.0
 44
0.0
 45
3.5999999
 46
1.5
 79
     2
 49
0.0
 49
-4.5999999
 53
0.0
 43
0.0
 44
0.0
 45
1.60000002
 46
1.39999998
 79
     2
 49
0.0
 49
-2.5999999
 47
0.775229
 98
        1
 10
0.0
 20
0.0
  0
LWPOLYLINE
  5
618
102
{ACAD_REACTORS
330
619
102
}
100
AcDbEntity
  8
Sc.1_5
 62
     7
  6
CONTINUOUS
100
AcDbPolyline
 90
        4
 70
     1
 43
0.0
 10
2886.58143711
 20
-1870.40117066
 10
2886.58143711
 20
-1830.82524565
 10
2884.78143711
 20
-1831.86447613
 10
2884.78143711
 20
-1870.40117066
  0
HATCH
  5
619
100
AcDbEntity
  8
Sc.1_5
 62
     9
  6
CONTINUOUS
100
AcDbHatch
 10
0.0
 20
0.0
 30
0.0
210
0.0
220
0.0
230
1.0
  2
CDWK12A
 70
     0
 71
     1
 91
        1
 92
        7
 72
     0
 73
     1
 93
        4
 10
2886.58143711
 20
-1870.40117066
 10
2886.58143711
 20
-1830.82524565
 10
2884.78143711
 20
-1831.86447613
 10
2884.78143711
 20
-1870.40117066
 97
        1
330
618
 75
     0
 76
     2
 52
0.0
 41
1.0
 77
     0
 78
    15
 53
0.0
 43
0.0
 44
0.0
 45
2.70000005
 46
4.9000001
 79
     2
 49
0.0
 49
-3.70000005
 53
0.0
 43
0.0
 44
0.0
 45
4.4000001
 46
4.80000019
 79
     2
 49
0.0
 49
-5.4000001
 53
0.0
 43
0.0
 44
0.0
 45
1.39999998
 46
4.5999999
 79
     2
 49
0.0
 49
-2.4000001
 53
0.0
 43
0.0
 44
0.0
 45
2.20000005
 46
4.19999981
 79
     2
 49
0.0
 49
-3.20000005
 53
0.0
 43
0.0
 44
0.0
 45
3.79999995
 46
4.0
 79
     2
 49
0.0
 49
-4.80000019
 53
0.0
 43
0.0
 44
0.0
 45
1.20000005
 46
3.79999995
 79
     2
 49
0.0
 49
-2.20000005
 53
0.0
 43
0.0
 44
0.0
 45
2.9000001
 46
3.5
 79
     2
 49
0.0
 49
-3.9000001
 53
0.0
 43
0.0
 44
0.0
 45
4.5999999
 46
3.4000001
 79
     2
 49
0.0
 49
-5.5999999
 53
0.0
 43
0.0
 44
0.0
 45
1.89999998
 46
2.9000001
 79
     2
 49
0.0
 49
-2.9000001
 53
0.0
 43
0.0
 44
0.0
 45
3.20000005
 46
2.79999995
 79
     2
 49
0.0
 49
-4.19999981
 53
0.0
 43
0.0
 44
0.0
 45
3.9000001
 46
2.4000001
 79
     2
 49
0.0
 49
-4.9000001
 53
0.0
 43
0.0
 44
0.0
 45
2.4000001
 46
2.0999999
 79
     2
 49
0.0
 49
-3.4000001
 53
0.0
 43
0.0
 44
0.0
 45
4.9000001
 46
2.0999999
 79
     2
 49
0.0
 49
-5.9000001
 53
0.0
 43
0.0
 44
0.0
 45
3.5999999
 46
1.5
 79
     2
 49
0.0
 49
-4.5999999
 53
0.0
 43
0.0
 44
0.0
 45
1.60000002
 46
1.39999998
 79
     2
 49
0.0
 49
-2.5999999
 47
0.775229
 98
        1
 10
0.0
 20
0.0
  0
LINE
  5
61A
100
AcDbEntity
  8
Sc.1_5
 62
     9
  6
CONTINUOUS
370
    -3
100
AcDbLine
 10
2912.12442523
 20
-1811.12847374
 30
0.0
 11
2914.43742141
 21
-1811.92233153
 31
0.0
  0
LINE
  5
61B
100
AcDbEntity
  8
Sc.1_5
 62
     7
  6
CONTINUOUS
 48
0.5
370
    -3
100
AcDbLine
 10
2953.53838534
 20
-1778.9358869
 30
500.0
 11
2926.01789264
 21
-1802.29409514
 31
500.0
  0
INSERT
  5
61C
100
AcDbEntity
  8
Sc.1_5
 62
     7
  6
CONTINUOUS
370
    -3
100
AcDbBlockReference
  2
CDWK_EXTR_2
 10
2926.01789264
 20
-1802.29409514
 30
500.0
 41
1.0
 42
1.0
 43
1.0
 50
40.32316198
  0
LINE
  5
61D
100
AcDbEntity
  8
Sc.1_5
 62
     7
  6
CONTINUOUS
 48
0.5
370
    -3
100
AcDbLine
 10
2953.112219
 20
-1763.54552324
 30
500.0
 11
2924.49499689
 21
-1791.98286197
 31
500.0
  0
INSERT
  5
61E
100
AcDbEntity
  8
Sc.1_5
 62
     7
  6
CONTINUOUS
370
    -3
100
AcDbBlockReference
  2
CDWK_EXTR_2
 10
2924.49499689
 20
-1791.98286197
 30
500.0
 41
1.0
 42
1.0
 43
1.0
 50
44.81935669
  0
LINE
  5
61F
100
AcDbEntity
  8
Sc.1_5
 62
     7
  6
CONTINUOUS
 48
0.5
370
    -3
100
AcDbLine
 10
2931.1488464
 20
-1850.73854475
 30
500.0
 11
2912.37168117
 21
-1822.15521435
 31
500.0
  0
INSERT
  5
620
100
AcDbEntity
  8
Sc.1_5
 62
     7
  6
CONTINUOUS
370
    -3
100
AcDbBlockReference
  2
CDWK_EXTR_2
 10
2912.37168117
 20
-1822.15521435
 30
500.0
 41
1.0
 42
1.0
 43
1.0
 50
303.30199755
  0
LINE
  5
621
100
AcDbEntity
  8
Sc.1_5
 62
     7
  6
CONTINUOUS
 48
0.5
370
    -3
100
AcDbLine
 10
2931.28742965
 20
-1867.27803451
 30
500.0
 11
2908.11373786
 21
-1867.27803451
 31
500.0
  0
INSERT
  5
622
100
AcDbEntity
  8
Sc.1_5
 62
     7
  6
CONTINUOUS
370
    -3
100
AcDbBlockReference
  2
CDWK_EXTR_2
 10
2908.11373786
 20
-1867.27803451
 30
500.0
 41
1.0
 42
1.0
 43
1.0
  0
LINE
  5
623
100
AcDbEntity
  8
Sc.1_5
 62
     7
  6
CONTINUOUS
100
AcDbLine
 10
2880.6670586
 20
-1791.33358619
 30
0.0
 11
2872.57782754
 21
-1777.32262921
 31
0.0
  0
LINE
  5
624
100
AcDbEntity
  8
Sc.1_5
 62
     7
  6
CONTINUOUS
100
AcDbLine
 10
2872.57782746
 20
-1777.3226288
 30
0.0
 11
2871.37416344
 21
-1775.23782188
 31
0.0
  0
LINE
  5
625
100
AcDbEntity
  8
Sc.1_5
 62
     7
  6
CONTINUOUS
100
AcDbLine
 10
2880.3720561
 20
-1772.8226288
 30
0.0
 11
2879.16839207
 21
-1770.73782188
 31
0.0
  0
LINE
  5
626
100
AcDbEntity
  8
Sc.1_5
 62
     7
  6
CONTINUOUS
100
AcDbLine
 10
2871.37416352
 20
-1775.23782229
 30
0.0
 11
2872.57782754
 21
-1777.32262921
 31
0.0
  0
LINE
  5
627
100
AcDbEntity
  8
Sc.1_5
 62
     7
  6
CONTINUOUS
100
AcDbLine
 10
2872.57782754
 20
-1777.32262921
 30
0.0
 11
2880.3720561
 21
-1772.8226288
 31
0.0
  0
LINE
  5
628
100
AcDbEntity
  8
Sc.1_5
 62
     9
  6
CONTINUOUS
100
AcDbLine
 10
2880.3720561
 20
-1772.8226288
 30
0.0
 11
2871.37416344
 21
-1775.23782188
 31
0.0
  0
LINE
  5
629
100
AcDbEntity
  8
Sc.1_5
 62
     7
  6
CONTINUOUS
100
AcDbLine
 10
2879.16839207
 20
-1770.73782188
 30
0.0
 11
2871.37416352
 21
-1775.23782229
 31
0.0
  0
LINE
  5
62A
100
AcDbEntity
  8
Sc.1_5
 62
     7
  6
CONTINUOUS
100
AcDbLine
 10
2888.46128715
 20
-1786.83358578
 30
0.0
 11
2880.6670586
 21
-1791.33358619
 31
0.0
  0
LINE
  5
62B
100
AcDbEntity
  8
Sc.1_5
 62
     7
  6
CONTINUOUS
100
AcDbLine
 10
2921.49571592
 20
-1791.33358619
 30
0.0
 11
2929.58494698
 21
-1777.32262921
 31
0.0
  0
LINE
  5
62C
100
AcDbEntity
  8
Sc.1_5
 62
     7
  6
CONTINUOUS
100
AcDbLine
 10
2929.58494706
 20
-1777.3226288
 30
0.0
 11
2930.78861108
 21
-1775.23782188
 31
0.0
  0
LINE
  5
62D
100
AcDbEntity
  8
Sc.1_5
 62
     7
  6
CONTINUOUS
100
AcDbLine
 10
2921.79071842
 20
-1772.8226288
 30
0.0
 11
2922.99438245
 21
-1770.73782188
 31
0.0
  0
LINE
  5
62E
100
AcDbEntity
  8
Sc.1_5
 62
     7
  6
CONTINUOUS
100
AcDbLine
 10
2930.788611
 20
-1775.23782229
 30
0.0
 11
2929.58494698
 21
-1777.32262921
 31
0.0
  0
LINE
  5
62F
100
AcDbEntity
  8
Sc.1_5
 62
     7
  6
CONTINUOUS
100
AcDbLine
 10
2929.58494698
 20
-1777.32262921
 30
0.0
 11
2921.79071842
 21
-1772.8226288
 31
0.0
  0
LINE
  5
630
100
AcDbEntity
  8
Sc.1_5
 62
     9
  6
CONTINUOUS
100
AcDbLine
 10
2921.79071842
 20
-1772.8226288
 30
0.0
 11
2930.78861108
 21
-1775.23782188
 31
0.0
  0
LINE
  5
631
100
AcDbEntity
  8
Sc.1_5
 62
     7
  6
CONTINUOUS
100
AcDbLine
 10
2922.99438245
 20
-1770.73782188
 30
0.0
 11
2930.788611
 21
-1775.23782229
 31
0.0
  0
LINE
  5
632
100
AcDbEntity
  8
Sc.1_5
 62
     7
  6
CONTINUOUS
100
AcDbLine
 10
2913.70148737
 20
-1786.83358578
 30
0.0
 11
2921.49571592
 21
-1791.33358619
 31
0.0
  0
LINE
  5
633
100
AcDbEntity
  8
Sc.1_5
 62
     7
  6
CONTINUOUS
 48
0.5
370
    -3
100
AcDbLine
 10
2852.86707509
 20
-1760.34282875
 30
500.0
 11
2874.98462648
 21
-1777.85873069
 31
500.0
  0
INSERT
  5
634
100
AcDbEntity
  8
Sc.1_5
 62
     7
  6
CONTINUOUS
370
    -3
100
AcDbBlockReference
  2
CDWK_EXTR_2
 10
2874.98462648
 20
-1777.85873069
 30
500.0
 41
1.0
 42
1.0
 43
1.0
 50
141.62268449
  0
LINE
  5
635
100
AcDbEntity
  8
Sc.1_5
 62
     7
  6
CONTINUOUS
 48
0.5
370
    -3
100
AcDbLine
 10
2865.76832378
 20
-1878.05780676
 30
500.0
 11
2845.95463701
 21
-1853.66423503
 31
500.0
  0
INSERT
  5
636
100
AcDbEntity
  8
Sc.1_5
 62
     7
  6
CONTINUOUS
370
    -3
100
AcDbBlockReference
  2
CDWK_EXTR_2
 10
2845.95463701
 20
-1853.66423503
 30
500.0
 41
1.0
 42
1.0
 43
1.0
 50
309.08524125
  0
LWPOLYLINE
  5
637
100
AcDbEntity
  8
Sc.1_1
 62
     7
  6
DASHDOT
370
     5
100
AcDbPolyline
 90
        4
 70
     1
 43
0.0
 10
2804.52912517
 20
-1941.58736414
 10
2836.43219728
 20
-1941.58736414
 10
2836.43219728
 20
-1925.59035714
 10
2804.52912517
 20
-1925.59035714
  0
LWPOLYLINE
  5
638
100
AcDbEntity
  8
LEGEND
 62
     5
  6
CONTINUOUS
370
    -3
100
AcDbPolyline
 90
        4
 70
     1
 43
0.0
 10
2836.11442164
 20
-1942.22101287
 10
2893.92977588
 20
-1942.22101287
 10
2893.92977588
 20
-1924.95865138
 10
2836.11442164
 20
-1924.95865138
  0
LWPOLYLINE
  5
639
100
AcDbEntity
  8
LEGEND
 62
     5
  6
CONTINUOUS
370
    -3
100
AcDbPolyline
 90
        4
 70
     1
 43
0.0
 10
2893.92977588
 20
-1942.22101287
 10
2967.32192743
 20
-1942.22101287
 10
2967.32192743
 20
-1924.95865138
 10
2893.92977588
 20
-1924.95865138
  0
LWPOLYLINE
  5
63A
100
AcDbEntity
  8
LEGEND
 62
     5
  6
CONTINUOUS
370
    -3
100
AcDbPolyline
 90
        4
 70
     1
 43
0.0
 10
2967.32192743
 20
-1942.22101287
 10
3001.84592656
 20
-1942.22101287
 10
3001.84592656
 20
-1933.58983213
 10
2967.32192743
 20
-1933.58983213
  0
LWPOLYLINE
  5
63B
100
AcDbEntity
  8
LEGEND
 62
     5
  6
CONTINUOUS
370
    -3
100
AcDbPolyline
 90
        4
 70
     1
 43
0.0
 10
2967.32192743
 20
-1933.58983213
 10
2982.2301761
 20
-1933.58983213
 10
2982.2301761
 20
-1924.95865138
 10
2967.32192743
 20
-1924.95865138
  0
LWPOLYLINE
  5
63C
100
AcDbEntity
  8
LEGEND
 62
     5
  6
CONTINUOUS
370
    -3
100
AcDbPolyline
 90
        4
 70
     1
 43
0.0
 10
2804.84592656
 20
-1942.22101287
 10
3001.84592656
 20
-1942.22101287
 10
3001.84592656
 20
-1671.22101287
 10
2804.84592656
 20
-1671.22101287
  0
LWPOLYLINE
  5
63D
100
AcDbEntity
  8
LEGEND
 62
     5
  6
CONTINUOUS
370
    -3
100
AcDbPolyline
 90
        4
 70
     1
 43
0.0
 10
2982.2301761
 20
-1933.58983213
 10
3001.84592656
 20
-1933.58983213
 10
3001.84592656
 20
-1924.95865138
 10
2982.2301761
 20
-1924.95865138
  0
LWPOLYLINE
  5
63E
100
AcDbEntity
  8
LEGEND
 62
     5
  6
CONTINUOUS
370
    -3
100
AcDbPolyline
 90
        4
 70
     1
 43
0.0
 10
2804.84592656
 20
-1942.22101287
 10
2836.11442164
 20
-1942.22101287
 10
2836.11442164
 20
-1924.95865138
 10
2804.84592656
 20
-1924.95865138
  0
3DFACE
  5
63F
100
AcDbEntity
  8
Sc.1_5
 62
     7
  6
CONTINUOUS
370
    20
100
AcDbFace
 70
     0
 10
2871.02386123
 20
-1828.75894087
 30
548.63999023
 11
2874.52386072
 21
-1834.82111911
 31
548.63999023
 12
2886.6482172
 22
-1827.82112013
 32
548.63999023
 13
2883.14821771
 23
-1821.75894189
 33
548.63999023
  0
INSERT
  5
640
100
AcDbEntity
  8
Sc.1_5
 62
     0
370
    20
100
AcDbBlockReference
  2
*X2245
 10
0.0
 20
0.0
 30
0.0
  0
3DFACE
  5
641
100
AcDbEntity
  8
Sc.1_5
 62
     7
  6
CONTINUOUS
370
    20
100
AcDbFace
 70
     0
 10
2887.08122944
 20
-1829.42189208
 30
548.63999023
 11
2887.08143711
 21
-1838.42189208
 31
548.63999023
 12
2915.08122944
 22
-1838.42189208
 32
548.63999023
 13
2915.08122944
 23
-1829.42189208
 33
548.63999023
  0
INSERT
  5
642
100
AcDbEntity
  8
Sc.1_5
 62
     0
370
    20
100
AcDbBlockReference
  2
*X2246
 10
0.0
 20
0.0
 30
0.0
  0
3DFACE
  5
643
100
AcDbEntity
  8
Sc.1_5
 62
     7
  6
CONTINUOUS
370
    20
100
AcDbFace
 70
     0
 10
2872.57782746
 20
-1777.3226288
 30
548.63999023
 11
2880.37205618
 21
-1772.82262921
 31
548.63999023
 12
2888.46128715
 22
-1786.83358578
 32
548.63999023
 13
2880.6670586
 23
-1791.33358619
 33
548.63999023
  0
INSERT
  5
644
100
AcDbEntity
  8
Sc.1_5
 62
     0
370
    20
100
AcDbBlockReference
  2
*X2247
 10
0.0
 20
0.0
 30
0.0
  0
3DFACE
  5
645
100
AcDbEntity
  8
Sc.1_5
 62
     7
  6
CONTINUOUS
370
    20
100
AcDbFace
 70
     0
 10
2921.79071834
 20
-1772.82262921
 30
548.63999023
 11
2929.58494698
 21
-1777.32262921
 31
548.63999023
 12
2921.49571592
 22
-1791.33358619
 32
548.63999023
 13
2913.70148737
 23
-1786.83358578
 33
548.63999023
  0
INSERT
  5
646
100
AcDbEntity
  8
Sc.1_5
 62
     0
370
    20
100
AcDbBlockReference
  2
*X2248
 10
0.0
 20
0.0
 30
0.0
  0
3DFACE
  5
647
102
{ACAD_REACTORS
330
648
102
}
100
AcDbEntity
  8
Sc.1_5
 62
     7
  6
CONTINUOUS
100
AcDbFace
 70
     0
 10
2913.08132261
 20
-1790.12171345
 30
975.35996094
 11
2901.08132352
 21
-1810.9062893
 31
975.35996094
 12
2966.03213748
 22
-1848.4055652
 32
975.35996094
 13
2978.03207735
 23
-1827.62105965
 33
975.35996094
  0
HATCH
  5
648
100
AcDbEntity
  8
Sc.1_5
 62
     9
  6
CONTINUOUS
100
AcDbHatch
 10
0.0
 20
0.0
 30
0.0
210
0.0
220
0.0
230
1.0
  2
Wood
 70
     0
 71
     1
 91
        1
 92
        7
 72
     0
 73
     1
 93
        4
 10
2913.08132261
 20
-1790.12171345
 10
2901.08132352
 20
-1810.9062893
 10
2966.03213748
 20
-1848.4055652
 10
2978.03207735
 20
-1827.62105965
 97
        1
330
647
 75
     0
 76
     2
 52
150.0
 41
1.0
 77
     0
 78
    66
 53
150.0
 43
0.0
 44
0.0
 45
-20.61554909
 46
-35.70717845
 79
     4
 49
8.24619961
 49
-12.36929989
 49
4.1230998
 49
-16.49239922
 53
150.0
 43
-25.51036544
 44
13.53815106
 45
-20.61554909
 46
-35.70717845
 79
     2
 49
8.24619961
 49
-32.98479843
 53
150.0
 43
-22.97040583
 44
9.69128959
 45
-20.61554909
 46
-35.70717845
 79
     2
 49
4.1230998
 49
-37.10800171
 53
150.0
 43
-3.84694785
 44
-2.53990919
 45
-20.61554909
 46
-35.70717845
 79
     4
 49
2.06159997
 49
-28.86170006
 49
2.06159997
 49
-8.24619961
 53
150.0
 43
-17.3751867
 44
2.89009228
 45
-20.61554909
 46
-35.70717845
 79
     4
 49
8.24619961
 49
-12.36929989
 49
2.06159997
 49
-18.55400085
 53
150.0
 43
-8.96380743
 44
-3.15636988
 45
-20.61554909
 46
-35.70717845
 79
     2
 49
6.18470001
 49
-35.04639816
 53
150.0
 43
-18.40593649
 44
1.10478126
 45
-20.61554909
 46
-35.70717845
 79
     2
 49
12.36929989
 49
-28.86170006
 53
150.0
 43
-8.20920939
 44
-5.97256814
 45
-20.61554909
 46
-35.70717845
 79
     2
 49
8.24619961
 49
-32.98479843
 53
150.0
 43
-23.00744642
 44
1.38093284
 45
-20.61554909
 46
-35.70717845
 79
     2
 49
20.6154995
 49
-20.6154995
 53
150.0
 43
-13.32606829
 44
-6.58902813
 45
-20.61554909
 46
-35.70717845
 79
     4
 49
4.1230998
 49
-12.36929989
 49
8.24619961
 49
-16.49239922
 53
150.0
 43
-38.83652204
 44
6.94917405
 45
-20.61554909
 46
-35.70717845
 79
     2
 49
8.24619961
 49
-32.98479843
 53
150.0
 43
-32.21041526
 44
1.93332436
 45
-20.61554909
 46
-35.70717845
 79
     2
 49
4.1230998
 49
-37.10800171
 53
150.0
 43
-25.58434643
 44
-3.0823889
 45
-20.61554909
 46
-35.70717845
 79
     2
 49
4.1230998
 49
-37.10800171
 53
150.0
 43
-8.24619961
 44
-14.28283669
 45
-20.61554909
 46
-35.70717845
 79
     2
 49
8.24619961
 49
-32.98479843
 53
150.0
 43
-26.61514582
 44
-4.86778581
 45
-20.61554909
 46
-35.70717845
 79
     2
 49
8.24619961
 49
-32.98479843
 53
150.0
 43
-27.64594664
 44
-6.6531852
 45
-20.61554909
 46
-35.70717845
 79
     4
 49
8.24619961
 49
-8.24619961
 49
8.24619961
 49
-16.49239922
 53
150.0
 43
-21.53527761
 44
-12.5615952
 45
-20.61554909
 46
-35.70717845
 79
     4
 49
4.1230998
 49
-20.6154995
 49
8.24619961
 49
-8.24619961
 53
150.0
 43
-29.19209589
 44
-9.33119427
 45
-20.61554909
 46
-35.70717845
 79
     2
 49
12.36929989
 49
-28.86170006
 53
150.0
 43
-30.22284616
 44
-11.11650611
 45
-20.61554909
 46
-35.70717845
 79
     2
 49
8.24619961
 49
-32.98479843
 53
150.0
 43
-16.45540899
 44
-20.25540483
 45
-20.61554909
 46
-35.70717845
 79
     4
 49
12.36929989
 49
-16.49239922
 49
4.1230998
 49
-8.24619961
 53
150.0
 43
-17.48620886
 44
-22.04080257
 45
-20.61554909
 46
-35.70717845
 79
     2
 49
20.6154995
 49
-20.6154995
 53
150.0
 43
-39.42581548
 44
-10.56411542
 45
-20.61554909
 46
-35.70717845
 79
     2
 49
4.1230998
 49
-37.10800171
 53
150.0
 43
-29.22908665
 44
-17.64146471
 45
-20.61554909
 46
-35.70717845
 79
     2
 49
8.24619961
 49
-32.98479843
 53
150.0
 43
-22.60306824
 44
-22.65726338
 45
-20.61554909
 46
-35.70717845
 79
     4
 49
4.1230998
 49
-16.49239922
 49
4.1230998
 49
-16.49239922
 53
150.0
 43
-19.547759
 44
-25.61151215
 45
-20.61554909
 46
-35.70717845
 79
     4
 49
4.1230998
 49
-12.36929989
 49
8.24619961
 49
-16.49239922
 53
150.0
 43
-27.20452715
 44
-22.38102344
 45
-20.61554909
 46
-35.70717845
 79
     4
 49
4.1230998
 49
-20.6154995
 49
4.1230998
 49
-12.36929989
 53
150.0
 43
-34.86134542
 44
-19.1506225
 45
-20.61554909
 46
-35.70717845
 79
     2
 49
12.36929989
 49
-28.86170006
 53
150.0
 43
-21.60931009
 44
-29.18222339
 45
-20.61554909
 46
-35.70717845
 79
     2
 49
8.24619961
 49
-32.98479843
 53
150.0
 43
-39.97825672
 44
-19.76717228
 45
-20.61554909
 46
-35.70717845
 79
     2
 49
4.1230998
 49
-37.10800171
 53
150.0
 43
-47.63502267
 44
-16.53668262
 45
-20.61554909
 46
-35.70717845
 79
     2
 49
4.1230998
 49
-37.10800171
 53
164.03619957
 43
-26.54111542
 44
11.75283973
 45
35.70712635
 46
-20.61555549
 79
     2
 49
4.24679995
 49
-165.75320435
 53
164.03619957
 43
-34.75032332
 44
5.78027129
 45
35.70712635
 46
-20.61555549
 79
     2
 49
4.24679995
 49
-165.75320435
 53
164.03619957
 43
-43.5489663
 44
-17.70562213
 45
35.70712635
 46
-20.61555549
 79
     2
 49
4.24679995
 49
-165.75320435
 53
164.03619957
 43
-25.10598637
 44
-10.50004554
 45
35.70712635
 46
-20.61555549
 79
     2
 49
4.24679995
 49
-165.75320435
 53
164.03619957
 43
-35.33975555
 44
-11.73305258
 45
35.70712635
 46
-20.61555549
 79
     2
 49
4.24679995
 49
-165.75320435
 53
164.03619957
 43
-37.36426534
 44
-6.99340583
 45
35.70712635
 46
-20.61555549
 79
     2
 49
4.24679995
 49
-165.75320435
 53
164.03619957
 43
-23.11846817
 44
-23.54996225
 45
35.70712635
 46
-20.61555549
 79
     2
 49
4.24679995
 49
-165.75320435
 53
164.03619957
 43
-36.37050582
 44
-13.51836443
 45
35.70712635
 46
-20.61555549
 79
     2
 49
4.24679995
 49
-165.75320435
 53
164.03619957
 43
-35.78112319
 44
3.99487355
 45
35.70712635
 46
-20.61555549
 79
     2
 49
8.49359989
 49
-161.50639343
 53
164.03619957
 43
-33.75656499
 44
-0.74468553
 45
35.70712635
 46
-20.61555549
 79
     2
 49
8.49359989
 49
-161.50639343
 53
164.03619957
 43
-34.78736581
 44
-2.53008492
 45
35.70712635
 46
-20.61555549
 79
     2
 49
8.49359989
 49
-161.50639343
 53
315.96380615
 43
-17.3751867
 44
2.89009228
 45
35.70716
 46
-20.6154972
 79
     4
 49
4.24679995
 49
-8.49359989
 49
4.24679995
 49
-153.01280212
 53
315.96380615
 43
-13.32606829
 44
-6.58902813
 45
35.70716
 46
-20.6154972
 79
     2
 49
4.24679995
 49
-165.75320435
 53
315.96380615
 43
-22.60306824
 44
-22.65726338
 45
35.70716
 46
-20.6154972
 79
     2
 49
8.49359989
 49
-161.50639343
 53
344.03619385
 43
-25.51036544
 44
13.53815106
 45
-35.70712429
 46
20.61555905
 79
     2
 49
4.24679995
 49
-165.75320435
 53
495.9637146
 43
-32.65187216
 44
17.66130188
 45
-35.70712706
 46
20.61555426
 79
     2
 49
4.24679995
 49
-165.75320435
 53
495.9637146
 43
-29.15505601
 44
-1.02083876
 45
-35.70712706
 46
20.61555426
 79
     2
 49
4.24679995
 49
-165.75320435
 53
495.9637146
 43
-39.90422299
 44
-3.1465448
 45
-35.70712706
 46
20.61555426
 79
     2
 49
4.24679995
 49
-165.75320435
 53
495.9637146
 43
-27.16753651
 44
-14.07075512
 45
-35.70712706
 46
20.61555426
 79
     2
 49
4.24679995
 49
-165.75320435
 53
495.9637146
 43
-26.17377783
 44
-20.59571324
 45
-35.70712706
 46
20.61555426
 79
     2
 49
4.24679995
 49
-165.75320435
 53
495.9637146
 43
-30.77523591
 44
-20.31947377
 45
-35.70712706
 46
20.61555426
 79
     2
 49
4.24679995
 49
-165.75320435
 53
495.9637146
 43
-27.16753651
 44
-14.07075512
 45
-35.70712706
 46
20.61555426
 79
     2
 49
4.24679995
 49
-165.75320435
 53
495.9637146
 43
-40.97201527
 44
-13.24221203
 45
-35.70712706
 46
20.61555426
 79
     2
 49
16.98719978
 49
-153.01280212
 53
495.9637146
 43
-5.63225907
 44
-1.50915927
 45
-35.70712706
 46
20.61555426
 79
     2
 49
16.98719978
 49
-153.01280212
 53
495.9637146
 43
-10.74911845
 44
-2.12562008
 45
-35.70712706
 46
20.61555426
 79
     2
 49
16.98719978
 49
-153.01280212
 53
495.9637146
 43
-15.35062814
 44
-1.8494681
 45
-35.70712706
 46
20.61555426
 79
     4
 49
4.24679995
 49
-8.49359989
 49
8.49359989
 49
-148.76600647
 53
495.9637146
 43
-16.89677787
 44
-4.52747799
 45
-35.70712706
 46
20.61555426
 79
     4
 49
8.49359989
 49
-8.49359989
 49
8.49359989
 49
-144.51919556
 53
495.9637146
 43
-15.38761795
 44
-10.15973689
 45
-35.70712706
 46
20.61555426
 79
     2
 49
16.98719978
 49
-153.01280212
 53
495.9637146
 43
-13.36310953
 44
-14.89938505
 45
-35.70712706
 46
20.61555426
 79
     2
 49
16.98719978
 49
-153.01280212
 53
495.9637146
 43
-14.39385885
 44
-16.68469524
 45
-35.70712706
 46
20.61555426
 79
     2
 49
16.98719978
 49
-153.01280212
 53
495.9637146
 43
-45.57347253
 44
-12.96597303
 45
-35.70712706
 46
20.61555426
 79
     2
 49
4.24679995
 49
-165.75320435
 53
495.96380615
 43
-51.20582145
 44
-14.47508098
 45
-35.70716
 46
20.6154972
 79
     2
 49
8.49359989
 49
-161.50639343
 53
495.96380615
 43
-28.75072885
 44
-25.05912335
 45
-35.70716
 46
20.6154972
 79
     2
 49
8.49359989
 49
-161.50639343
 53
495.9637146
 43
-7.14141835
 44
4.1230998
 45
-35.70712706
 46
20.61555426
 79
     2
 49
16.98719978
 49
-153.01280212
 53
495.9637146
 43
-42.99652341
 44
-8.50256623
 45
-35.70712706
 46
20.61555426
 79
     2
 49
12.74040031
 49
-157.25959778
 53
495.9637146
 43
-45.02117199
 44
-3.76295388
 45
-35.70712706
 46
20.61555426
 79
     2
 49
25.48080063
 49
-144.51919556
 47
0.775229
 98
        1
 10
0.0
 20
0.0
  0
3DFACE
  5
649
102
{ACAD_REACTORS
330
64A
102
}
100
AcDbEntity
  8
Sc.1_5
 62
     7
  6
CONTINUOUS
100
AcDbFace
 70
     0
 10
2901.08127609
 20
-1810.90631669
 30
975.35996094
 11
2889.08149502
 21
-1790.12171945
 31
975.35996094
 12
2825.31348644
 22
-1826.93820664
 32
975.35996094
 13
2837.31342631
 23
-1847.72271219
 33
975.35996094
  0
HATCH
  5
64A
100
AcDbEntity
  8
Sc.1_5
 62
     9
  6
CONTINUOUS
100
AcDbHatch
 10
0.0
 20
0.0
 30
0.0
210
0.0
220
0.0
230
1.0
  2
Wood
 70
     0
 71
     1
 91
        1
 92
        7
 72
     0
 73
     1
 93
        4
 10
2901.08127609
 20
-1810.90631669
 10
2889.08149502
 20
-1790.12171945
 10
2825.31348644
 20
-1826.93820664
 10
2837.31342631
 20
-1847.72271219
 97
        1
330
649
 75
     0
 76
     2
 52
29.84139633
 41
1.0
 77
     0
 78
    66
 53
29.84139633
 43
0.0
 44
0.0
 45
-20.51662718
 46
35.76410863
 79
     4
 49
8.24619961
 49
-12.36929989
 49
4.1230998
 49
-16.49239922
 53
29.84139633
 43
24.52188959
 44
15.25572712
 45
-20.51662718
 46
35.76410863
 79
     2
 49
8.24619961
 49
-32.98479843
 53
29.84139633
 43
19.91968298
 44
14.99222691
 45
-20.51662718
 46
35.76410863
 79
     2
 49
4.1230998
 49
-37.10800171
 53
29.84139633
 43
-0.26341322
 44
4.60225596
 45
-20.51662718
 46
35.76410863
 79
     4
 49
2.06159997
 49
-28.86170006
 49
2.06159997
 49
-8.24619961
 53
29.84139633
 43
11.22809707
 44
13.57127784
 45
-20.51662718
 46
35.76410863
 79
     4
 49
8.24619961
 49
-12.36929989
 49
2.06159997
 49
-18.55400085
 53
29.84139633
 43
1.77425802
 44
9.33619425
 45
-20.51662718
 46
35.76410863
 79
     2
 49
6.18470001
 49
-35.04639816
 53
29.84139633
 43
10.20229324
 44
15.35943529
 45
-20.51662718
 46
35.76410863
 79
     2
 49
12.36929989
 49
-28.86170006
 53
29.84139633
 43
-1.0398406
 44
10.09858507
 45
-20.51662718
 46
35.76410863
 79
     2
 49
8.24619961
 49
-32.98479843
 53
29.84139633
 43
12.75284169
 44
19.19933841
 45
-20.51662718
 46
35.76410863
 79
     2
 49
20.6154995
 49
-20.6154995
 53
29.84139633
 43
0.99783091
 44
14.83252241
 45
-20.51662718
 46
35.76410863
 79
     4
 49
4.1230998
 49
-12.36929989
 49
8.24619961
 49
-16.49239922
 53
29.84139633
 43
25.51980907
 44
30.08830021
 45
-20.51662718
 46
35.76410863
 79
     2
 49
8.24619961
 49
-32.98479843
 53
29.84139633
 43
17.85398937
 44
26.87905611
 45
-20.51662718
 46
35.76410863
 79
     2
 49
4.1230998
 49
-37.10800171
 53
29.84139633
 43
10.18830671
 44
23.66977629
 45
-20.51662718
 46
35.76410863
 79
     2
 49
4.1230998
 49
-37.10800171
 53
29.84139633
 43
-8.20663094
 44
14.30560871
 45
-20.51662718
 46
35.76410863
 79
     2
 49
8.24619961
 49
-32.98479843
 53
29.84139633
 43
9.16245353
 44
25.45801978
 45
-20.51662718
 46
35.76410863
 79
     2
 49
8.24619961
 49
-32.98479843
 53
29.84139633
 43
8.13659891
 44
27.24626574
 45
-20.51662718
 46
35.76410863
 79
     4
 49
8.24619961
 49
-8.24619961
 49
8.24619961
 49
-16.49239922
 53
29.84139633
 43
-0.0420088
 44
24.9311069
 45
-20.51662718
 46
35.76410863
 79
     4
 49
4.1230998
 49
-20.6154995
 49
8.24619961
 49
-8.24619961
 53
29.84139633
 43
6.59786872
 44
29.92854452
 45
-20.51662718
 46
35.76410863
 79
     2
 49
12.36929989
 49
-28.86170006
 53
29.84139633
 43
5.57206441
 44
31.7167028
 45
-20.51662718
 46
35.76410863
 79
     2
 49
8.24619961
 49
-32.98479843
 53
29.84139633
 43
-9.24647154
 44
24.40419378
 45
-20.51662718
 46
35.76410863
 79
     4
 49
12.36929989
 49
-16.49239922
 49
4.1230998
 49
-8.24619961
 53
29.84139633
 43
-10.2723252
 44
26.19243809
 45
-20.51662718
 46
35.76410863
 79
     2
 49
20.6154995
 49
-20.6154995
 53
29.84139633
 43
10.67321162
 44
39.39642134
 45
-20.51662718
 46
35.76410863
 79
     2
 49
4.1230998
 49
-37.10800171
 53
29.84139633
 43
-0.56892298
 44
34.13556958
 45
-20.51662718
 46
35.76410863
 79
     2
 49
8.24619961
 49
-32.98479843
 53
29.84139633
 43
-8.23465417
 44
30.92637626
 45
-20.51662718
 46
35.76410863
 79
     4
 49
4.1230998
 49
-16.49239922
 49
4.1230998
 49
-16.49239922
 53
29.84139633
 43
-12.32398318
 44
29.76884068
 45
-20.51662718
 46
35.76410863
 79
     4
 49
4.1230998
 49
-12.36929989
 49
8.24619961
 49
-16.49239922
 53
29.84139633
 43
-5.68405494
 44
34.76619086
 45
-20.51662718
 46
35.76410863
 79
     4
 49
4.1230998
 49
-20.6154995
 49
4.1230998
 49
-12.36929989
 53
29.84139633
 43
0.95582258
 44
39.76362848
 45
-20.51662718
 46
35.76410863
 79
     2
 49
12.36929989
 49
-28.86170006
 53
29.84139633
 43
-14.3756421
 44
33.34524492
 45
-20.51662718
 46
35.76410863
 79
     2
 49
8.24619961
 49
-32.98479843
 53
29.84139633
 43
2.99344278
 44
44.49765623
 45
-20.51662718
 46
35.76410863
 79
     2
 49
4.1230998
 49
-37.10800171
 53
29.84139633
 43
9.63337073
 44
49.49500404
 45
-20.51662718
 46
35.76410863
 79
     2
 49
4.1230998
 49
-37.10800171
 53
43.8775959
 43
23.49608557
 44
17.04388488
 45
-35.76408799
 46
-20.51657892
 79
     2
 49
4.24679995
 49
-165.75320435
 53
43.8775959
 43
22.45624397
 44
27.14246883
 45
-35.76408799
 46
-20.51657892
 79
     2
 49
4.24679995
 49
-165.75320435
 53
43.8775959
 43
6.56984537
 44
46.5493142
 45
-35.76408799
 46
-20.51657892
 79
     2
 49
4.24679995
 49
-165.75320435
 53
43.8775959
 43
3.53439296
 44
26.98276439
 45
-35.76408799
 46
-20.51657892
 79
     2
 49
4.24679995
 49
-165.75320435
 53
43.8775959
 43
7.60968651
 44
36.45072724
 45
-35.76408799
 46
-20.51657892
 79
     2
 49
4.24679995
 49
-165.75320435
 53
43.8775959
 43
12.72486959
 44
35.82001875
 45
-35.76408799
 46
-20.51657892
 79
     2
 49
4.24679995
 49
-165.75320435
 53
43.8775959
 43
-8.747581
 44
31.82049842
 45
-35.76408799
 46
-20.51657892
 79
     2
 49
4.24679995
 49
-165.75320435
 53
43.8775959
 43
6.5838822
 44
38.23888552
 45
-35.76408799
 46
-20.51657892
 79
     2
 49
4.24679995
 49
-165.75320435
 53
43.8775959
 43
21.43039031
 44
28.93071314
 45
-35.76408799
 46
-20.51657892
 79
     2
 49
8.49359989
 49
-161.50639343
 53
43.8775959
 43
16.31525871
 44
29.56133572
 45
-35.76408799
 46
-20.51657892
 79
     2
 49
8.49359989
 49
-161.50639343
 53
43.8775959
 43
15.28940409
 44
31.34958169
 45
-35.76408799
 46
-20.51657892
 79
     2
 49
8.49359989
 49
-161.50639343
 53
195.80520248
 43
11.22809707
 44
13.57127784
 45
-35.7640545
 46
-20.51663729
 79
     4
 49
4.24679995
 49
-8.49359989
 49
4.24679995
 49
-153.01280212
 53
195.80520248
 43
0.99783091
 44
14.83252241
 45
-35.7640545
 46
-20.51663729
 79
     2
 49
4.24679995
 49
-165.75320435
 53
195.80520248
 43
-8.23465417
 44
30.92637626
 45
-35.7640545
 46
-20.51663729
 79
     2
 49
8.49359989
 49
-161.50639343
 53
223.87759018
 43
24.52188959
 44
15.25572712
 45
35.76409003
 46
20.51657535
 79
     2
 49
4.24679995
 49
-165.75320435
 53
375.80511093
 43
31.67478245
 44
19.35909337
 45
35.76408728
 46
20.51658015
 79
     2
 49
4.24679995
 49
-165.75320435
 53
375.80511093
 43
13.7647093
 44
25.72143427
 45
35.76408728
 46
20.51658015
 79
     2
 49
4.24679995
 49
-165.75320435
 53
375.80511093
 43
17.32707484
 44
36.08351749
 45
35.76408728
 46
20.51658015
 79
     2
 49
4.24679995
 49
-165.75320435
 53
375.80511093
 43
1.48273499
 44
30.55916698
 45
35.76408728
 46
20.51658015
 79
     2
 49
4.24679995
 49
-165.75320435
 53
375.80511093
 43
-4.65825158
 44
32.97803423
 45
35.76408728
 46
20.51658015
 79
     2
 49
4.24679995
 49
-165.75320435
 53
375.80511093
 43
-2.10765318
 44
36.81784836
 45
35.76408728
 46
20.51658015
 79
     2
 49
4.24679995
 49
-165.75320435
 53
375.80511093
 43
1.48273499
 44
30.55916698
 45
35.76408728
 46
20.51658015
 79
     2
 49
4.24679995
 49
-165.75320435
 53
375.80511093
 43
9.13443113
 44
42.0787878
 45
35.76408728
 46
20.51658015
 79
     2
 49
16.98719978
 49
-153.01280212
 53
375.80511093
 43
1.52474444
 44
5.62805991
 45
35.76408728
 46
20.51658015
 79
     2
 49
16.98719978
 49
-153.01280212
 53
375.80511093
 43
3.56241548
 44
10.36199808
 45
35.76408728
 46
20.51658015
 79
     2
 49
16.98719978
 49
-153.01280212
 53
375.80511093
 43
6.11296417
 44
14.20190078
 45
35.76408728
 46
20.51658015
 79
     4
 49
4.24679995
 49
-8.49359989
 49
8.49359989
 49
-148.76600647
 53
375.80511093
 43
4.5742335
 44
16.88418039
 45
35.76408728
 46
20.51658015
 79
     4
 49
8.49359989
 49
-8.49359989
 49
8.49359989
 49
-144.51919556
 53
375.80511093
 43
-1.05382659
 44
18.40892418
 45
35.76408728
 46
20.51658015
 79
     2
 49
16.98719978
 49
-153.01280212
 53
375.80511093
 43
-6.16901021
 44
19.03963456
 45
35.76408728
 46
20.51658015
 79
     2
 49
16.98719978
 49
-153.01280212
 53
375.80511093
 43
-7.19481357
 44
20.82779119
 45
35.76408728
 46
20.51658015
 79
     2
 49
16.98719978
 49
-153.01280212
 53
375.80511093
 43
11.6850287
 44
45.91860145
 45
35.76408728
 46
20.51658015
 79
     2
 49
4.24679995
 49
-165.75320435
 53
375.80520248
 43
13.20986266
 44
51.54671327
 45
35.7640545
 46
20.51663729
 79
     2
 49
8.49359989
 49
-161.50639343
 53
375.80520248
 43
-7.22283733
 44
37.44856063
 45
35.7640545
 46
20.51663729
 79
     2
 49
8.49359989
 49
-161.50639343
 53
375.80511093
 43
7.15280435
 44
4.10331547
 45
35.76408728
 46
20.51658015
 79
     2
 49
16.98719978
 49
-153.01280212
 53
375.80511093
 43
14.24961256
 44
41.44807836
 45
35.76408728
 46
20.51658015
 79
     2
 49
12.74040031
 49
-157.25959778
 53
375.80511093
 43
19.36483563
 44
40.81750715
 45
35.76408728
 46
20.51658015
 79
     2
 49
25.48080063
 49
-144.51919556
 47
0.775229
 98
        1
 10
0.0
 20
0.0
  0
LWPOLYLINE
  5
64B
100
AcDbEntity
  8
Sc.1_5
 62
     9
  6
CONTINUOUS
370
    20
100
AcDbPolyline
 90
       12
 70
     1
 43
0.0
 38
548.63999023
 39
-548.63999023
 10
2886.57520403
 20
-1808.92879709
 10
2894.98028452
 20
-1823.47287164
 10
2895.91884009
 20
-1825.09822715
 10
2896.05962643
 20
-1825.34203567
 10
2896.79156318
 20
-1826.32804996
 10
2896.88550883
 20
-1826.49074155
 10
2898.13462228
 20
-1827.50330235
 10
2898.02771811
 20
-1826.1560324
 10
2897.88703989
 20
-1825.91241111
 10
2897.49269794
 20
-1824.94797799
 10
2897.30498682
 20
-1824.62290688
 10
2887.96634386
 20
-1808.45059359
  0
LINE
  5
64C
100
AcDbEntity
  8
Sc.1_5
 62
     9
  6
CONTINUOUS
370
    -3
100
AcDbLine
 10
2888.33591417
 20
-1808.12879971
 30
0.0
 11
2886.02290368
 21
-1808.92261582
 31
0.0
  0
3DFACE
  5
64D
100
AcDbEntity
  8
Sc.1_5
 62
     9
  6
CONTINUOUS
370
    20
100
AcDbFace
 70
     0
 10
2877.09543594
 20
-1793.46236042
 30
548.63999023
 11
2886.02290368
 21
-1808.92261582
 31
548.63999023
 12
2888.33591417
 22
-1808.12879971
 32
548.63999023
 13
2879.17381053
 23
-1792.26221064
 33
548.63999023
  0
3DFACE
  5
64E
100
AcDbEntity
  8
Sc.1_5
 62
     9
  6
CONTINUOUS
370
    20
100
AcDbFace
 70
     0
 10
2886.02290368
 20
-1808.92261582
 30
548.63999023
 11
2886.57520403
 21
-1808.92879709
 31
548.63999023
 12
2887.96634386
 22
-1808.45059359
 32
548.63999023
 13
2888.33591417
 23
-1808.12879971
 33
548.63999023
  0
LWPOLYLINE
  5
64F
100
AcDbEntity
  8
Sc.1_5
 62
     9
  6
CONTINUOUS
370
    20
100
AcDbPolyline
 90
        8
 70
     1
 43
0.0
 38
548.63999023
 39
-548.63999023
 10
2888.88550719
 20
-1813.87996572
 10
2889.25508952
 20
-1813.55819265
 10
2890.68816102
 20
-1813.16413496
 10
2891.19851767
 20
-1813.08614961
 10
2890.82894736
 20
-1813.40794349
 10
2889.43780754
 20
-1813.88614699
 10
2888.88550719
 20
-1813.87996572
 10
2891.19851767
 20
-1813.08614961
  0
LWPOLYLINE
  5
650
100
AcDbEntity
  8
Sc.1_5
 62
     9
  6
CONTINUOUS
370
    20
100
AcDbPolyline
 90
        8
 70
     1
 43
0.0
 38
548.63999023
 39
-548.63999023
 10
2889.82406276
 20
-1815.50532122
 10
2890.19364509
 20
-1815.18354815
 10
2891.6267166
 20
-1814.78949047
 10
2892.13707325
 20
-1814.71150512
 10
2891.76750294
 20
-1815.03329899
 10
2890.37636311
 20
-1815.5115025
 10
2889.82406276
 20
-1815.50532122
 10
2892.13707325
 20
-1814.71150512
  0
LWPOLYLINE
  5
651
100
AcDbEntity
  8
Sc.1_5
 62
     9
  6
CONTINUOUS
370
    20
100
AcDbPolyline
 90
        8
 70
     1
 43
0.0
 38
548.63999023
 39
-548.63999023
 10
2892.68666627
 20
-1820.46267112
 10
2893.0562486
 20
-1820.14089805
 10
2894.4893201
 20
-1819.74684036
 10
2895.04661354
 20
-1819.75013839
 10
2894.63010644
 20
-1819.99064889
 10
2893.24395971
 20
-1820.46596915
 10
2892.68666627
 20
-1820.46267112
 10
2895.04661354
 20
-1819.75013839
  0
LWPOLYLINE
  5
652
100
AcDbEntity
  8
Sc.1_5
 62
     9
  6
CONTINUOUS
370
    20
100
AcDbPolyline
 90
        8
 70
     1
 43
0.0
 38
548.63999023
 39
-548.63999023
 10
2894.56377742
 20
-1823.71338214
 10
2894.98028452
 20
-1823.47287164
 10
2896.36643125
 20
-1822.99755138
 10
2896.92372469
 20
-1823.00084941
 10
2896.55414236
 20
-1823.32262248
 10
2895.12107086
 20
-1823.71668017
 10
2894.56377742
 20
-1823.71338214
 10
2896.92372469
 20
-1823.00084941
  0
LWPOLYLINE
  5
653
100
AcDbEntity
  8
Sc.1_5
 62
     9
  6
CONTINUOUS
370
    20
100
AcDbPolyline
 90
        8
 70
     1
 43
0.0
 38
548.63999023
 39
-548.63999023
 10
2895.50233299
 20
-1825.33873764
 10
2895.91884009
 20
-1825.09822715
 10
2897.30498682
 20
-1824.62290688
 10
2897.86228026
 20
-1824.62620491
 10
2897.49269794
 20
-1824.94797799
 10
2896.05962643
 20
-1825.34203567
 10
2895.50233299
 20
-1825.33873764
 10
2897.86228026
 20
-1824.62620491
  0
LWPOLYLINE
  5
654
100
AcDbEntity
  8
Sc.1_5
 62
     9
  6
CONTINUOUS
370
    20
100
AcDbPolyline
 90
        8
 70
     1
 43
0.0
 38
548.63999023
 39
-548.63999023
 10
2896.46139496
 20
-1826.51870439
 10
2896.79156318
 20
-1826.32804996
 10
2897.88703989
 20
-1825.91241111
 10
2898.31103363
 20
-1825.88424022
 10
2898.02771811
 20
-1826.1560324
 10
2896.88550883
 20
-1826.49074155
 10
2896.46139496
 20
-1826.51870439
 10
2898.31103363
 20
-1825.88424022
  0
LWPOLYLINE
  5
655
100
AcDbEntity
  8
Sc.1_5
 62
     9
  6
CONTINUOUS
370
    20
100
AcDbPolyline
 90
       12
 70
     1
 43
0.0
 38
548.63999023
 39
-548.63999023
 10
2914.33429872
 20
-1808.20504558
 10
2905.94138617
 20
-1822.75614524
 10
2905.00307431
 20
-1824.38164146
 10
2904.86232453
 20
-1824.6254711
 10
2904.37438609
 20
-1825.75235691
 10
2904.28046482
 20
-1825.91506258
 10
2904.02812746
 20
-1827.50310844
 10
2905.1414409
 20
-1826.73688522
 10
2905.28208259
 20
-1826.49324284
 10
2905.92013037
 20
-1825.66951239
 10
2906.10779274
 20
-1825.34441314
 10
2915.44401067
 20
-1809.17069976
  0
LINE
  5
656
100
AcDbEntity
  8
Sc.1_5
 62
     9
  6
CONTINUOUS
370
    -3
100
AcDbLine
 10
2915.90747843
 20
-1809.32985738
 30
0.0
 11
2914.06349886
 21
-1807.7236504
 31
0.0
  0
3DFACE
  5
657
100
AcDbEntity
  8
Sc.1_5
 62
     9
  6
CONTINUOUS
370
    20
100
AcDbFace
 70
     0
 10
2922.98864834
 20
-1792.26205656
 30
548.63999023
 11
2914.06349886
 21
-1807.7236504
 31
548.63999023
 12
2915.90747843
 22
-1809.32985738
 32
548.63999023
 13
2925.06720286
 23
-1793.46189469
 33
548.63999023
  0
3DFACE
  5
658
100
AcDbEntity
  8
Sc.1_5
 62
     9
  6
CONTINUOUS
370
    20
100
AcDbFace
 70
     0
 10
2914.06349886
 20
-1807.7236504
 30
548.63999023
 11
2914.33429872
 21
-1808.20504558
 31
548.63999023
 12
2915.44401067
 22
-1809.17069976
 32
548.63999023
 13
2915.90747843
 23
-1809.32985738
 33
548.63999023
  0
LWPOLYLINE
  5
659
100
AcDbEntity
  8
Sc.1_5
 62
     9
  6
CONTINUOUS
370
    20
100
AcDbPolyline
 90
        8
 70
     1
 43
0.0
 38
548.63999023
 39
-548.63999023
 10
2911.20163871
 20
-1812.68142947
 10
2911.66509446
 20
-1812.84060791
 10
2912.7229003
 20
-1813.8846492
 10
2913.04561828
 20
-1814.28763646
 10
2912.58215052
 20
-1814.12847883
 10
2911.47243856
 20
-1813.16282466
 10
2911.20163871
 20
-1812.68142947
 10
2913.04561828
 20
-1814.28763646
  0
LWPOLYLINE
  5
65A
100
AcDbEntity
  8
Sc.1_5
 62
     9
  6
CONTINUOUS
370
    20
100
AcDbPolyline
 90
        8
 70
     1
 43
0.0
 38
548.63999023
 39
-548.63999023
 10
2910.26332686
 20
-1814.30692569
 10
2910.72678261
 20
-1814.46610412
 10
2911.78458845
 20
-1815.51014541
 10
2912.10730642
 20
-1815.91313268
 10
2911.64383867
 20
-1815.75397505
 10
2910.53412671
 20
-1814.78832087
 10
2910.26332686
 20
-1814.30692569
 10
2912.10730642
 20
-1815.91313268
  0
LWPOLYLINE
  5
65B
100
AcDbEntity
  8
Sc.1_5
 62
     9
  6
CONTINUOUS
370
    20
100
AcDbPolyline
 90
        8
 70
     1
 43
0.0
 38
548.63999023
 39
-548.63999023
 10
2907.40146671
 20
-1819.26470477
 10
2907.86492246
 20
-1819.4238832
 10
2908.92272829
 20
-1820.46792449
 10
2909.19852167
 20
-1820.95220216
 10
2908.78197851
 20
-1820.71175412
 10
2907.67726009
 20
-1819.74898244
 10
2907.40146671
 20
-1819.26470477
 10
2909.19852167
 20
-1820.95220216
  0
LWPOLYLINE
  5
65C
100
AcDbEntity
  8
Sc.1_5
 62
     9
  6
CONTINUOUS
370
    20
100
AcDbPolyline
 90
        8
 70
     1
 43
0.0
 38
548.63999023
 39
-548.63999023
 10
2905.52484301
 20
-1822.5156972
 10
2905.94138617
 20
-1822.75614524
 10
2907.04610459
 20
-1823.71891693
 10
2907.32189797
 20
-1824.2031946
 10
2906.85844222
 20
-1824.04401617
 10
2905.80063639
 20
-1822.99997488
 10
2905.52484301
 20
-1822.5156972
 10
2907.32189797
 20
-1824.2031946
  0
LWPOLYLINE
  5
65D
100
AcDbEntity
  8
Sc.1_5
 62
     9
  6
CONTINUOUS
370
    20
100
AcDbPolyline
 90
        8
 70
     1
 43
0.0
 38
548.63999023
 39
-548.63999023
 10
2904.58653116
 20
-1824.14119342
 10
2905.00307431
 20
-1824.38164146
 10
2906.10779274
 20
-1825.34441314
 10
2906.38358612
 20
-1825.82869082
 10
2905.92013037
 20
-1825.66951239
 10
2904.86232453
 20
-1824.6254711
 10
2904.58653116
 20
-1824.14119342
 10
2906.38358612
 20
-1825.82869082
  0
LWPOLYLINE
  5
65E
100
AcDbEntity
  8
Sc.1_5
 62
     9
  6
CONTINUOUS
370
    20
100
AcDbPolyline
 90
        8
 70
     1
 43
0.0
 38
548.63999023
 39
-548.63999023
 10
2904.04418929
 20
-1825.561752
 10
2904.37438609
 20
-1825.75235691
 10
2905.28208259
 20
-1826.49324284
 10
2905.51847823
 20
-1826.84634536
 10
2905.1414409
 20
-1826.73688522
 10
2904.28046482
 20
-1825.91506258
 10
2904.04418929
 20
-1825.561752
 10
2905.51847823
 20
-1826.84634536
  0
LWPOLYLINE
  5
65F
100
AcDbEntity
  8
Sc.1_5
 62
     9
  6
CONTINUOUS
370
    20
100
AcDbPolyline
 90
        6
 70
     1
 43
0.0
 38
548.63999023
 39
-548.63999023
 10
2922.79250513
 20
-1790.07046603
 10
2922.30269894
 20
-1790.11247903
 10
2921.54342938
 20
-1791.42780911
 10
2926.51242183
 20
-1794.29614214
 10
2927.27169139
 20
-1792.98081206
 10
2927.06331111
 20
-1792.53577344
  0
LINE
  5
660
100
AcDbEntity
  8
Sc.1_5
 62
     9
  6
CONTINUOUS
370
    -3
100
AcDbLine
 10
2926.05386629
 20
-1792.2778269
 30
0.0
 11
2926.54367248
 21
-1792.2358139
 31
0.0
  0
LINE
  5
661
100
AcDbEntity
  8
Sc.1_5
 62
     9
  6
CONTINUOUS
370
    -3
100
AcDbLine
 10
2925.84527816
 20
-1791.83266829
 30
0.0
 11
2926.05386629
 21
-1792.2778269
 31
0.0
  0
LINE
  5
662
100
AcDbEntity
  8
Sc.1_5
 62
     9
  6
CONTINUOUS
370
    -3
100
AcDbLine
 10
2925.29459673
 20
-1793.59315698
 30
0.0
 11
2926.05386629
 21
-1792.2778269
 31
0.0
  0
LINE
  5
663
100
AcDbEntity
  8
Sc.1_5
 62
     9
  6
CONTINUOUS
370
    -3
100
AcDbLine
 10
2923.52073189
 20
-1790.81558417
 30
0.0
 11
2923.31214376
 21
-1790.37042556
 31
0.0
  0
LINE
  5
664
100
AcDbEntity
  8
Sc.1_5
 62
     9
  6
CONTINUOUS
370
    -3
100
AcDbLine
 10
2924.01033023
 20
-1790.77345119
 30
0.0
 11
2923.52073189
 21
-1790.81558417
 31
0.0
  0
LINE
  5
665
100
AcDbEntity
  8
Sc.1_5
 62
     9
  6
CONTINUOUS
370
    -3
100
AcDbLine
 10
2922.76146233
 20
-1792.13091425
 30
0.0
 11
2923.52073189
 21
-1790.81558417
 31
0.0
  0
LWPOLYLINE
  5
666
100
AcDbEntity
  8
Sc.1_5
 62
     9
  6
CONTINUOUS
370
    20
100
AcDbPolyline
 90
        8
 70
     1
 43
0.0
 38
548.63999023
 39
-548.63999023
 10
2913.12518701
 20
-1809.34914662
 10
2913.58864276
 20
-1809.50832505
 10
2914.6464486
 20
-1810.55236634
 10
2914.96916658
 20
-1810.9553536
 10
2914.50569882
 20
-1810.79619598
 10
2913.39598687
 20
-1809.8305418
 10
2913.12518701
 20
-1809.34914662
 10
2914.96916658
 20
-1810.9553536
  0
LWPOLYLINE
  5
667
100
AcDbEntity
  8
Sc.1_5
 62
     9
  6
CONTINUOUS
370
    20
100
AcDbPolyline
 90
        8
 70
     1
 43
0.0
 38
548.63999023
 39
-548.63999023
 10
2912.18687516
 20
-1810.97464284
 10
2912.65033091
 20
-1811.13382127
 10
2913.70813675
 20
-1812.17786256
 10
2914.03085473
 20
-1812.58084982
 10
2913.56738697
 20
-1812.4216922
 10
2912.45767502
 20
-1811.45603802
 10
2912.18687516
 20
-1810.97464284
 10
2914.03085473
 20
-1812.58084982
  0
LWPOLYLINE
  5
668
100
AcDbEntity
  8
Sc.1_5
 62
     9
  6
CONTINUOUS
370
    20
100
AcDbPolyline
 90
        8
 70
     1
 43
0.0
 38
548.63999023
 39
-548.63999023
 10
2909.32501501
 20
-1815.93242191
 10
2909.78847076
 20
-1816.09160034
 10
2910.84627659
 20
-1817.13564163
 10
2911.12206997
 20
-1817.61991931
 10
2910.70552681
 20
-1817.37947127
 10
2909.60080839
 20
-1816.41669959
 10
2909.32501501
 20
-1815.93242191
 10
2911.12206997
 20
-1817.61991931
  0
LWPOLYLINE
  5
669
100
AcDbEntity
  8
Sc.1_5
 62
     9
  6
CONTINUOUS
370
    20
100
AcDbPolyline
 90
        8
 70
     1
 43
0.0
 38
548.63999023
 39
-548.63999023
 10
2908.33977856
 20
-1817.63920855
 10
2908.80323431
 20
-1817.79838698
 10
2909.86104014
 20
-1818.84242827
 10
2910.18375812
 20
-1819.24541553
 10
2909.72029036
 20
-1819.0862579
 10
2908.61057841
 20
-1818.12060373
 10
2908.33977856
 20
-1817.63920855
 10
2910.18375812
 20
-1819.24541553
  0
LWPOLYLINE
  5
66A
100
AcDbEntity
  8
Sc.1_5
 62
     9
  6
CONTINUOUS
370
    20
100
AcDbPolyline
 90
        8
 70
     1
 43
0.0
 38
548.63999023
 39
-548.63999023
 10
2906.46315486
 20
-1820.89020098
 10
2906.87969802
 20
-1821.13064903
 10
2907.98441644
 20
-1822.09342071
 10
2908.26020982
 20
-1822.57769838
 10
2907.79675407
 20
-1822.41851995
 10
2906.73894824
 20
-1821.37447866
 10
2906.46315486
 20
-1820.89020098
 10
2908.26020982
 20
-1822.57769838
  0
LWPOLYLINE
  5
66B
100
AcDbEntity
  8
Sc.1_5
 62
     9
  6
CONTINUOUS
370
    20
100
AcDbPolyline
 90
        6
 70
     1
 43
0.0
 38
548.63999023
 39
-548.63999023
 10
2875.09939668
 20
-1792.53641847
 10
2874.8908753
 20
-1792.98160835
 10
2875.65034208
 20
-1794.29682457
 10
2880.61890439
 20
-1791.42774649
 10
2879.85943761
 20
-1790.11253028
 10
2879.36983296
 20
-1790.07047071
  0
LINE
  5
66C
100
AcDbEntity
  8
Sc.1_5
 62
     9
  6
CONTINUOUS
370
    -3
100
AcDbLine
 10
2878.64171793
 20
-1790.81569804
 30
0.0
 11
2878.85023931
 21
-1790.37050815
 31
0.0
  0
LINE
  5
66D
100
AcDbEntity
  8
Sc.1_5
 62
     9
  6
CONTINUOUS
370
    -3
100
AcDbLine
 10
2878.15190545
 20
-1790.77375848
 30
0.0
 11
2878.64171793
 21
-1790.81569804
 31
0.0
  0
LINE
  5
66E
100
AcDbEntity
  8
Sc.1_5
 62
     9
  6
CONTINUOUS
370
    -3
100
AcDbLine
 10
2879.40118471
 20
-1792.13091425
 30
0.0
 11
2878.64171793
 21
-1790.81569804
 31
0.0
  0
LINE
  5
66F
100
AcDbEntity
  8
Sc.1_5
 62
     9
  6
CONTINUOUS
370
    -3
100
AcDbLine
 10
2876.10880282
 20
-1792.27832058
 30
0.0
 11
2875.61899033
 21
-1792.23638102
 31
0.0
  0
LINE
  5
670
100
AcDbEntity
  8
Sc.1_5
 62
     9
  6
CONTINUOUS
370
    -3
100
AcDbLine
 10
2876.31711636
 20
-1791.83325071
 30
0.0
 11
2876.10880282
 21
-1792.27832058
 31
0.0
  0
LINE
  5
671
100
AcDbEntity
  8
Sc.1_5
 62
     9
  6
CONTINUOUS
370
    -3
100
AcDbLine
 10
2876.86826959
 20
-1793.59353679
 30
0.0
 11
2876.10880282
 21
-1792.27832058
 31
0.0
  0
LWPOLYLINE
  5
672
100
AcDbEntity
  8
Sc.1_5
 62
     9
  6
CONTINUOUS
370
    20
100
AcDbPolyline
 90
        8
 70
     1
 43
0.0
 38
548.63999023
 39
-548.63999023
 10
2886.96145926
 20
-1810.54797132
 10
2887.33104158
 20
-1810.22619825
 10
2888.76411309
 20
-1809.83214057
 10
2889.27446974
 20
-1809.75415522
 10
2888.90489943
 20
-1810.07594909
 10
2887.5137596
 20
-1810.5541526
 10
2886.96145926
 20
-1810.54797132
 10
2889.27446974
 20
-1809.75415522
  0
LWPOLYLINE
  5
673
100
AcDbEntity
  8
Sc.1_5
 62
     9
  6
CONTINUOUS
370
    20
100
AcDbPolyline
 90
        8
 70
     1
 43
0.0
 38
548.63999023
 39
-548.63999023
 10
2887.90001483
 20
-1812.17332683
 10
2888.26959716
 20
-1811.85155376
 10
2889.70266866
 20
-1811.45749607
 10
2890.21302531
 20
-1811.37951072
 10
2889.843455
 20
-1811.7013046
 10
2888.45231518
 20
-1812.1795081
 10
2887.90001483
 20
-1812.17332683
 10
2890.21302531
 20
-1811.37951072
  0
LWPOLYLINE
  5
674
100
AcDbEntity
  8
Sc.1_5
 62
     9
  6
CONTINUOUS
370
    20
100
AcDbPolyline
 90
        8
 70
     1
 43
0.0
 38
548.63999023
 39
-548.63999023
 10
2890.76261834
 20
-1817.13067673
 10
2891.13220066
 20
-1816.80890366
 10
2892.56527217
 20
-1816.41484597
 10
2893.12256561
 20
-1816.418144
 10
2892.70605851
 20
-1816.6586545
 10
2891.31991178
 20
-1817.13397476
 10
2890.76261834
 20
-1817.13067673
 10
2893.12256561
 20
-1816.418144
  0
LWPOLYLINE
  5
675
100
AcDbEntity
  8
Sc.1_5
 62
     9
  6
CONTINUOUS
370
    20
100
AcDbPolyline
 90
        8
 70
     1
 43
0.0
 38
548.63999023
 39
-548.63999023
 10
2891.7481107
 20
-1818.83731562
 10
2892.11769302
 20
-1818.51554254
 10
2893.55076453
 20
-1818.12148486
 10
2894.06112118
 20
-1818.04349951
 10
2893.69155087
 20
-1818.36529338
 10
2892.30041105
 20
-1818.84349689
 10
2891.7481107
 20
-1818.83731562
 10
2894.06112118
 20
-1818.04349951
  0
LWPOLYLINE
  5
676
100
AcDbEntity
  8
Sc.1_5
 62
     9
  6
CONTINUOUS
370
    20
100
AcDbPolyline
 90
        8
 70
     1
 43
0.0
 38
548.63999023
 39
-548.63999023
 10
2893.62522185
 20
-1822.08802663
 10
2894.04172895
 20
-1821.84751613
 10
2895.42787568
 20
-1821.37219587
 10
2895.98516912
 20
-1821.3754939
 10
2895.61558679
 20
-1821.69726697
 10
2894.18251529
 20
-1822.09132466
 10
2893.62522185
 20
-1822.08802663
 10
2895.98516912
 20
-1821.3754939
  0
TEXT
  5
677
100
AcDbEntity
  8
Sc.1_5
 62
     7
370
    35
100
AcDbText
 10
2954.11398766
 20
-1779.84816842
 30
0.0
 40
2.5
  1
Woodspan PLT roof panel
  7
TAHOMA
 50
0.0
 41
0.8
 51
0.0
100
AcDbText
  0
TEXT
  5
678
100
AcDbEntity
  8
Sc.1_5
 62
     7
370
    18
100
AcDbText
 10
2954.11398766
 20
-1764.79552324
 30
0.0
 40
2.5
  1
Metal cleat and fixings by engineer
  7
TAHOMA
 50
0.0
 41
0.8
 51
0.0
100
AcDbText
  0
TEXT
  5
679
100
AcDbEntity
  8
Sc.1_5
 62
     7
370
    18
100
AcDbText
 10
2932.04275521
 20
-1852.90521337
 30
0.0
 40
2.5
  1
shaped top plate for
  7
TAHOMA
 50
0.0
 41
0.8
 51
0.0
100
AcDbText
  0
TEXT
  5
67A
100
AcDbEntity
  8
Sc.1_5
 62
     7
370
    18
100
AcDbText
 10
2932.04275521
 20
-1857.15521337
 30
0.0
 40
2.5
  1
walls supporting the roof
  7
TAHOMA
 50
0.0
 41
0.8
 51
0.0
100
AcDbText
  0
TEXT
  5
67B
100
AcDbEntity
  8
Sc.1_5
 62
     7
370
    18
100
AcDbText
 10
2932.28919831
 20
-1868.52803451
 30
0.0
 40
2.5
  1
Stud frame wall to NZS3604:2011
  7
TAHOMA
 50
0.0
 41
0.8
 51
0.0
100
AcDbText
  0
TEXT
  5
67C
100
AcDbEntity
  8
Sc.1_5
 62
     7
370
    18
100
AcDbText
 10
2818.65838063
 20
-1760.34282875
 30
0.0
 40
2.5
  1
Castellated spacer over purlin
  7
TAHOMA
 50
0.0
 41
0.8
 51
0.0
100
AcDbText
  0
TEXT
  5
67D
100
AcDbEntity
  8
Sc.1_5
 62
     7
370
    18
100
AcDbText
 10
2866.41795285
 20
-1879.09721328
 30
0.0
 40
2.5
  1
Ceiling (if required)
  7
TAHOMA
 50
0.0
 41
0.8
 51
0.0
100
AcDbText
  0
TEXT
  5
67E
100
AcDbEntity
  8
Sc.1_5
 62
     7
370
    18
100
AcDbText
 10
2866.54787867
 20
-1882.99498773
 30
0.0
 40
2.5
  1
fixed over battens/strapping
  7
TAHOMA
 50
0.0
 41
0.8
 51
0.0
100
AcDbText
  0
TEXT
  5
67F
100
AcDbEntity
  8
Sc.1_5
 62
     7
370
    18
100
AcDbText
 10
2823.99112294
 20
-1763.81139389
 30
0.0
 40
2.5
  1
Purlin on spaced packers
  7
TAHOMA
 50
0.0
 41
0.8
 51
0.0
100
AcDbText
  0
TEXT
  5
680
100
AcDbEntity
  8
LEGEND
 62
     7
370
    -3
100
AcDbText
 10
2983.2301761
 20
-1927.55865138
 30
0.0
 40
1.60000002
  1
Date
  7
TAHOMA
 50
0.0
 41
1.0
 51
0.0
100
AcDbText
  0
TEXT
  5
681
100
AcDbEntity
  8
LEGEND
 62
     7
370
    -3
100
AcDbText
 10
2968.32192743
 20
-1936.18983213
 30
0.0
 40
1.60000002
  1
Detail
  7
TAHOMA
 50
0.0
 41
1.0
 51
0.0
100
AcDbText
  0
TEXT
  5
682
100
AcDbEntity
  8
LEGEND
 62
     7
370
    18
100
AcDbText
 10
2971.74954267
 20
-1931.99980399
 30
0.0
 40
2.79999995
  1
1.0
  7
TAHOMA
 50
0.0
 41
1.0
 51
0.0
100
AcDbText
  0
TEXT
  5
683
100
AcDbEntity
  8
LEGEND
 62
     7
370
    -3
100
AcDbText
 10
2968.32192743
 20
-1927.55865138
 30
0.0
 40
1.60000002
  1
Version
  7
TAHOMA
 50
0.0
 41
1.0
 51
0.0
100
AcDbText
  0
TEXT
  5
684
100
AcDbEntity
  8
LEGEND
 62
     7
370
    -3
100
AcDbText
 10
2837.38113612
 20
-1927.55865138
 30
0.0
 40
1.60000002
  1
Phone:
  7
TAHOMA
 50
0.0
 41
1.0
 51
0.0
100
AcDbText
  0
TEXT
  5
685
100
AcDbEntity
  8
LEGEND
 62
     7
370
    -3
100
AcDbText
 10
2837.38113612
 20
-1931.67943855
 30
0.0
 40
1.60000002
  1
Email:
  7
TAHOMA
 50
0.0
 41
1.0
 51
0.0
100
AcDbText
  0
TEXT
  5
686
100
AcDbEntity
  8
LEGEND
 62
     7
370
    -3
100
AcDbText
 10
2837.38113612
 20
-1935.80022571
 30
0.0
 40
1.60000002
  1
Web:
  7
TAHOMA
 50
0.0
 41
1.0
 51
0.0
100
AcDbText
  0
TEXT
  5
687
100
AcDbEntity
  8
LEGEND
 62
     7
370
    18
100
AcDbText
 10
2847.28311709
 20
-1928.35865138
 30
0.0
 40
2.4000001
  1
06 755 9000
  7
TAHOMA
 50
0.0
 41
1.0
 51
0.0
100
AcDbText
  0
TEXT
  5
688
100
AcDbEntity
  8
LEGEND
 62
     7
370
    18
100
AcDbText
 10
2847.28311709
 20
-1932.47943855
 30
0.0
 40
2.4000001
  1
info@woodspan.co.nz
  7
TAHOMA
 50
0.0
 41
1.0
 51
0.0
100
AcDbText
  0
TEXT
  5
689
100
AcDbEntity
  8
LEGEND
 62
     7
370
    18
100
AcDbText
 10
2847.28311709
 20
-1936.60022571
 30
0.0
 40
2.4000001
  1
www.woodspan.co.nz
  7
TAHOMA
 50
0.0
 41
1.0
 51
0.0
100
AcDbText
  0
TEXT
  5
68A
100
AcDbEntity
  8
LEGEND
 62
     7
370
    18
100
AcDbText
 10
2837.33350183
 20
-1940.72101287
 30
0.0
 40
2.4000001
  1
Connett Road, Bell Block, New Plymouth
  7
TAHOMA
 50
0.0
 41
1.0
 51
0.0
100
AcDbText
  0
TEXT
  5
68B
100
AcDbEntity
  8
LEGEND
 62
     7
370
    18
100
AcDbText
 10
2984.31582557
 20
-1931.79980399
 30
0.0
 40
2.4000001
  1
11.07.2019
  7
TAHOMA
 50
0.0
 41
1.0
 51
0.0
100
AcDbText
  0
TEXT
  5
68C
100
AcDbEntity
  8
LEGEND
 62
     7
370
    18
100
AcDbText
 10
2976.3492038
 20
-1939.73315868
 30
0.0
 40
4.0
  1

  7
TAHOMA
 50
0.0
 41
0.95
 51
0.0
100
AcDbText
  0
TEXT
  5
68D
100
AcDbEntity
  8
LEGEND
 62
     7
370
    18
100
AcDbText
 10
2977.11490702
 20
-1940.05624061
 30
0.0
 40
4.0
  1
PLT 4.6
  7
TAHOMA
 50
0.0
 41
0.95
 51
0.0
100
AcDbText
  0
TEXT
  5
68E
100
AcDbEntity
  8
LEGEND
 62
     7
370
    18
100
AcDbText
 10
2896.32500066
 20
-1932.13297832
 30
0.0
 40
4.0
  1
PLT roof - Ridge (Option 2)
  7
TAHOMA
 50
0.0
 41
0.95
 51
0.0
100
AcDbText
  0
TEXT
  5
68F
100
AcDbEntity
  8
LEGEND
 62
     7
370
    18
100
AcDbText
 10
2888.95636109
 20
-1922.5982645
 30
0.0
 40
2.4000001
  1
Indicative details only
  7
TAHOMA
 50
0.0
 41
1.0
 51
0.0
100
AcDbText
  0
ENDSEC
  0
SECTION
  2
OBJECTS
  0
DICTIONARY
  5
1
100
AcDbDictionary
  3
ACAD_GROUP
350
2
  3
ACAD_MLINESTYLE
350
3
  0
DICTIONARY
  5
2
102
{CDWK_REACTORS
330
1
102
}
100
AcDbDictionary
  0
DICTIONARY
  5
3
102
{CDWK_REACTORS
330
1
102
}
100
AcDbDictionary
  3
STANDARD
350
4
  0
MLINESTYLE
  5
4
102
{CDWK_REACTORS
330
3
102
}
100
AcDbMlineStyle
  2
STANDARD
 70
     0
  3

 62
     0
 51
90.0
 52
90.0
 71
     2
 49
0.5
 62
   256
  6
BYLAYER
 49
-0.5
 62
   256
  6
BYLAYER
  0
ENDSEC
  0
EOF
